  0
SECTION
  2
HEADER
  9
$ACADVER
  1
AC1009
  9
$INSBASE
 10
0
 20
0
 30
0
  9
$EXTMIN
 10
0
 20
0
  9
$EXTMAX
 10
4158
 20
2940
  9
$LIMMIN
 10
0
 20
0
  9
$LIMMAX
 10
4158
 20
2940
  9
$LTSCALE
 40
7
  0
ENDSEC
  0
SECTION
  2
TABLES
  0
TABLE
  2
LTYPE
 70
     9
  0
LTYPE
  2
CONTINUOUS
 70
    64
  3
実線
 72
    65
 73
     0
 40
0.0
  0
LTYPE
  2
DASHED1
 70
    64
  3
--  --  --  --  --  --  --  --  
 72
    65
 73
     2
 40
2.5
 49
1.25
 49
-1.25
  0
LTYPE
  2
DASHED2
 70
    64
  3
----    ----    ----    ----    
 72
    65
 73
     2
 40
5.0
 49
2.5
 49
-2.5
  0
LTYPE
  2
DASHED3
 70
    64
  3
------  ------  ------  ------  
 72
    65
 73
     2
 40
5.0
 49
3.75
 49
-1.25
  0
LTYPE
  2
CENTER1
 70
    64
  3
----- - ----- - ----- - ----- - 
 72
    65
 73
     4
 40
10.0
 49
6.25
 49
-1.25
 49
1.25
 49
-1.25
  0
LTYPE
  2
CENTER2
 70
    64
  3
----------  --  ----------  --  
 72
    65
 73
     4
 40
20.0
 49
12.5
 49
-2.5
 49
2.5
 49
-2.5
  0
LTYPE
  2
PHANTOM1
 70
    64
  3
--- - - --- - - --- - - --- - - 
 72
    65
 73
     6
 40
10.0
 49
3.25
 49
-1.25
 49
1.25
 49
-1.25
 49
1.25
 49
-1.25
  0
LTYPE
  2
PHANTOM2
 70
    64
  3
--------  -  -  --------  -  -  
 72
    65
 73
     6
 40
20.0
 49
10.0
 49
-2.5
 49
1.25
 49
-2.5
 49
1.25
 49
-2.5
  0
LTYPE
  2
DOT
 70
    64
  3
-   -   -   -   -   -   -   -   
 72
    65
 73
     2
 40
2.5
 49
0.625
 49
-1.875
  0
LTYPE
  2
DUMMY
 70
    64
  3
ダミー
 72
    65
 73
     0
 40
0.0
  0
LTYPE
  2
RAND1
 70
    64
  3
ランダム線1
 72
    65
 73
     4
 40
10.0
 49
1.0
 49
-2.0
 49
3.0
 49
-4.0
  0
LTYPE
  2
RAND2
 70
    64
  3
ランダム線2
 72
    65
 73
     4
 40
14.0
 49
2.0
 49
-3.0
 49
4.0
 49
-5.0
  0
LTYPE
  2
RAND3
 70
    64
  3
ランダム線3
 72
    65
 73
     4
 40
18.0
 49
3.0
 49
-4.0
 49
5.0
 49
-6.0
  0
LTYPE
  2
RAND4
 70
    64
  3
ランダム線4
 72
    65
 73
     4
 40
22.0
 49
4.0
 49
-5.0
 49
6.0
 49
-7.0
  0
LTYPE
  2
RAND5
 70
    64
  3
ランダム線5
 72
    65
 73
     4
 40
26.0
 49
5.0
 49
-6.0
 49
7.0
 49
-8.0
  0
LTYPE
  2
LONG1
 70
    64
  3
----------  --  ----------  --  
 72
    65
 73
     4
 40
40.0
 49
32.5
 49
-2.5
 49
2.5
 49
-2.5
  0
LTYPE
  2
LONG2
 70
    64
  3
--------  -  -  --------  -  -  
 72
    65
 73
     6
 40
40.0
 49
30.0
 49
-2.5
 49
1.25
 49
-2.5
 49
1.25
 49
-2.5
  0
LTYPE
  2
LONG3
 70
    64
  3
+++++++++++++++..+++++++++++++++
 72
    65
 73
     2
 40
40.0
 49
37.5
 49
-2.5
  0
LTYPE
  2
LONG4
 70
    64
  3
+++++++++++++++..+++++++++++++++
 72
    65
 73
     2
 40
80.0
 49
75.0
 49
-5.0
  0
LTYPE
  2
LONG5
 70
    64
  3
----------  --  ----------  --  
 72
    65
 73
     4
 40
60.0
 49
37.5
 49
-7.5
 49
7.5
 49
-7.5
  0
LTYPE
  2
dashed
 70
   64
  3
-------   -------------   ------
 72
   65
 73
    2
 40
7.5
 49
6
 49
-1.5
  0
LTYPE
  2
dashed_spaced
 70
   64
  3
----        --------        ----
 72
   65
 73
    2
 40
12
 49
6
 49
-6
  0
LTYPE
  2
long_dashed_dotted
 70
   64
  3
------------- --- --------------
 72
   65
 73
    4
 40
15.25
 49
12
 49
-1.5
 49
0.25
 49
-1.5
  0
LTYPE
  2
long_dashed_double-dotted
 70
   64
  3
----------- --- --- ------------
 72
   65
 73
    6
 40
17
 49
12
 49
-1.5
 49
0.25
 49
-1.5
 49
0.25
 49
-1.5
  0
LTYPE
  2
long_dashed_triplicate-dotted
 70
   64
  3
--------- --- --- --- ----------
 72
   65
 73
    8
 40
18.75
 49
12
 49
-1.5
 49
0.25
 49
-1.5
 49
0.25
 49
-1.5
 49
0.25
 49
-1.5
  0
LTYPE
  2
dotted
 70
   64
  3
   -       -       -       -    
 72
   65
 73
    2
 40
1.75
 49
0.25
 49
-1.5
  0
LTYPE
  2
chain
 70
   64
  3
-------------- -- --------------
 72
   65
 73
    4
 40
18.5
 49
12
 49
-1.5
 49
3.5
 49
-1.5
  0
LTYPE
  2
chain_double_dash
 70
   64
  3
------------ -- -- -------------
 72
   65
 73
    6
 40
23.5
 49
12
 49
-1.5
 49
3.5
 49
-1.5
 49
3.5
 49
-1.5
  0
LTYPE
  2
dashed_dotted
 70
   64
  3
-----------     -     ----------
 72
   65
 73
    4
 40
9.25
 49
6
 49
-1.5
 49
0.25
 49
-1.5
  0
LTYPE
  2
double-dashed_dotted
 70
   64
  3
------   -----------   -   -----
 72
   65
 73
    6
 40
16.75
 49
6
 49
-1.5
 49
6
 49
-1.5
 49
0.25
 49
-1.5
  0
LTYPE
  2
dashed_double-dotted
 70
   64
  3
---------    -    -    ---------
 72
   65
 73
    6
 40
11
 49
6
 49
-1.5
 49
0.25
 49
-1.5
 49
0.25
 49
-1.5
  0
LTYPE
  2
double-dashed_double-dotted
 70
   64
  3
-----   ---------   -   -   ----
 72
   65
 73
    8
 40
18.5
 49
6
 49
-1.5
 49
6
 49
-1.5
 49
0.25
 49
-1.5
 49
0.25
 49
-1.5
  0
LTYPE
  2
dashed_triplicate-dotted
 70
   64
  3
-------    -    -    -    ------
 72
   65
 73
    8
 40
12.75
 49
6
 49
-1.5
 49
0.25
 49
-1.5
 49
0.25
 49
-1.5
 49
0.25
 49
-1.5
  0
LTYPE
  2
double-dashed_triplicate-dotted
 70
   64
  3
-----  ---------  -  -  -  -----
 72
   65
 73
   10
 40
20.25
 49
6
 49
-1.5
 49
6
 49
-1.5
 49
0.25
 49
-1.5
 49
0.25
 49
-1.5
 49
0.25
 49
-1.5
  0
LTYPE
  2
undefined
 70
   64
  3
--------------------------------
 72
   65
 73
    0
 40
0
  0
ENDTAB
  0
TABLE
  2
STYLE
  5
3
100
AcDbSymbolTable
 70
     1
  0
STYLE
  5
10
100
AcDbSymbolTableRecord
100
AcDbTextStyleTableRecord
  2
STANDARD
 70
     0
 40
0.0
 41
1.0
 50
0.0
 71
     0
 42
0.2
  3
txt
  4
bigfont.shx
  0
STYLE
  5
26
100
AcDbSymbolTableRecord
100
AcDbTextStyleTableRecord
  2
TATEGAKI
 70
    68
 40
0.0
 41
1.0
 50
0.0
 71
     0
 42
1.0
  3
txt
  4
bigfont.shx
  0
ENDTAB
  0
TABLE
  2
LAYER
 70
    2
  0
LAYER
  2
_0-0_
 70
   64
 62
    7
  6
CONTINUOUS
  0
LAYER
  2
ADD_LINE
 70
   64
 62
    7
  6
CONTINUOUS
  0
ENDTAB
  0
ENDSEC
  0
SECTION
  2
BLOCKS
  0
ENDSEC
  0
SECTION
  2
ENTITIES
  0
TEXT
  8
_0-0_
 62
    7
 10
1462.3184380125529
 20
1469.7529190122602
 40
30
 41
0.8
 50
90
  1
250
  0
TEXT
  8
_0-0_
 62
    7
 10
1628.3331435165626
 20
1293.686040031369
 40
30
 41
0.8
 50
0
  1
230
  0
TEXT
  8
_0-0_
 62
    7
 10
2404.6878053371288
 20
1529.1528803851384
 40
30
 41
0.8
 50
0
  1
200R
  0
TEXT
  8
_0-0_
 62
    7
 10
2380.8723052611026
 20
1696.8917338883234
 40
30
 41
0.8
 50
0
  1
600
  0
TEXT
  8
_0-0_
 62
    7
 10
1630.8922484165678
 20
1701.3503326144373
 40
30
 41
0.8
 50
0
  1
180
  0
TEXT
  8
_0-0_
 62
    7
 10
1603.5025316941556
 20
1549.0223261401322
 40
30
 41
0.8
 50
0
  1
30R
  0
TEXT
  8
_0-0_
 62
    7
 10
716.19214437367225
 20
548.26116063991549
 40
40
 41
1
 50
0
  1
名　称
  0
TEXT
  8
_0-0_
 62
    7
 10
923.51698513800352
 20
548.26116063991549
 40
40
 41
1
 50
0
  1
歩車道境界ブロックＢｒ
  0
TEXT
  8
_0-0_
 62
    7
 10
1630.2048832271748
 20
543.80256191380079
 40
40
 41
1
 50
0
  1
分　類
  0
TEXT
  8
_0-0_
 62
    7
 10
1984.6634819532896
 20
546.03186127685808
 40
40
 41
1
 50
0
  1
図　番
  0
TEXT
  8
_0-0_
 62
    7
 10
1808.5488322717606
 20
543.80256191380079
 40
40
 41
1
 50
0
  1
端　末
  0
TEXT
  8
_0-0_
 62
    7
 10
2339.1220806794045
 20
546.03186127685808
 40
40
 41
1
 50
0
  1
参考重量
  0
TEXT
  8
_0-0_
 62
    7
 10
2584.3450106157106
 20
546.03186127685808
 40
40
 41
1
 50
0
  1
72㎏
  0
TEXT
  8
_0-0_
 62
    7
 10
2747.0838641188957
 20
541.57326255074349
 40
50
 41
1
 50
0
  1
岩城ブロック工業株式会社
  0
LINE
  8
_0-0_
  6
CONTINUOUS
 62
    7
 10
704.24946921443643
 20
2419.9999825650661
 11
704.24946921443643
 21
520.00001743493362
  0
LINE
  8
_0-0_
  6
CONTINUOUS
 62
    7
 10
2098.3723052611035
 20
1362.2995597636123
 11
2698.3723052611035
 21
1362.2995597636123
  0
LINE
  8
_0-0_
  6
CONTINUOUS
 62
    7
 10
2098.3723052611035
 20
1612.2995597636123
 11
2098.3723052611035
 21
1362.2995597636123
  0
LINE
  8
_0-0_
  6
CONTINUOUS
 62
    7
 10
2448.3723052611035
 20
1612.2995597636123
 11
2098.3723052611035
 21
1612.2995597636123
  0
ARC
  8
_0-0_
  6
CONTINUOUS
 62
    7
 10
2448.3723052611035
 20
1362.2995597636123
 40
250
 50
0
 51
90
  0
LINE
  8
_0-0_
  6
CONTINUOUS
 62
    7
 10
1540.8853169934443
 20
1362.2529190122605
 11
1770.8853169934437
 21
1362.2529190122605
  0
LINE
  8
_0-0_
  6
CONTINUOUS
 62
    7
 10
1540.8853169934443
 20
1288.686040031369
 11
1770.8853169934437
 21
1288.686040031369
  0
POINT
  8
_0-0_
 62
    7
 10
1540.8853169934443
 20
1288.686040031369
  0
POINT
  8
_0-0_
 62
    7
 10
1770.8853169934437
 20
1288.686040031369
  0
LINE
  8
_0-0_
  6
CONTINUOUS
 62
    7
 10
1540.8853169934443
 20
1288.686040031369
 11
1540.8853169934443
 21
1346.6478234708595
  0
LINE
  8
_0-0_
  6
CONTINUOUS
 62
    7
 10
1770.8853169934437
 20
1288.686040031369
 11
1770.8853169934437
 21
1346.6478234708595
  0
LINE
  8
_0-0_
  6
CONTINUOUS
 62
    7
 10
1467.3184380125529
 20
1362.2529190122605
 11
1467.3184380125529
 21
1612.2529190122602
  0
POINT
  8
_0-0_
 62
    7
 10
1467.3184380125529
 20
1362.2529190122605
  0
POINT
  8
_0-0_
 62
    7
 10
1467.3184380125529
 20
1612.2529190122602
  0
LINE
  8
_0-0_
  6
CONTINUOUS
 62
    7
 10
1467.3184380125529
 20
1362.2529190122605
 11
1516.363023999814
 21
1362.2529190122605
  0
LINE
  8
_0-0_
  6
CONTINUOUS
 62
    7
 10
1467.3184380125529
 20
1612.2529190122602
 11
1516.363023999814
 21
1612.2529190122602
  0
LINE
  8
_0-0_
  6
CONTINUOUS
 62
    7
 10
2098.3723052611035
 20
1691.8917338883234
 11
2698.3723052611035
 21
1691.8917338883234
  0
POINT
  8
_0-0_
 62
    7
 10
2098.3723052611035
 20
1691.8917338883234
  0
POINT
  8
_0-0_
 62
    7
 10
2698.3723052611035
 20
1691.8917338883234
  0
LINE
  8
_0-0_
  6
CONTINUOUS
 62
    7
 10
2098.3723052611035
 20
1691.8917338883234
 11
2098.3723052611035
 21
1638.3885491749472
  0
LINE
  8
_0-0_
  6
CONTINUOUS
 62
    7
 10
2698.3723052611035
 20
1691.8917338883234
 11
2698.3723052611035
 21
1638.3885491749472
  0
LINE
  8
_0-0_
  6
CONTINUOUS
 62
    7
 10
2590.5264649005367
 20
1568.0023266101373
 11
2568.683117638308
 21
1532.3808679978883
  0
LINE
  8
_0-0_
  6
CONTINUOUS
 62
    7
 10
2568.683117638308
 20
1532.3808679978883
 11
2494.0796854503897
 21
1532.3808679978883
  0
LINE
  8
_0-0_
  6
CONTINUOUS
 62
    7
 10
1563.3641053538506
 20
1585.9112290636112
 11
1540.8853169934443
 21
1362.2529190122605
  0
LINE
  8
_0-0_
  6
CONTINUOUS
 62
    7
 10
1593.1402160395708
 20
1612.2529190122602
 11
1668.3853169934437
 21
1612.2529190122602
  0
ARC
  8
_0-0_
  6
CONTINUOUS
 62
    7
 10
1593.1402160395708
 20
1582.2529190122602
 40
30
 50
90
 51
172.995709492348
  0
LINE
  8
_0-0_
  6
CONTINUOUS
 62
    7
 10
1713.6304179473177
 20
1612.2529190122602
 11
1668.3853169934437
 21
1612.2529190122602
  0
LINE
  8
_0-0_
  6
CONTINUOUS
 62
    7
 10
1743.4065286330376
 20
1585.9112290636112
 11
1770.8853169934437
 21
1362.2529190122605
  0
ARC
  8
_0-0_
  6
CONTINUOUS
 62
    7
 10
1713.6304179473177
 20
1582.2529190122602
 40
30
 50
7.0042905076520361
 51
90.000000000000057
  0
LINE
  8
_0-0_
  6
CONTINUOUS
 62
    7
 10
1743.4065286330376
 20
1696.3503326144373
 11
1563.3641053538506
 21
1696.3503326144373
  0
POINT
  8
_0-0_
 62
    7
 10
1743.4065286330376
 20
1696.3503326144373
  0
POINT
  8
_0-0_
 62
    7
 10
1563.3641053538506
 20
1696.3503326144373
  0
LINE
  8
_0-0_
  6
CONTINUOUS
 62
    7
 10
1743.4065286330376
 20
1696.3503326144373
 11
1743.4065286330376
 21
1636.1592498118894
  0
LINE
  8
_0-0_
  6
CONTINUOUS
 62
    7
 10
1563.3641053538506
 20
1696.3503326144373
 11
1563.3641053538506
 21
1636.1592498118894
  0
LINE
  8
_0-0_
  6
CONTINUOUS
 62
    7
 10
1734.7349520602588
 20
1602.0855213306813
 11
1720.6231557737287
 21
1575.7575431841703
  0
LINE
  8
_0-0_
  6
CONTINUOUS
 62
    7
 10
1720.6231557737287
 20
1575.7575431841703
 11
1676.8134001379353
 21
1575.7575431841703
  0
LINE
  8
_0-0_
  6
CONTINUOUS
 62
    7
 10
3404.2494951367034
 20
520.00001743493362
 11
3404.2494951367034
 21
2419.9999825650661
  0
LINE
  8
_0-0_
  6
CONTINUOUS
 62
    7
 10
3404.2494951367034
 20
2419.9999825650661
 11
704.24946921443643
 21
2419.9999825650661
  0
LINE
  8
_0-0_
  6
CONTINUOUS
 62
    7
 10
704.24946921443643
 20
620.00001743493374
 11
3404.2494951367034
 21
620.00001743493374
  0
LINE
  8
_0-0_
  6
CONTINUOUS
 62
    7
 10
704.24946921443643
 20
520.00001743493362
 11
3404.2494951367034
 21
520.00001743493362
  0
LINE
  8
_0-0_
  6
CONTINUOUS
 62
    7
 10
864.24946921443643
 20
620.00001743493374
 11
864.24946921443643
 21
520.00001743493362
  0
LINE
  8
_0-0_
  6
CONTINUOUS
 62
    7
 10
1614.2494692144367
 20
620.00001743493374
 11
1614.2494692144367
 21
520.00001743493362
  0
LINE
  8
_0-0_
  6
CONTINUOUS
 62
    7
 10
1774.2494692144355
 20
620.00001743493374
 11
1774.2494692144355
 21
520.00001743493362
  0
LINE
  8
_0-0_
  6
CONTINUOUS
 62
    7
 10
1974.249469214436
 20
620.00001743493374
 11
1974.249469214436
 21
520.00001743493362
  0
LINE
  8
_0-0_
  6
CONTINUOUS
 62
    7
 10
2134.2494692144364
 20
620.00001743493374
 11
2134.2494692144364
 21
520.00001743493362
  0
LINE
  8
_0-0_
  6
CONTINUOUS
 62
    7
 10
2334.2494692144369
 20
620.00001743493374
 11
2334.2494692144369
 21
520.00001743493362
  0
LINE
  8
_0-0_
  6
CONTINUOUS
 62
    7
 10
2534.2494692144369
 20
620.00001743493374
 11
2534.2494692144369
 21
520.00001743493362
  0
LINE
  8
_0-0_
  6
CONTINUOUS
 62
    7
 10
2734.249469214436
 20
620.00001743493374
 11
2734.249469214436
 21
520.00001743493362
  0
ENDSEC
  0
EOF
