  0
SECTION
  2
HEADER
  9
$ACADVER
  1
AC1009
  9
$INSBASE
 10
0
 20
0
 30
0
  9
$EXTMIN
 10
0
 20
0
  9
$EXTMAX
 10
4752
 20
3360
  9
$LIMMIN
 10
0
 20
0
  9
$LIMMAX
 10
4752
 20
3360
  9
$LTSCALE
 40
8
  0
ENDSEC
  0
SECTION
  2
TABLES
  0
TABLE
  2
LTYPE
 70
     9
  0
LTYPE
  2
CONTINUOUS
 70
    64
  3
実線
 72
    65
 73
     0
 40
0.0
  0
LTYPE
  2
DASHED1
 70
    64
  3
--  --  --  --  --  --  --  --  
 72
    65
 73
     2
 40
2.5
 49
1.25
 49
-1.25
  0
LTYPE
  2
DASHED2
 70
    64
  3
----    ----    ----    ----    
 72
    65
 73
     2
 40
5.0
 49
2.5
 49
-2.5
  0
LTYPE
  2
DASHED3
 70
    64
  3
------  ------  ------  ------  
 72
    65
 73
     2
 40
5.0
 49
3.75
 49
-1.25
  0
LTYPE
  2
CENTER1
 70
    64
  3
----- - ----- - ----- - ----- - 
 72
    65
 73
     4
 40
10.0
 49
6.25
 49
-1.25
 49
1.25
 49
-1.25
  0
LTYPE
  2
CENTER2
 70
    64
  3
----------  --  ----------  --  
 72
    65
 73
     4
 40
20.0
 49
12.5
 49
-2.5
 49
2.5
 49
-2.5
  0
LTYPE
  2
PHANTOM1
 70
    64
  3
--- - - --- - - --- - - --- - - 
 72
    65
 73
     6
 40
10.0
 49
3.25
 49
-1.25
 49
1.25
 49
-1.25
 49
1.25
 49
-1.25
  0
LTYPE
  2
PHANTOM2
 70
    64
  3
--------  -  -  --------  -  -  
 72
    65
 73
     6
 40
20.0
 49
10.0
 49
-2.5
 49
1.25
 49
-2.5
 49
1.25
 49
-2.5
  0
LTYPE
  2
DOT
 70
    64
  3
-   -   -   -   -   -   -   -   
 72
    65
 73
     2
 40
2.5
 49
0.625
 49
-1.875
  0
LTYPE
  2
DUMMY
 70
    64
  3
ダミー
 72
    65
 73
     0
 40
0.0
  0
LTYPE
  2
RAND1
 70
    64
  3
ランダム線1
 72
    65
 73
     4
 40
10.0
 49
1.0
 49
-2.0
 49
3.0
 49
-4.0
  0
LTYPE
  2
RAND2
 70
    64
  3
ランダム線2
 72
    65
 73
     4
 40
14.0
 49
2.0
 49
-3.0
 49
4.0
 49
-5.0
  0
LTYPE
  2
RAND3
 70
    64
  3
ランダム線3
 72
    65
 73
     4
 40
18.0
 49
3.0
 49
-4.0
 49
5.0
 49
-6.0
  0
LTYPE
  2
RAND4
 70
    64
  3
ランダム線4
 72
    65
 73
     4
 40
22.0
 49
4.0
 49
-5.0
 49
6.0
 49
-7.0
  0
LTYPE
  2
RAND5
 70
    64
  3
ランダム線5
 72
    65
 73
     4
 40
26.0
 49
5.0
 49
-6.0
 49
7.0
 49
-8.0
  0
LTYPE
  2
LONG1
 70
    64
  3
----------  --  ----------  --  
 72
    65
 73
     4
 40
40.0
 49
32.5
 49
-2.5
 49
2.5
 49
-2.5
  0
LTYPE
  2
LONG2
 70
    64
  3
--------  -  -  --------  -  -  
 72
    65
 73
     6
 40
40.0
 49
30.0
 49
-2.5
 49
1.25
 49
-2.5
 49
1.25
 49
-2.5
  0
LTYPE
  2
LONG3
 70
    64
  3
+++++++++++++++..+++++++++++++++
 72
    65
 73
     2
 40
40.0
 49
37.5
 49
-2.5
  0
LTYPE
  2
LONG4
 70
    64
  3
+++++++++++++++..+++++++++++++++
 72
    65
 73
     2
 40
80.0
 49
75.0
 49
-5.0
  0
LTYPE
  2
LONG5
 70
    64
  3
----------  --  ----------  --  
 72
    65
 73
     4
 40
60.0
 49
37.5
 49
-7.5
 49
7.5
 49
-7.5
  0
LTYPE
  2
dashed
 70
   64
  3
-------   -------------   ------
 72
   65
 73
    2
 40
7.5
 49
6
 49
-1.5
  0
LTYPE
  2
dashed_spaced
 70
   64
  3
----        --------        ----
 72
   65
 73
    2
 40
12
 49
6
 49
-6
  0
LTYPE
  2
long_dashed_dotted
 70
   64
  3
------------- --- --------------
 72
   65
 73
    4
 40
15.25
 49
12
 49
-1.5
 49
0.25
 49
-1.5
  0
LTYPE
  2
long_dashed_double-dotted
 70
   64
  3
----------- --- --- ------------
 72
   65
 73
    6
 40
17
 49
12
 49
-1.5
 49
0.25
 49
-1.5
 49
0.25
 49
-1.5
  0
LTYPE
  2
long_dashed_triplicate-dotted
 70
   64
  3
--------- --- --- --- ----------
 72
   65
 73
    8
 40
18.75
 49
12
 49
-1.5
 49
0.25
 49
-1.5
 49
0.25
 49
-1.5
 49
0.25
 49
-1.5
  0
LTYPE
  2
dotted
 70
   64
  3
   -       -       -       -    
 72
   65
 73
    2
 40
1.75
 49
0.25
 49
-1.5
  0
LTYPE
  2
chain
 70
   64
  3
-------------- -- --------------
 72
   65
 73
    4
 40
18.5
 49
12
 49
-1.5
 49
3.5
 49
-1.5
  0
LTYPE
  2
chain_double_dash
 70
   64
  3
------------ -- -- -------------
 72
   65
 73
    6
 40
23.5
 49
12
 49
-1.5
 49
3.5
 49
-1.5
 49
3.5
 49
-1.5
  0
LTYPE
  2
dashed_dotted
 70
   64
  3
-----------     -     ----------
 72
   65
 73
    4
 40
9.25
 49
6
 49
-1.5
 49
0.25
 49
-1.5
  0
LTYPE
  2
double-dashed_dotted
 70
   64
  3
------   -----------   -   -----
 72
   65
 73
    6
 40
16.75
 49
6
 49
-1.5
 49
6
 49
-1.5
 49
0.25
 49
-1.5
  0
LTYPE
  2
dashed_double-dotted
 70
   64
  3
---------    -    -    ---------
 72
   65
 73
    6
 40
11
 49
6
 49
-1.5
 49
0.25
 49
-1.5
 49
0.25
 49
-1.5
  0
LTYPE
  2
double-dashed_double-dotted
 70
   64
  3
-----   ---------   -   -   ----
 72
   65
 73
    8
 40
18.5
 49
6
 49
-1.5
 49
6
 49
-1.5
 49
0.25
 49
-1.5
 49
0.25
 49
-1.5
  0
LTYPE
  2
dashed_triplicate-dotted
 70
   64
  3
-------    -    -    -    ------
 72
   65
 73
    8
 40
12.75
 49
6
 49
-1.5
 49
0.25
 49
-1.5
 49
0.25
 49
-1.5
 49
0.25
 49
-1.5
  0
LTYPE
  2
double-dashed_triplicate-dotted
 70
   64
  3
-----  ---------  -  -  -  -----
 72
   65
 73
   10
 40
20.25
 49
6
 49
-1.5
 49
6
 49
-1.5
 49
0.25
 49
-1.5
 49
0.25
 49
-1.5
 49
0.25
 49
-1.5
  0
LTYPE
  2
undefined
 70
   64
  3
--------------------------------
 72
   65
 73
    0
 40
0
  0
ENDTAB
  0
TABLE
  2
STYLE
  5
3
100
AcDbSymbolTable
 70
     1
  0
STYLE
  5
10
100
AcDbSymbolTableRecord
100
AcDbTextStyleTableRecord
  2
STANDARD
 70
     0
 40
0.0
 41
1.0
 50
0.0
 71
     0
 42
0.2
  3
txt
  4
bigfont.shx
  0
STYLE
  5
26
100
AcDbSymbolTableRecord
100
AcDbTextStyleTableRecord
  2
TATEGAKI
 70
    68
 40
0.0
 41
1.0
 50
0.0
 71
     0
 42
1.0
  3
txt
  4
bigfont.shx
  0
ENDTAB
  0
TABLE
  2
LAYER
 70
    2
  0
LAYER
  2
_2-3_0
 70
   64
 62
    7
  6
CONTINUOUS
  0
LAYER
  2
ADD_LINE
 70
   64
 62
    7
  6
CONTINUOUS
  0
ENDTAB
  0
ENDSEC
  0
SECTION
  2
BLOCKS
  0
ENDSEC
  0
SECTION
  2
ENTITIES
  0
TEXT
  8
_2-3_0
 62
    7
 10
1831.3455631889433
 20
1852.4540464482245
 40
50
 41
0.8
 50
0
  1
180
  0
TEXT
  8
_2-3_0
 62
    7
 10
1694.7936335511804
 20
1552.0430326151086
 40
50
 41
0.8
 50
90.000002504478147
  1
250
  0
TEXT
  8
_2-3_0
 62
    7
 10
1824.1384156563172
 20
1681.6908540933166
 40
50
 41
0.8
 50
0
  1
30
  0
TEXT
  8
_2-3_0
 62
    7
 10
2828.0660272579212
 20
1621.2192971115505
 40
50
 41
0.8
 50
0
  1
150
  0
TEXT
  8
_2-3_0
 62
    7
 10
1826.894016501526
 20
1366.7387703855068
 40
50
 41
0.8
 50
0
  1
205
  0
TEXT
  8
_2-3_0
 62
    7
 10
2799.6306760486032
 20
1839.9540732542066
 40
50
 41
0.8
 50
0
  1
600
  0
TEXT
  8
_2-3_0
 62
    7
 10
793.70463736361057
 20
756.08029914178451
 40
50
 41
0.8
 50
0
  1
名　称
  0
TEXT
  8
_2-3_0
 62
    7
 10
1020.8222930758154
 20
744.43326493487871
 40
60
 41
0.8
 50
0
  1
歩車道境界ブロック B端末
  0
TEXT
  8
_2-3_0
 62
    7
 10
1882.7046678020229
 20
747.34500708267035
 40
50
 41
0.8
 50
0
  1
分　類
  0
TEXT
  8
_2-3_0
 62
    7
 10
2316.5575942256742
 20
753.1685351220799
 40
50
 41
0.8
 50
0
  1
図　番
  0
TEXT
  8
_2-3_0
 62
    7
 10
2616.4693221309462
 20
750.2567711023753
 40
50
 41
0.8
 50
0
  1
参考重量
  0
TEXT
  8
_2-3_0
 62
    7
 10
2854.2634964431109
 20
749.60971243132985
 40
60
 41
0.8
 50
0
  1
63kg
  0
TEXT
  8
_2-3_0
 62
    7
 10
3110.4988135407793
 20
747.66853641819353
 40
60
 41
0.8
 50
0
  1
岩城ブロック工業株式会社
  0
LINE
  8
_2-3_0
  6
CONTINUOUS
 62
    7
 10
1957.2384528819198
 20
1839.9540732542066
 11
1957.2384528819198
 21
1776.7089874679975
  0
LINE
  8
_2-3_0
  6
CONTINUOUS
 62
    7
 10
1776.952716945221
 20
1433.1773304294895
 11
1982.8099076701869
 21
1433.1773304294895
  0
LINE
  8
_2-3_0
  6
CONTINUOUS
 62
    7
 10
1776.952716945221
 20
1768.8916158492036
 11
1776.952716945221
 21
1433.1773304294895
  0
LINE
  8
_2-3_0
  6
CONTINUOUS
 62
    7
 10
1776.952716945221
 20
1839.9540732542066
 11
1957.2384528819198
 21
1839.9540732542066
  0
LINE
  8
_2-3_0
  6
CONTINUOUS
 62
    7
 10
1776.952716945221
 20
1839.9540732542066
 11
1776.952716945221
 21
1776.7089874679975
  0
LINE
  8
_2-3_0
  6
CONTINUOUS
 62
    7
 10
1936.5025070726842
 20
1768.8916158492036
 11
1776.952716945221
 21
1768.8916158492036
  0
LINE
  8
_2-3_0
  6
CONTINUOUS
 62
    7
 10
1960.2288242310212
 20
1738.1848268609865
 11
1982.8099076701869
 21
1433.1773304294895
  0
LINE
  8
_2-3_0
  6
CONTINUOUS
 62
    7
 10
1707.2936489591266
 20
1768.8916158492036
 11
1707.2936489591266
 21
1433.1773304294895
  0
LINE
  8
_2-3_0
  6
CONTINUOUS
 62
    7
 10
1707.2936489591266
 20
1768.8916158492036
 11
1766.3223986091762
 21
1768.8916158492036
  0
LINE
  8
_2-3_0
  6
CONTINUOUS
 62
    7
 10
1707.2936489591266
 20
1433.1773304294895
 11
1766.3223986091762
 21
1433.1773304294895
  0
LINE
  8
_2-3_0
  6
CONTINUOUS
 62
    7
 10
1776.952716945221
 20
1361.292839050293
 11
1982.8099076701869
 21
1361.292839050293
  0
LINE
  8
_2-3_0
  6
CONTINUOUS
 62
    7
 10
1776.952716945221
 20
1361.292839050293
 11
1776.952716945221
 21
1421.7271215667135
  0
LINE
  8
_2-3_0
  6
CONTINUOUS
 62
    7
 10
1982.8099076701869
 20
1361.292839050293
 11
1982.8099076701869
 21
1421.7271215667135
  0
LINE
  8
_2-3_0
  6
CONTINUOUS
 62
    7
 10
1910.4134869814843
 20
1714.1174344390515
 11
1866.3316963961686
 21
1714.1174344390515
  0
LINE
  8
_2-3_0
  6
CONTINUOUS
 62
    7
 10
1949.846796175688
 20
1762.1231336851376
 11
1910.4134869814843
 21
1714.1174344390515
  0
LINE
  8
_2-3_0
  6
CONTINUOUS
 62
    7
 10
3060.1306229079551
 20
1725.4273131087016
 11
2989.2556515402784
 21
1659.8023007367105
  0
LINE
  8
_2-3_0
  6
CONTINUOUS
 62
    7
 10
3124.630719056001
 20
1583.1773784445986
 11
3124.630719056001
 21
1433.1773304294895
  0
LINE
  8
_2-3_0
  6
CONTINUOUS
 62
    7
 10
2524.6306059406534
 20
1433.1773304294895
 11
3124.630719056001
 21
1433.1773304294895
  0
LINE
  8
_2-3_0
  6
CONTINUOUS
 62
    7
 10
2989.2556515402784
 20
1659.8023007367105
 11
2931.2250922508683
 21
1659.8023007367105
  0
LINE
  8
_2-3_0
  6
CONTINUOUS
 62
    7
 10
2524.6306059406534
 20
1768.8916158492036
 11
2524.6306059406534
 21
1433.1773304294895
  0
LINE
  8
_2-3_0
  6
CONTINUOUS
 62
    7
 10
2974.6306907771632
 20
1768.8916158492036
 11
2524.6306059406534
 21
1768.8916158492036
  0
LINE
  8
_2-3_0
  6
CONTINUOUS
 62
    7
 10
3124.630719056001
 20
1618.8916750580186
 11
3124.630719056001
 21
1433.1773304294895
  0
LINE
  8
_2-3_0
  6
CONTINUOUS
 62
    7
 10
2524.6306059406534
 20
1839.9540732542066
 11
2524.6306059406534
 21
1776.7089874679975
  0
LINE
  8
_2-3_0
  6
CONTINUOUS
 62
    7
 10
3124.630719056001
 20
1839.9540732542066
 11
3124.630719056001
 21
1776.7089874679975
  0
LINE
  8
_2-3_0
  6
CONTINUOUS
 62
    7
 10
2524.6306059406534
 20
1839.9540732542066
 11
3124.630719056001
 21
1839.9540732542066
  0
LINE
  8
_2-3_0
  6
CONTINUOUS
 62
    7
 10
791.00003947254345
 20
730.39033764577766
 11
791.00003947254345
 21
2630.3902875686704
  0
LINE
  8
_2-3_0
  6
CONTINUOUS
 62
    7
 10
791.00003947254345
 20
2630.3902875686704
 11
3961.0000698870208
 21
2630.3902875686704
  0
LINE
  8
_2-3_0
  6
CONTINUOUS
 62
    7
 10
3961.0000698870208
 20
2630.3902875686704
 11
3961.0000698870208
 21
730.39033764577766
  0
LINE
  8
_2-3_0
  6
CONTINUOUS
 62
    7
 10
3961.0000698870208
 20
730.39033764577766
 11
791.00003947254345
 21
730.39033764577766
  0
LINE
  8
_2-3_0
  6
CONTINUOUS
 62
    7
 10
3961.0000698870208
 20
830.39034191706025
 11
790.99993011297875
 21
830.39034191706025
  0
LINE
  8
_2-3_0
  6
CONTINUOUS
 62
    7
 10
941.00005134744561
 20
730.39033764577766
 11
941.00005134744561
 21
830.39034191706025
  0
LINE
  8
_2-3_0
  6
CONTINUOUS
 62
    7
 10
1880.9999635468118
 20
730.39033764577766
 11
1880.9999635468118
 21
830.39034191706025
  0
LINE
  8
_2-3_0
  6
CONTINUOUS
 62
    7
 10
2030.9999043379971
 20
730.39033764577766
 11
2030.9999043379971
 21
830.39034191706025
  0
LINE
  8
_2-3_0
  6
CONTINUOUS
 62
    7
 10
2310.9999337951194
 20
730.39033764577766
 11
2310.9999337951194
 21
830.39034191706025
  0
LINE
  8
_2-3_0
  6
CONTINUOUS
 62
    7
 10
2461.0000495616068
 20
730.39033764577766
 11
2461.0000495616068
 21
830.39034191706025
  0
LINE
  8
_2-3_0
  6
CONTINUOUS
 62
    7
 10
2610.9999903527923
 20
730.39033764577766
 11
2610.9999903527923
 21
830.39034191706025
  0
LINE
  8
_2-3_0
  6
CONTINUOUS
 62
    7
 10
2810.9999114077063
 20
730.39033764577766
 11
2810.9999114077063
 21
830.39034191706025
  0
LINE
  8
_2-3_0
  6
CONTINUOUS
 62
    7
 10
2994.0281029336702
 20
730.39033764577766
 11
2994.0281029336702
 21
830.39034191706025
  0
ARC
  8
_2-3_0
  6
CONTINUOUS
 62
    7
 10
2974.6306907771632
 20
1618.8916750580186
 40
149.99999547096749
 50
0
 51
90
  0
POINT
  8
_2-3_0
 62
    7
 10
1776.952716945221
 20
1839.9540732542066
  0
POINT
  8
_2-3_0
 62
    7
 10
1957.2384528819198
 20
1839.9540732542066
  0
POINT
  8
_2-3_0
 62
    7
 10
1707.2936489591266
 20
1768.8916158492036
  0
POINT
  8
_2-3_0
 62
    7
 10
1707.2936489591266
 20
1433.1773304294895
  0
POINT
  8
_2-3_0
 62
    7
 10
1776.952716945221
 20
1361.292839050293
  0
POINT
  8
_2-3_0
 62
    7
 10
1982.8099076701869
 20
1361.292839050293
  0
POINT
  8
_2-3_0
 62
    7
 10
2524.6306059406534
 20
1839.9540732542066
  0
POINT
  8
_2-3_0
 62
    7
 10
3124.630719056001
 20
1839.9540732542066
  0
ARC
  8
_2-3_0
  6
CONTINUOUS
 62
    7
 10
1930.259825539775
 20
1739.5483214315916
 40
30
 50
357.39501981984438
 51
77.989591253234039
  0
ENDSEC
  0
EOF
