  0
SECTION
  2
HEADER
  9
$ACADVER
  1
AC1009
  9
$INSBASE
 10
0
 20
0
 30
0
  9
$EXTMIN
 10
0
 20
0
  9
$EXTMAX
 10
6728
 20
4752
  9
$LIMMIN
 10
0
 20
0
  9
$LIMMAX
 10
6728
 20
4752
  9
$LTSCALE
 40
8
  0
ENDSEC
  0
SECTION
  2
TABLES
  0
TABLE
  2
LTYPE
 70
     9
  0
LTYPE
  2
CONTINUOUS
 70
    64
  3
実線
 72
    65
 73
     0
 40
0.0
  0
LTYPE
  2
DASHED1
 70
    64
  3
--  --  --  --  --  --  --  --  
 72
    65
 73
     2
 40
2.5
 49
1.25
 49
-1.25
  0
LTYPE
  2
DASHED2
 70
    64
  3
----    ----    ----    ----    
 72
    65
 73
     2
 40
5.0
 49
2.5
 49
-2.5
  0
LTYPE
  2
DASHED3
 70
    64
  3
------  ------  ------  ------  
 72
    65
 73
     2
 40
5.0
 49
3.75
 49
-1.25
  0
LTYPE
  2
CENTER1
 70
    64
  3
----- - ----- - ----- - ----- - 
 72
    65
 73
     4
 40
10.0
 49
6.25
 49
-1.25
 49
1.25
 49
-1.25
  0
LTYPE
  2
CENTER2
 70
    64
  3
----------  --  ----------  --  
 72
    65
 73
     4
 40
20.0
 49
12.5
 49
-2.5
 49
2.5
 49
-2.5
  0
LTYPE
  2
PHANTOM1
 70
    64
  3
--- - - --- - - --- - - --- - - 
 72
    65
 73
     6
 40
10.0
 49
3.25
 49
-1.25
 49
1.25
 49
-1.25
 49
1.25
 49
-1.25
  0
LTYPE
  2
PHANTOM2
 70
    64
  3
--------  -  -  --------  -  -  
 72
    65
 73
     6
 40
20.0
 49
10.0
 49
-2.5
 49
1.25
 49
-2.5
 49
1.25
 49
-2.5
  0
LTYPE
  2
DOT
 70
    64
  3
-   -   -   -   -   -   -   -   
 72
    65
 73
     2
 40
2.5
 49
0.625
 49
-1.875
  0
LTYPE
  2
DUMMY
 70
    64
  3
ダミー
 72
    65
 73
     0
 40
0.0
  0
LTYPE
  2
RAND1
 70
    64
  3
ランダム線1
 72
    65
 73
     4
 40
10.0
 49
1.0
 49
-2.0
 49
3.0
 49
-4.0
  0
LTYPE
  2
RAND2
 70
    64
  3
ランダム線2
 72
    65
 73
     4
 40
14.0
 49
2.0
 49
-3.0
 49
4.0
 49
-5.0
  0
LTYPE
  2
RAND3
 70
    64
  3
ランダム線3
 72
    65
 73
     4
 40
18.0
 49
3.0
 49
-4.0
 49
5.0
 49
-6.0
  0
LTYPE
  2
RAND4
 70
    64
  3
ランダム線4
 72
    65
 73
     4
 40
22.0
 49
4.0
 49
-5.0
 49
6.0
 49
-7.0
  0
LTYPE
  2
RAND5
 70
    64
  3
ランダム線5
 72
    65
 73
     4
 40
26.0
 49
5.0
 49
-6.0
 49
7.0
 49
-8.0
  0
LTYPE
  2
LONG1
 70
    64
  3
----------  --  ----------  --  
 72
    65
 73
     4
 40
40.0
 49
32.5
 49
-2.5
 49
2.5
 49
-2.5
  0
LTYPE
  2
LONG2
 70
    64
  3
--------  -  -  --------  -  -  
 72
    65
 73
     6
 40
40.0
 49
30.0
 49
-2.5
 49
1.25
 49
-2.5
 49
1.25
 49
-2.5
  0
LTYPE
  2
LONG3
 70
    64
  3
+++++++++++++++..+++++++++++++++
 72
    65
 73
     2
 40
40.0
 49
37.5
 49
-2.5
  0
LTYPE
  2
LONG4
 70
    64
  3
+++++++++++++++..+++++++++++++++
 72
    65
 73
     2
 40
80.0
 49
75.0
 49
-5.0
  0
LTYPE
  2
LONG5
 70
    64
  3
----------  --  ----------  --  
 72
    65
 73
     4
 40
60.0
 49
37.5
 49
-7.5
 49
7.5
 49
-7.5
  0
LTYPE
  2
dashed
 70
   64
  3
-------   -------------   ------
 72
   65
 73
    2
 40
7.5
 49
6
 49
-1.5
  0
LTYPE
  2
dashed_spaced
 70
   64
  3
----        --------        ----
 72
   65
 73
    2
 40
12
 49
6
 49
-6
  0
LTYPE
  2
long_dashed_dotted
 70
   64
  3
------------- --- --------------
 72
   65
 73
    4
 40
15.25
 49
12
 49
-1.5
 49
0.25
 49
-1.5
  0
LTYPE
  2
long_dashed_double-dotted
 70
   64
  3
----------- --- --- ------------
 72
   65
 73
    6
 40
17
 49
12
 49
-1.5
 49
0.25
 49
-1.5
 49
0.25
 49
-1.5
  0
LTYPE
  2
long_dashed_triplicate-dotted
 70
   64
  3
--------- --- --- --- ----------
 72
   65
 73
    8
 40
18.75
 49
12
 49
-1.5
 49
0.25
 49
-1.5
 49
0.25
 49
-1.5
 49
0.25
 49
-1.5
  0
LTYPE
  2
dotted
 70
   64
  3
   -       -       -       -    
 72
   65
 73
    2
 40
1.75
 49
0.25
 49
-1.5
  0
LTYPE
  2
chain
 70
   64
  3
-------------- -- --------------
 72
   65
 73
    4
 40
18.5
 49
12
 49
-1.5
 49
3.5
 49
-1.5
  0
LTYPE
  2
chain_double_dash
 70
   64
  3
------------ -- -- -------------
 72
   65
 73
    6
 40
23.5
 49
12
 49
-1.5
 49
3.5
 49
-1.5
 49
3.5
 49
-1.5
  0
LTYPE
  2
dashed_dotted
 70
   64
  3
-----------     -     ----------
 72
   65
 73
    4
 40
9.25
 49
6
 49
-1.5
 49
0.25
 49
-1.5
  0
LTYPE
  2
double-dashed_dotted
 70
   64
  3
------   -----------   -   -----
 72
   65
 73
    6
 40
16.75
 49
6
 49
-1.5
 49
6
 49
-1.5
 49
0.25
 49
-1.5
  0
LTYPE
  2
dashed_double-dotted
 70
   64
  3
---------    -    -    ---------
 72
   65
 73
    6
 40
11
 49
6
 49
-1.5
 49
0.25
 49
-1.5
 49
0.25
 49
-1.5
  0
LTYPE
  2
double-dashed_double-dotted
 70
   64
  3
-----   ---------   -   -   ----
 72
   65
 73
    8
 40
18.5
 49
6
 49
-1.5
 49
6
 49
-1.5
 49
0.25
 49
-1.5
 49
0.25
 49
-1.5
  0
LTYPE
  2
dashed_triplicate-dotted
 70
   64
  3
-------    -    -    -    ------
 72
   65
 73
    8
 40
12.75
 49
6
 49
-1.5
 49
0.25
 49
-1.5
 49
0.25
 49
-1.5
 49
0.25
 49
-1.5
  0
LTYPE
  2
double-dashed_triplicate-dotted
 70
   64
  3
-----  ---------  -  -  -  -----
 72
   65
 73
   10
 40
20.25
 49
6
 49
-1.5
 49
6
 49
-1.5
 49
0.25
 49
-1.5
 49
0.25
 49
-1.5
 49
0.25
 49
-1.5
  0
LTYPE
  2
undefined
 70
   64
  3
--------------------------------
 72
   65
 73
    0
 40
0
  0
ENDTAB
  0
TABLE
  2
STYLE
  5
3
100
AcDbSymbolTable
 70
     1
  0
STYLE
  5
10
100
AcDbSymbolTableRecord
100
AcDbTextStyleTableRecord
  2
STANDARD
 70
     0
 40
0.0
 41
1.0
 50
0.0
 71
     0
 42
0.2
  3
txt
  4
bigfont.shx
  0
STYLE
  5
26
100
AcDbSymbolTableRecord
100
AcDbTextStyleTableRecord
  2
TATEGAKI
 70
    68
 40
0.0
 41
1.0
 50
0.0
 71
     0
 42
1.0
  3
txt
  4
bigfont.shx
  0
ENDTAB
  0
TABLE
  2
LAYER
 70
    3
  0
LAYER
  2
_0-0_通り芯
 70
   64
 62
    7
  6
CONTINUOUS
  0
LAYER
  2
_0-3_0
 70
   64
 62
    7
  6
CONTINUOUS
  0
LAYER
  2
ADD_LINE
 70
   64
 62
    7
  6
CONTINUOUS
  0
ENDTAB
  0
ENDSEC
  0
SECTION
  2
BLOCKS
  0
ENDSEC
  0
SECTION
  2
ENTITIES
  0
TEXT
  8
_0-0_通り芯
 62
    7
 10
3357.4683028017912
 20
2181.4110257417778
 40
40
 41
0.8
 50
0
  1
600
  0
TEXT
  8
_0-0_通り芯
 62
    7
 10
2548.1911858716285
 20
2181.8113833748007
 40
40
 41
0.8
 50
0
  1
150
  0
TEXT
  8
_0-0_通り芯
 62
    7
 10
2548.9654250766544
 20
1834.1516279773136
 40
40
 41
0.8
 50
0
  1
190
  0
TEXT
  8
_0-0_通り芯
 62
    7
 10
2363.5539330944421
 20
1997.0396639319686
 40
40
 41
0.8
 50
90.000002504478203
  1
200
  0
TEXT
  8
_0-0_通り芯
 62
    7
 10
1629.7943497196807
 20
1036.7009592299528
 40
50
 41
0.8
 50
0
  1
名　称
  0
TEXT
  8
_0-0_通り芯
 62
    7
 10
1791.8595876413181
 20
1036.7920170846826
 40
50
 41
0.8
 50
0
  1
歩車道境界ブロック　Ａｒ端末
  0
TEXT
  8
_0-0_通り芯
 62
    7
 10
2517.7290911780583
 20
1036.7920170846826
 40
50
 41
0.8
 50
0
  1
分　類
  0
TEXT
  8
_0-0_通り芯
 62
    7
 10
2730.0117029218809
 20
1036.7920170846826
 40
50
 41
0.8
 50
0
  1
L=600
  0
TEXT
  8
_0-0_通り芯
 62
    7
 10
2949.1421540211741
 20
1036.7920170846826
 40
50
 41
0.8
 50
0
  1
図　番
  0
TEXT
  8
_0-0_通り芯
 62
    7
 10
3245.8813507985174
 20
1036.7920170846826
 40
50
 41
0.8
 50
0
  1
参考重量
  0
TEXT
  8
_0-0_通り芯
 62
    7
 10
3455.8813507985192
 20
1036.7920170846826
 40
50
 41
0.8
 50
0
  1
４４kg
  0
TEXT
  8
_0-0_通り芯
 62
    7
 10
3629.3595315549583
 20
1034.5093847208734
 40
60
 41
0.8
 50
0
  1
岩城ブロック工業株式会社
  0
TEXT
  8
_0-0_通り芯
 62
    7
 10
3193.368700116891
 20
1971.7494080751417
 40
40
 41
0.8
 50
0
  1
150Ｒ
  0
LINE
  8
_0-0_通り芯
  6
CONTINUOUS
 62
    7
 10
1621.9683704353424
 20
1018.1404362741357
 11
1621.9683704353424
 21
2918.1403331742094
  0
LINE
  8
_0-0_通り芯
  6
CONTINUOUS
 62
    7
 10
1621.9683704353424
 20
2918.1403331742094
 11
4321.9682467154307
 21
2918.1403331742094
  0
LINE
  8
_0-0_通り芯
  6
CONTINUOUS
 62
    7
 10
4321.9682467154307
 20
2918.1403331742094
 11
4321.9682467154307
 21
1018.1404362741357
  0
LINE
  8
_0-0_通り芯
  6
CONTINUOUS
 62
    7
 10
4321.9682467154307
 20
1018.1404362741357
 11
1621.9683704353424
 21
1018.1404362741357
  0
LINE
  8
_0-0_通り芯
  6
CONTINUOUS
 62
    7
 10
4321.9682467154307
 20
1118.1404568941209
 11
1621.9682467154312
 21
1118.1404568941209
  0
LINE
  8
_0-0_通り芯
  6
CONTINUOUS
 62
    7
 10
1771.9683704353424
 20
1018.1404362741357
 11
1771.9683704353424
 21
1118.1404568941209
  0
LINE
  8
_0-0_通り芯
  6
CONTINUOUS
 62
    7
 10
2511.9682137234549
 20
1018.1404362741357
 11
2511.9682137234549
 21
1118.1404568941209
  0
LINE
  8
_0-0_通り芯
  6
CONTINUOUS
 62
    7
 10
2661.968213723454
 20
1018.1404362741357
 11
2661.968213723454
 21
1118.1404568941209
  0
LINE
  8
_0-0_通り芯
  6
CONTINUOUS
 62
    7
 10
2941.9682714594132
 20
1018.1404362741357
 11
2941.9682714594132
 21
1118.1404568941209
  0
LINE
  8
_0-0_通り芯
  6
CONTINUOUS
 62
    7
 10
3091.968395179324
 20
1018.1404362741357
 11
3091.968395179324
 21
1118.1404568941209
  0
LINE
  8
_0-0_通り芯
  6
CONTINUOUS
 62
    7
 10
3241.968395179324
 20
1018.1404362741357
 11
3241.968395179324
 21
1118.1404568941209
  0
LINE
  8
_0-0_通り芯
  6
CONTINUOUS
 62
    7
 10
3441.9683126993841
 20
1018.1404362741357
 11
3441.9683126993841
 21
1118.1404568941209
  0
LINE
  8
_0-0_通り芯
  6
CONTINUOUS
 62
    7
 10
3611.9681312435141
 20
1018.1404362741357
 11
3611.9681312435141
 21
1118.1404568941209
  0
LINE
  8
_0-0_通り芯
  6
CONTINUOUS
 62
    7
 10
2476.9653764134882
 20
1918.1403744141796
 11
2666.9653846614829
 21
1918.1403744141796
  0
LINE
  8
_0-0_通り芯
  6
CONTINUOUS
 62
    7
 10
2495.1644516483912
 20
2100.1303844437407
 11
2476.9653764134882
 21
1918.1403744141796
  0
LINE
  8
_0-0_通り芯
  6
CONTINUOUS
 62
    7
 10
2628.8655905314154
 20
2118.1402919342399
 11
2515.0651705435562
 21
2118.1402919342399
  0
LINE
  8
_0-0_通り芯
  6
CONTINUOUS
 62
    7
 10
2648.7664331464912
 20
2100.1303844437407
 11
2666.9653846614829
 21
1918.1403744141796
  0
LINE
  8
_0-0_通り芯
  6
CONTINUOUS
 62
    7
 10
2495.1644516483912
 20
2181.4110257417778
 11
2495.1644516483912
 21
2131.5282709777357
  0
LINE
  8
_0-0_通り芯
  6
CONTINUOUS
 62
    7
 10
2495.1644516483912
 20
2181.4110257417778
 11
2645.1644516483912
 21
2181.4110257417778
  0
LINE
  8
_0-0_通り芯
  6
CONTINUOUS
 62
    7
 10
2645.1644516483912
 20
2181.4110257417778
 11
2645.1644516483912
 21
2131.5282709777357
  0
LINE
  8
_0-0_通り芯
  6
CONTINUOUS
 62
    7
 10
2476.9653764134882
 20
1834.1516279773136
 11
2476.9653764134882
 21
1905.9777173723726
  0
LINE
  8
_0-0_通り芯
  6
CONTINUOUS
 62
    7
 10
2476.9653764134882
 20
1834.1516279773136
 11
2666.9653846614829
 21
1834.1516279773136
  0
LINE
  8
_0-0_通り芯
  6
CONTINUOUS
 62
    7
 10
2666.9653846614829
 20
1834.1516279773136
 11
2666.9653846614829
 21
1905.9777173723726
  0
LINE
  8
_0-0_通り芯
  6
CONTINUOUS
 62
    7
 10
2363.1108908243832
 20
2118.1402919342399
 11
2438.096168154937
 21
2118.1402919342399
  0
LINE
  8
_0-0_通り芯
  6
CONTINUOUS
 62
    7
 10
2363.1108908243832
 20
2118.1402919342399
 11
2363.1108908243832
 21
1918.1403744141796
  0
LINE
  8
_0-0_通り芯
  6
CONTINUOUS
 62
    7
 10
2363.1108908243832
 20
1918.1403744141796
 11
2438.096168154937
 21
1918.1403744141796
  0
ARC
  8
_0-0_通り芯
  6
CONTINUOUS
 62
    7
 10
2515.0651705435562
 20
2098.1403496701978
 40
20.000000257749821
 50
90
 51
174.2893981933594
  0
ARC
  8
_0-0_通り芯
  6
CONTINUOUS
 62
    7
 10
2628.8655905314154
 20
2098.1403496701978
 40
20.000000257749821
 50
5.7105712890625
 51
90
  0
POINT
  8
_0-0_通り芯
 62
    7
 10
2495.1644516483912
 20
2181.4110257417778
  0
POINT
  8
_0-0_通り芯
 62
    7
 10
2645.1644516483912
 20
2181.4110257417778
  0
POINT
  8
_0-0_通り芯
 62
    7
 10
2476.9653764134882
 20
1834.1516279773136
  0
POINT
  8
_0-0_通り芯
 62
    7
 10
2666.9653846614829
 20
1834.1516279773136
  0
POINT
  8
_0-0_通り芯
 62
    7
 10
2363.1108908243832
 20
2118.1402919342399
  0
POINT
  8
_0-0_通り芯
 62
    7
 10
2363.1108908243832
 20
1918.1403744141796
  0
LINE
  8
_0-0_通り芯
  6
CONTINUOUS
 62
    7
 10
3671.968329195372
 20
1918.1403744141796
 11
3671.968329195372
 21
2118.1402919342399
  0
LINE
  8
_0-0_通り芯
  6
CONTINUOUS
 62
    7
 10
3071.968329195372
 20
1918.1403744141796
 11
3671.968329195372
 21
1918.1403744141796
  0
LINE
  8
_0-0_通り芯
  6
CONTINUOUS
 62
    7
 10
3071.968329195372
 20
2181.4110257417778
 11
3071.968329195372
 21
2131.5282709777357
  0
LINE
  8
_0-0_通り芯
  6
CONTINUOUS
 62
    7
 10
3071.968329195372
 20
2181.4110257417778
 11
3671.968329195372
 21
2181.4110257417778
  0
LINE
  8
_0-0_通り芯
  6
CONTINUOUS
 62
    7
 10
3671.968329195372
 20
2181.4110257417778
 11
3671.968329195372
 21
2131.5282709777357
  0
LINE
  8
_0-0_通り芯
  6
CONTINUOUS
 62
    7
 10
3165.3792111198272
 20
2118.1402919342399
 11
3671.968329195372
 21
2118.1402919342399
  0
POINT
  8
_0-0_通り芯
 62
    7
 10
3071.968329195372
 20
2181.4110257417778
  0
POINT
  8
_0-0_通り芯
 62
    7
 10
3671.968329195372
 20
2181.4110257417778
  0
ARC
  8
_0-3_0
  6
CONTINUOUS
 62
    7
 10
3171.0503242422583
 20
2018.3012290582656
 40
100
 50
93.251052708002135
 51
172.23050234194639
  0
LINE
  8
_0-3_0
  6
CONTINUOUS
 62
    7
 10
3102.0489892440823
 20
2090.6547179783697
 11
3185.2516022130621
 21
2011.0173413701646
  0
LINE
  8
_0-3_0
  6
CONTINUOUS
 62
    7
 10
3071.968329195372
 20
1918.1403744141796
 11
3071.9683291953711
 21
2031.8200403051405
  0
ENDSEC
  0
EOF
