  0
SECTION
  2
HEADER
  9
$ACADVER
  1
AC1009
  9
$INSBASE
 10
0
 20
0
 30
0
  9
$EXTMIN
 10
0
 20
0
  9
$EXTMAX
 10
5887
 20
4158
  9
$LIMMIN
 10
0
 20
0
  9
$LIMMAX
 10
5887
 20
4158
  9
$LTSCALE
 40
7
  0
ENDSEC
  0
SECTION
  2
TABLES
  0
TABLE
  2
LTYPE
 70
     9
  0
LTYPE
  2
CONTINUOUS
 70
    64
  3
実線
 72
    65
 73
     0
 40
0.0
  0
LTYPE
  2
DASHED1
 70
    64
  3
--  --  --  --  --  --  --  --  
 72
    65
 73
     2
 40
2.5
 49
1.25
 49
-1.25
  0
LTYPE
  2
DASHED2
 70
    64
  3
----    ----    ----    ----    
 72
    65
 73
     2
 40
5.0
 49
2.5
 49
-2.5
  0
LTYPE
  2
DASHED3
 70
    64
  3
------  ------  ------  ------  
 72
    65
 73
     2
 40
5.0
 49
3.75
 49
-1.25
  0
LTYPE
  2
CENTER1
 70
    64
  3
----- - ----- - ----- - ----- - 
 72
    65
 73
     4
 40
10.0
 49
6.25
 49
-1.25
 49
1.25
 49
-1.25
  0
LTYPE
  2
CENTER2
 70
    64
  3
----------  --  ----------  --  
 72
    65
 73
     4
 40
20.0
 49
12.5
 49
-2.5
 49
2.5
 49
-2.5
  0
LTYPE
  2
PHANTOM1
 70
    64
  3
--- - - --- - - --- - - --- - - 
 72
    65
 73
     6
 40
10.0
 49
3.25
 49
-1.25
 49
1.25
 49
-1.25
 49
1.25
 49
-1.25
  0
LTYPE
  2
PHANTOM2
 70
    64
  3
--------  -  -  --------  -  -  
 72
    65
 73
     6
 40
20.0
 49
10.0
 49
-2.5
 49
1.25
 49
-2.5
 49
1.25
 49
-2.5
  0
LTYPE
  2
DOT
 70
    64
  3
-   -   -   -   -   -   -   -   
 72
    65
 73
     2
 40
2.5
 49
0.625
 49
-1.875
  0
LTYPE
  2
DUMMY
 70
    64
  3
ダミー
 72
    65
 73
     0
 40
0.0
  0
LTYPE
  2
RAND1
 70
    64
  3
ランダム線1
 72
    65
 73
     4
 40
10.0
 49
1.0
 49
-2.0
 49
3.0
 49
-4.0
  0
LTYPE
  2
RAND2
 70
    64
  3
ランダム線2
 72
    65
 73
     4
 40
14.0
 49
2.0
 49
-3.0
 49
4.0
 49
-5.0
  0
LTYPE
  2
RAND3
 70
    64
  3
ランダム線3
 72
    65
 73
     4
 40
18.0
 49
3.0
 49
-4.0
 49
5.0
 49
-6.0
  0
LTYPE
  2
RAND4
 70
    64
  3
ランダム線4
 72
    65
 73
     4
 40
22.0
 49
4.0
 49
-5.0
 49
6.0
 49
-7.0
  0
LTYPE
  2
RAND5
 70
    64
  3
ランダム線5
 72
    65
 73
     4
 40
26.0
 49
5.0
 49
-6.0
 49
7.0
 49
-8.0
  0
LTYPE
  2
LONG1
 70
    64
  3
----------  --  ----------  --  
 72
    65
 73
     4
 40
40.0
 49
32.5
 49
-2.5
 49
2.5
 49
-2.5
  0
LTYPE
  2
LONG2
 70
    64
  3
--------  -  -  --------  -  -  
 72
    65
 73
     6
 40
40.0
 49
30.0
 49
-2.5
 49
1.25
 49
-2.5
 49
1.25
 49
-2.5
  0
LTYPE
  2
LONG3
 70
    64
  3
+++++++++++++++..+++++++++++++++
 72
    65
 73
     2
 40
40.0
 49
37.5
 49
-2.5
  0
LTYPE
  2
LONG4
 70
    64
  3
+++++++++++++++..+++++++++++++++
 72
    65
 73
     2
 40
80.0
 49
75.0
 49
-5.0
  0
LTYPE
  2
LONG5
 70
    64
  3
----------  --  ----------  --  
 72
    65
 73
     4
 40
60.0
 49
37.5
 49
-7.5
 49
7.5
 49
-7.5
  0
LTYPE
  2
dashed
 70
   64
  3
-------   -------------   ------
 72
   65
 73
    2
 40
7.5
 49
6
 49
-1.5
  0
LTYPE
  2
dashed_spaced
 70
   64
  3
----        --------        ----
 72
   65
 73
    2
 40
12
 49
6
 49
-6
  0
LTYPE
  2
long_dashed_dotted
 70
   64
  3
------------- --- --------------
 72
   65
 73
    4
 40
15.25
 49
12
 49
-1.5
 49
0.25
 49
-1.5
  0
LTYPE
  2
long_dashed_double-dotted
 70
   64
  3
----------- --- --- ------------
 72
   65
 73
    6
 40
17
 49
12
 49
-1.5
 49
0.25
 49
-1.5
 49
0.25
 49
-1.5
  0
LTYPE
  2
long_dashed_triplicate-dotted
 70
   64
  3
--------- --- --- --- ----------
 72
   65
 73
    8
 40
18.75
 49
12
 49
-1.5
 49
0.25
 49
-1.5
 49
0.25
 49
-1.5
 49
0.25
 49
-1.5
  0
LTYPE
  2
dotted
 70
   64
  3
   -       -       -       -    
 72
   65
 73
    2
 40
1.75
 49
0.25
 49
-1.5
  0
LTYPE
  2
chain
 70
   64
  3
-------------- -- --------------
 72
   65
 73
    4
 40
18.5
 49
12
 49
-1.5
 49
3.5
 49
-1.5
  0
LTYPE
  2
chain_double_dash
 70
   64
  3
------------ -- -- -------------
 72
   65
 73
    6
 40
23.5
 49
12
 49
-1.5
 49
3.5
 49
-1.5
 49
3.5
 49
-1.5
  0
LTYPE
  2
dashed_dotted
 70
   64
  3
-----------     -     ----------
 72
   65
 73
    4
 40
9.25
 49
6
 49
-1.5
 49
0.25
 49
-1.5
  0
LTYPE
  2
double-dashed_dotted
 70
   64
  3
------   -----------   -   -----
 72
   65
 73
    6
 40
16.75
 49
6
 49
-1.5
 49
6
 49
-1.5
 49
0.25
 49
-1.5
  0
LTYPE
  2
dashed_double-dotted
 70
   64
  3
---------    -    -    ---------
 72
   65
 73
    6
 40
11
 49
6
 49
-1.5
 49
0.25
 49
-1.5
 49
0.25
 49
-1.5
  0
LTYPE
  2
double-dashed_double-dotted
 70
   64
  3
-----   ---------   -   -   ----
 72
   65
 73
    8
 40
18.5
 49
6
 49
-1.5
 49
6
 49
-1.5
 49
0.25
 49
-1.5
 49
0.25
 49
-1.5
  0
LTYPE
  2
dashed_triplicate-dotted
 70
   64
  3
-------    -    -    -    ------
 72
   65
 73
    8
 40
12.75
 49
6
 49
-1.5
 49
0.25
 49
-1.5
 49
0.25
 49
-1.5
 49
0.25
 49
-1.5
  0
LTYPE
  2
double-dashed_triplicate-dotted
 70
   64
  3
-----  ---------  -  -  -  -----
 72
   65
 73
   10
 40
20.25
 49
6
 49
-1.5
 49
6
 49
-1.5
 49
0.25
 49
-1.5
 49
0.25
 49
-1.5
 49
0.25
 49
-1.5
  0
LTYPE
  2
undefined
 70
   64
  3
--------------------------------
 72
   65
 73
    0
 40
0
  0
ENDTAB
  0
TABLE
  2
STYLE
  5
3
100
AcDbSymbolTable
 70
     1
  0
STYLE
  5
10
100
AcDbSymbolTableRecord
100
AcDbTextStyleTableRecord
  2
STANDARD
 70
     0
 40
0.0
 41
1.0
 50
0.0
 71
     0
 42
0.2
  3
txt
  4
bigfont.shx
  0
STYLE
  5
26
100
AcDbSymbolTableRecord
100
AcDbTextStyleTableRecord
  2
TATEGAKI
 70
    68
 40
0.0
 41
1.0
 50
0.0
 71
     0
 42
1.0
  3
txt
  4
bigfont.shx
  0
ENDTAB
  0
TABLE
  2
LAYER
 70
    4
  0
LAYER
  2
_0-0_
 70
   64
 62
    7
  6
CONTINUOUS
  0
LAYER
  2
_1-0_
 70
   64
 62
    7
  6
CONTINUOUS
  0
LAYER
  2
_2-0_
 70
   64
 62
    7
  6
CONTINUOUS
  0
LAYER
  2
ADD_LINE
 70
   64
 62
    7
  6
CONTINUOUS
  0
ENDTAB
  0
ENDSEC
  0
SECTION
  2
BLOCKS
  0
ENDSEC
  0
SECTION
  2
ENTITIES
  0
TEXT
  8
_2-0_
 62
    7
 10
1234.6356175452124
 20
1405.2290097387599
 40
50
 41
0.8
 50
0
  1
名　称
  0
TEXT
  8
_2-0_
 62
    7
 10
1461.7532732574173
 20
1393.5819755318541
 40
60
 41
0.7999999999999999
 50
0
  1
歩車道境界ブロック Ａ端末
  0
TEXT
  8
_2-0_
 62
    7
 10
2323.6356479836249
 20
1396.4937176796461
 40
50
 41
0.8
 50
0
  1
分　類
  0
TEXT
  8
_2-0_
 62
    7
 10
2757.4885744072758
 20
1402.3172457190553
 40
50
 41
0.8
 50
0
  1
図　番
  0
TEXT
  8
_2-0_
 62
    7
 10
3057.4003023125488
 20
1399.4054816993507
 40
50
 41
0.8
 50
0
  1
参考重量
  0
TEXT
  8
_0-0_
 62
    7
 10
3295.1944766247134
 20
1398.7584230283053
 40
60
 41
0.7999999999999999
 50
0
  1
40kg
  0
TEXT
  8
_2-0_
 62
    7
 10
3551.429793722381
 20
1396.8172470151687
 40
60
 41
0.7999999999999999
 50
0
  1
岩城ブロック工業株式会社
  0
LINE
  8
_2-0_
  6
CONTINUOUS
 62
    7
 10
1231.9310196541451
 20
1379.5390482427531
 11
1231.9310196541451
 21
3279.5389981656463
  0
LINE
  8
_2-0_
  6
CONTINUOUS
 62
    7
 10
1381.9310315290475
 20
1379.5390482427531
 11
1381.9310315290475
 21
1479.5390525140356
  0
LINE
  8
_2-0_
  6
CONTINUOUS
 62
    7
 10
2321.9309437284137
 20
1379.5390482427531
 11
2321.9309437284137
 21
1479.5390525140356
  0
LINE
  8
_2-0_
  6
CONTINUOUS
 62
    7
 10
2471.9308845195983
 20
1379.5390482427531
 11
2471.9308845195983
 21
1479.5390525140356
  0
LINE
  8
_2-0_
  6
CONTINUOUS
 62
    7
 10
2751.9309139767206
 20
1379.5390482427531
 11
2751.9309139767206
 21
1479.5390525140356
  0
LINE
  8
_2-0_
  6
CONTINUOUS
 62
    7
 10
2901.9310297432089
 20
1379.5390482427531
 11
2901.9310297432089
 21
1479.5390525140356
  0
LINE
  8
_2-0_
  6
CONTINUOUS
 62
    7
 10
3051.9309705343949
 20
1379.5390482427531
 11
3051.9309705343949
 21
1479.5390525140356
  0
LINE
  8
_2-0_
  6
CONTINUOUS
 62
    7
 10
3251.930891589308
 20
1379.5390482427531
 11
3251.930891589308
 21
1479.5390525140356
  0
LINE
  8
_2-0_
  6
CONTINUOUS
 62
    7
 10
3434.9590831152718
 20
1379.5390482427531
 11
3434.9590831152718
 21
1479.5390525140356
  0
LINE
  8
_0-0_
  6
CONTINUOUS
 62
    7
 10
4201.9310500686233
 20
3279.5389981656463
 11
4201.9310500686233
 21
1379.5390482427529
  0
LINE
  8
_2-0_
  6
CONTINUOUS
 62
    7
 10
4201.9310500686233
 20
1479.5390525140356
 11
1231.9309102945806
 21
1479.5390525140356
  0
LINE
  8
_2-0_
  6
CONTINUOUS
 62
    7
 10
4201.9310500686233
 20
1379.5390482427531
 11
1231.9310196541451
 21
1379.5390482427531
  0
LINE
  8
_2-0_
  6
CONTINUOUS
 62
    7
 10
1231.9310196541451
 20
3279.5389981656463
 11
4201.9310500686233
 21
3279.5389981656463
  0
TEXT
  8
_1-0_
 62
    7
 10
2272.2765433705445
 20
2451.6027570452006
 40
50
 41
0.8
 50
0
  1
150
  0
TEXT
  8
_1-0_
 62
    7
 10
2101.7246137327825
 20
2206.433227627434
 40
50
 41
0.8
 50
90.000002504478061
  1
200
  0
TEXT
  8
_1-0_
 62
    7
 10
2321.2633122035431
 20
2318.6232764048927
 40
50
 41
0.8
 50
0
  1
20
  0
TEXT
  8
_2-0_
 62
    7
 10
3377.2338156681722
 20
2260.4243908738536
 40
50
 41
0.8
 50
0
  1
150
  0
TEXT
  8
_1-0_
 62
    7
 10
2267.8249966831281
 20
2015.887480982482
 40
50
 41
0.8
 50
0
  1
170
  0
TEXT
  8
_2-0_
 62
    7
 10
3240.5616562302048
 20
2439.1027838511818
 40
50
 41
0.8
 50
0
  1
600
  0
LINE
  8
_1-0_
  6
CONTINUOUS
 62
    7
 10
2398.1694330635219
 20
2439.1027838511818
 11
2398.1694330635219
 21
2375.8576980649732
  0
LINE
  8
_1-0_
  6
CONTINUOUS
 62
    7
 10
2183.8836971268229
 20
2082.3260410264652
 11
2426.740887851789
 21
2082.3260410264652
  0
LINE
  8
_1-0_
  6
CONTINUOUS
 62
    7
 10
2183.8836971268229
 20
2368.0403264461793
 11
2183.8836971268229
 21
2082.3260410264652
  0
LINE
  8
_1-0_
  6
CONTINUOUS
 62
    7
 10
2183.8836971268229
 20
2439.1027838511818
 11
2398.1694330635219
 21
2439.1027838511818
  0
LINE
  8
_1-0_
  6
CONTINUOUS
 62
    7
 10
2183.8836971268229
 20
2439.1027838511818
 11
2183.8836971268229
 21
2375.8576980649732
  0
LINE
  8
_1-0_
  6
CONTINUOUS
 62
    7
 10
2372.3126326159618
 20
2368.0403264461793
 11
2183.8836971268229
 21
2368.0403264461793
  0
LINE
  8
_1-0_
  6
CONTINUOUS
 62
    7
 10
2400.7422699210269
 20
2342.3118703834798
 11
2426.740887851789
 21
2082.3260410264652
  0
LINE
  8
_1-0_
  6
CONTINUOUS
 62
    7
 10
2114.2246291407282
 20
2368.0403264461793
 11
2114.2246291407282
 21
2082.3260410264652
  0
LINE
  8
_1-0_
  6
CONTINUOUS
 62
    7
 10
2114.2246291407282
 20
2368.0403264461793
 11
2173.2533787907778
 21
2368.0403264461793
  0
LINE
  8
_1-0_
  6
CONTINUOUS
 62
    7
 10
2114.2246291407282
 20
2082.3260410264652
 11
2173.2533787907778
 21
2082.3260410264652
  0
LINE
  8
_1-0_
  6
CONTINUOUS
 62
    7
 10
2183.8836971268229
 20
2010.4415496472684
 11
2426.740887851789
 21
2010.4415496472684
  0
LINE
  8
_1-0_
  6
CONTINUOUS
 62
    7
 10
2183.8836971268229
 20
2010.4415496472684
 11
2183.8836971268229
 21
2070.8758321636892
  0
LINE
  8
_1-0_
  6
CONTINUOUS
 62
    7
 10
2426.740887851789
 20
2010.4415496472684
 11
2426.740887851789
 21
2070.8758321636892
  0
LINE
  8
_1-0_
  6
CONTINUOUS
 62
    7
 10
2351.3444671630859
 20
2313.266145036027
 11
2307.2626765777704
 21
2313.266145036027
  0
LINE
  8
_1-0_
  6
CONTINUOUS
 62
    7
 10
2390.7777763572903
 20
2361.2718442821133
 11
2351.3444671630859
 21
2313.266145036027
  0
LINE
  8
_2-0_
  6
CONTINUOUS
 62
    7
 10
3501.0616030895571
 20
2324.5760237056779
 11
3430.1866317218792
 21
2258.9510113336864
  0
LINE
  8
_2-0_
  6
CONTINUOUS
 62
    7
 10
3565.5616992376026
 20
2182.3260890415736
 11
3565.5616992376026
 21
2082.3260410264652
  0
LINE
  8
_2-0_
  6
CONTINUOUS
 62
    7
 10
2965.561586122255
 20
2082.3260410264652
 11
3565.5616992376026
 21
2082.3260410264652
  0
LINE
  8
_2-0_
  6
CONTINUOUS
 62
    7
 10
3430.1866317218792
 20
2258.9510113336864
 11
3372.15607243247
 21
2258.9510113336864
  0
LINE
  8
_2-0_
  6
CONTINUOUS
 62
    7
 10
2965.561586122255
 20
2368.0403264461793
 11
2965.561586122255
 21
2082.3260410264652
  0
LINE
  8
_2-0_
  6
CONTINUOUS
 62
    7
 10
3415.5616709587657
 20
2368.0403264461793
 11
2965.561586122255
 21
2368.0403264461793
  0
LINE
  8
_2-0_
  6
CONTINUOUS
 62
    7
 10
3565.5616992376026
 20
2218.0403856549942
 11
3565.5616992376026
 21
2082.3260410264652
  0
LINE
  8
_2-0_
  6
CONTINUOUS
 62
    7
 10
2965.561586122255
 20
2439.1027838511818
 11
2965.561586122255
 21
2375.8576980649732
  0
LINE
  8
_2-0_
  6
CONTINUOUS
 62
    7
 10
3565.5616992376026
 20
2439.1027838511818
 11
3565.5616992376026
 21
2375.8576980649732
  0
LINE
  8
_2-0_
  6
CONTINUOUS
 62
    7
 10
2965.561586122255
 20
2439.1027838511818
 11
3565.5616992376026
 21
2439.1027838511818
  0
ARC
  8
_1-0_
  6
CONTINUOUS
 62
    7
 10
2372.3126326159618
 20
2339.468871657913
 40
28.571427448375797
 50
5.7105712890625
 51
90
  0
ARC
  8
_2-0_
  6
CONTINUOUS
 62
    7
 10
3415.5616709587657
 20
2218.0403856549942
 40
149.99999547096752
 50
0
 51
90
  0
POINT
  8
_1-0_
 62
    7
 10
2183.8836971268229
 20
2439.1027838511818
  0
POINT
  8
_1-0_
 62
    7
 10
2398.1694330635219
 20
2439.1027838511818
  0
POINT
  8
_1-0_
 62
    7
 10
2114.2246291407282
 20
2368.0403264461793
  0
POINT
  8
_1-0_
 62
    7
 10
2114.2246291407282
 20
2082.3260410264652
  0
POINT
  8
_1-0_
 62
    7
 10
2183.8836971268229
 20
2010.4415496472684
  0
POINT
  8
_1-0_
 62
    7
 10
2426.740887851789
 20
2010.4415496472684
  0
POINT
  8
_2-0_
 62
    7
 10
2965.561586122255
 20
2439.1027838511818
  0
POINT
  8
_2-0_
 62
    7
 10
3565.5616992376026
 20
2439.1027838511818
  0
ENDSEC
  0
EOF
