  0
SECTION
  2
HEADER
  9
$ACADVER
  1
AC1009
  9
$INSBASE
 10
0
 20
0
 30
0
  9
$EXTMIN
 10
0
 20
0
  9
$EXTMAX
 10
2376
 20
1680
  9
$LIMMIN
 10
0
 20
0
  9
$LIMMAX
 10
2376
 20
1680
  9
$LTSCALE
 40
4
  0
ENDSEC
  0
SECTION
  2
TABLES
  0
TABLE
  2
LTYPE
 70
     9
  0
LTYPE
  2
CONTINUOUS
 70
    64
  3
実線
 72
    65
 73
     0
 40
0.0
  0
LTYPE
  2
DASHED1
 70
    64
  3
--  --  --  --  --  --  --  --  
 72
    65
 73
     2
 40
2.5
 49
1.25
 49
-1.25
  0
LTYPE
  2
DASHED2
 70
    64
  3
----    ----    ----    ----    
 72
    65
 73
     2
 40
5.0
 49
2.5
 49
-2.5
  0
LTYPE
  2
DASHED3
 70
    64
  3
------  ------  ------  ------  
 72
    65
 73
     2
 40
5.0
 49
3.75
 49
-1.25
  0
LTYPE
  2
CENTER1
 70
    64
  3
----- - ----- - ----- - ----- - 
 72
    65
 73
     4
 40
10.0
 49
6.25
 49
-1.25
 49
1.25
 49
-1.25
  0
LTYPE
  2
CENTER2
 70
    64
  3
----------  --  ----------  --  
 72
    65
 73
     4
 40
20.0
 49
12.5
 49
-2.5
 49
2.5
 49
-2.5
  0
LTYPE
  2
PHANTOM1
 70
    64
  3
--- - - --- - - --- - - --- - - 
 72
    65
 73
     6
 40
10.0
 49
3.25
 49
-1.25
 49
1.25
 49
-1.25
 49
1.25
 49
-1.25
  0
LTYPE
  2
PHANTOM2
 70
    64
  3
--------  -  -  --------  -  -  
 72
    65
 73
     6
 40
20.0
 49
10.0
 49
-2.5
 49
1.25
 49
-2.5
 49
1.25
 49
-2.5
  0
LTYPE
  2
DOT
 70
    64
  3
-   -   -   -   -   -   -   -   
 72
    65
 73
     2
 40
2.5
 49
0.625
 49
-1.875
  0
LTYPE
  2
DUMMY
 70
    64
  3
ダミー
 72
    65
 73
     0
 40
0.0
  0
LTYPE
  2
RAND1
 70
    64
  3
ランダム線1
 72
    65
 73
     4
 40
10.0
 49
1.0
 49
-2.0
 49
3.0
 49
-4.0
  0
LTYPE
  2
RAND2
 70
    64
  3
ランダム線2
 72
    65
 73
     4
 40
14.0
 49
2.0
 49
-3.0
 49
4.0
 49
-5.0
  0
LTYPE
  2
RAND3
 70
    64
  3
ランダム線3
 72
    65
 73
     4
 40
18.0
 49
3.0
 49
-4.0
 49
5.0
 49
-6.0
  0
LTYPE
  2
RAND4
 70
    64
  3
ランダム線4
 72
    65
 73
     4
 40
22.0
 49
4.0
 49
-5.0
 49
6.0
 49
-7.0
  0
LTYPE
  2
RAND5
 70
    64
  3
ランダム線5
 72
    65
 73
     4
 40
26.0
 49
5.0
 49
-6.0
 49
7.0
 49
-8.0
  0
LTYPE
  2
LONG1
 70
    64
  3
----------  --  ----------  --  
 72
    65
 73
     4
 40
40.0
 49
32.5
 49
-2.5
 49
2.5
 49
-2.5
  0
LTYPE
  2
LONG2
 70
    64
  3
--------  -  -  --------  -  -  
 72
    65
 73
     6
 40
40.0
 49
30.0
 49
-2.5
 49
1.25
 49
-2.5
 49
1.25
 49
-2.5
  0
LTYPE
  2
LONG3
 70
    64
  3
+++++++++++++++..+++++++++++++++
 72
    65
 73
     2
 40
40.0
 49
37.5
 49
-2.5
  0
LTYPE
  2
LONG4
 70
    64
  3
+++++++++++++++..+++++++++++++++
 72
    65
 73
     2
 40
80.0
 49
75.0
 49
-5.0
  0
LTYPE
  2
LONG5
 70
    64
  3
----------  --  ----------  --  
 72
    65
 73
     4
 40
60.0
 49
37.5
 49
-7.5
 49
7.5
 49
-7.5
  0
LTYPE
  2
dashed
 70
   64
  3
-------   -------------   ------
 72
   65
 73
    2
 40
7.5
 49
6
 49
-1.5
  0
LTYPE
  2
dashed_spaced
 70
   64
  3
----        --------        ----
 72
   65
 73
    2
 40
12
 49
6
 49
-6
  0
LTYPE
  2
long_dashed_dotted
 70
   64
  3
------------- --- --------------
 72
   65
 73
    4
 40
15.25
 49
12
 49
-1.5
 49
0.25
 49
-1.5
  0
LTYPE
  2
long_dashed_double-dotted
 70
   64
  3
----------- --- --- ------------
 72
   65
 73
    6
 40
17
 49
12
 49
-1.5
 49
0.25
 49
-1.5
 49
0.25
 49
-1.5
  0
LTYPE
  2
long_dashed_triplicate-dotted
 70
   64
  3
--------- --- --- --- ----------
 72
   65
 73
    8
 40
18.75
 49
12
 49
-1.5
 49
0.25
 49
-1.5
 49
0.25
 49
-1.5
 49
0.25
 49
-1.5
  0
LTYPE
  2
dotted
 70
   64
  3
   -       -       -       -    
 72
   65
 73
    2
 40
1.75
 49
0.25
 49
-1.5
  0
LTYPE
  2
chain
 70
   64
  3
-------------- -- --------------
 72
   65
 73
    4
 40
18.5
 49
12
 49
-1.5
 49
3.5
 49
-1.5
  0
LTYPE
  2
chain_double_dash
 70
   64
  3
------------ -- -- -------------
 72
   65
 73
    6
 40
23.5
 49
12
 49
-1.5
 49
3.5
 49
-1.5
 49
3.5
 49
-1.5
  0
LTYPE
  2
dashed_dotted
 70
   64
  3
-----------     -     ----------
 72
   65
 73
    4
 40
9.25
 49
6
 49
-1.5
 49
0.25
 49
-1.5
  0
LTYPE
  2
double-dashed_dotted
 70
   64
  3
------   -----------   -   -----
 72
   65
 73
    6
 40
16.75
 49
6
 49
-1.5
 49
6
 49
-1.5
 49
0.25
 49
-1.5
  0
LTYPE
  2
dashed_double-dotted
 70
   64
  3
---------    -    -    ---------
 72
   65
 73
    6
 40
11
 49
6
 49
-1.5
 49
0.25
 49
-1.5
 49
0.25
 49
-1.5
  0
LTYPE
  2
double-dashed_double-dotted
 70
   64
  3
-----   ---------   -   -   ----
 72
   65
 73
    8
 40
18.5
 49
6
 49
-1.5
 49
6
 49
-1.5
 49
0.25
 49
-1.5
 49
0.25
 49
-1.5
  0
LTYPE
  2
dashed_triplicate-dotted
 70
   64
  3
-------    -    -    -    ------
 72
   65
 73
    8
 40
12.75
 49
6
 49
-1.5
 49
0.25
 49
-1.5
 49
0.25
 49
-1.5
 49
0.25
 49
-1.5
  0
LTYPE
  2
double-dashed_triplicate-dotted
 70
   64
  3
-----  ---------  -  -  -  -----
 72
   65
 73
   10
 40
20.25
 49
6
 49
-1.5
 49
6
 49
-1.5
 49
0.25
 49
-1.5
 49
0.25
 49
-1.5
 49
0.25
 49
-1.5
  0
LTYPE
  2
undefined
 70
   64
  3
--------------------------------
 72
   65
 73
    0
 40
0
  0
ENDTAB
  0
TABLE
  2
STYLE
  5
3
100
AcDbSymbolTable
 70
     1
  0
STYLE
  5
10
100
AcDbSymbolTableRecord
100
AcDbTextStyleTableRecord
  2
STANDARD
 70
     0
 40
0.0
 41
1.0
 50
0.0
 71
     0
 42
0.2
  3
txt
  4
bigfont.shx
  0
STYLE
  5
26
100
AcDbSymbolTableRecord
100
AcDbTextStyleTableRecord
  2
TATEGAKI
 70
    68
 40
0.0
 41
1.0
 50
0.0
 71
     0
 42
1.0
  3
txt
  4
bigfont.shx
  0
ENDTAB
  0
TABLE
  2
LAYER
 70
    2
  0
LAYER
  2
_0-0_
 70
   64
 62
    7
  6
CONTINUOUS
  0
LAYER
  2
ADD_LINE
 70
   64
 62
    7
  6
CONTINUOUS
  0
ENDTAB
  0
ENDSEC
  0
SECTION
  2
BLOCKS
  0
ENDSEC
  0
SECTION
  2
ENTITIES
  0
TEXT
  8
_0-0_
 62
    7
 10
1465.7374
 20
370.53428000000002
 40
20
 41
0.8
 50
0
  1
岩城ブロック工業株式会社
  0
TEXT
  8
_0-0_
 62
    7
 10
1341.7501999999999
 20
370.53428000000002
 40
20
 41
0.8
 50
0
  1
25ｋｇ
  0
TEXT
  8
_0-0_
 62
    7
 10
1227.1797999999999
 20
372.10372999999998
 40
20
 41
0.8
 50
0
  1
参考重量
  0
TEXT
  8
_0-0_
 62
    7
 10
543.59649000000013
 20
991.32619
 40
15
 41
0.8000000000000001
 50
0
  1
70
  0
TEXT
  8
_0-0_
 62
    7
 10
804.34647999999993
 20
991.32619
 40
15
 41
0.8000000000000001
 50
0
  1
460
  0
TEXT
  8
_0-0_
 62
    7
 10
1073.5964900000001
 20
991.32619
 40
15
 41
0.8000000000000001
 50
0
  1
70
  0
TEXT
  8
_0-0_
 62
    7
 10
804.34647999999993
 20
966.95015000000001
 40
15
 41
0.8000000000000001
 50
0
  1
600
  0
TEXT
  8
_0-0_
 62
    7
 10
1177.5309
 20
1071.7527700000001
 40
15
 41
0.8000000000000001
 50
90
  1
120
  0
TEXT
  8
_0-0_
 62
    7
 10
543.43103999999994
 20
784.93056999999999
 40
15
 41
0.8000000000000001
 50
0
  1
70
  0
TEXT
  8
_0-0_
 62
    7
 10
804.18104000000005
 20
784.93056999999999
 40
15
 41
0.8000000000000001
 50
0
  1
460
  0
TEXT
  8
_0-0_
 62
    7
 10
1073.4310399999999
 20
784.93056999999999
 40
15
 41
0.8000000000000001
 50
0
  1
70
  0
TEXT
  8
_0-0_
 62
    7
 10
804.18104000000005
 20
821.46641999999997
 40
15
 41
0.8000000000000001
 50
0
  1
600
  0
TEXT
  8
_0-0_
 62
    7
 10
1158.3081
 20
697.72613999999999
 40
15
 41
0.8000000000000001
 50
90
  1
75
  0
TEXT
  8
_0-0_
 62
    7
 10
1158.3081
 20
603.47615000000008
 40
15
 41
0.8000000000000001
 50
90
  1
105
  0
TEXT
  8
_0-0_
 62
    7
 10
1177.3655000000001
 20
640.97614999999996
 40
15
 41
0.8000000000000001
 50
90
  1
180
  0
TEXT
  8
_0-0_
 62
    7
 10
502.83052999999995
 20
372.83897000000002
 40
20
 41
0.8
 50
0
  1
パーキングブロック　ＮＳＰ-120Ｂ
  0
TEXT
  8
_0-0_
 62
    7
 10
513.95337999999992
 20
1224.8516
 40
25
 41
0.8
 50
0
  1
正面
  0
TEXT
  8
_0-0_
 62
    7
 10
515.68102999999996
 20
836.64988000000005
 40
25
 41
0.8
 50
0
  1
上部
  0
TEXT
  8
_0-0_
 62
    7
 10
388.92465000000004
 20
372.41478999999998
 40
20
 41
0.8
 50
0
  1
名　称
  0
TEXT
  8
_0-0_
 62
    7
 10
867.11428999999998
 20
373.75801999999999
 40
20
 41
0.8
 50
0
  1
分　類
  0
TEXT
  8
_0-0_
 62
    7
 10
1043.07735
 20
372.41478999999998
 40
20
 41
0.8
 50
0
  1
図　番
  0
TEXT
  8
_0-0_
 62
    7
 10
1133.6219099999998
 20
1156.8889999999999
 40
15
 41
0.8000000000000001
 50
37.481734000000209
  1
R6
  0
TEXT
  8
_0-0_
 62
    7
 10
1142.1961999999999
 20
759.60509999999999
 40
15
 41
0.8000000000000001
 50
37.482120999999985
  1
R6
  0
TEXT
  8
_0-0_
 62
    7
 10
1358.1219000000001
 20
856.06870000000004
 40
15
 41
0.8000000000000001
 50
90
  1
80
  0
TEXT
  8
_0-0_
 62
    7
 10
1358.1219000000001
 20
796.06868999999983
 40
15
 41
0.8000000000000001
 50
90
  1
40
  0
TEXT
  8
_0-0_
 62
    7
 10
1433.3163999999997
 20
764.43748000000005
 40
15
 41
0.8000000000000001
 50
0
  1
105
  0
TEXT
  8
_0-0_
 62
    7
 10
1527.5663999999999
 20
764.43748000000005
 40
15
 41
0.8000000000000001
 50
0
  1
75
  0
TEXT
  8
_0-0_
 62
    7
 10
1470.8163999999997
 20
741.57095000000004
 40
15
 41
0.8000000000000001
 50
0
  1
180
  0
TEXT
  8
_0-0_
 62
    7
 10
1425.0663999999999
 20
952.06063999999992
 40
15
 41
0.8000000000000001
 50
0
  1
80
  0
TEXT
  8
_0-0_
 62
    7
 10
1510.8164999999999
 20
952.06063999999992
 40
15
 41
0.8000000000000001
 50
0
  1
100
  0
TEXT
  8
_0-0_
 62
    7
 10
1566.8164000000002
 20
930.36672999999996
 40
15
 41
0.8000000000000001
 50
0
  1
5
  0
TEXT
  8
_0-0_
 62
    7
 10
1623.7258999999999
 20
831.81870000000004
 40
15
 41
0.8000000000000001
 50
90
  1
120
  0
TEXT
  8
_0-0_
 62
    7
 10
1394.8631
 20
930.25685999999996
 40
15
 41
0.8000000000000001
 50
0
  1
3
  0
TEXT
  8
_0-0_
 62
    7
 10
1585.8937999999998
 20
917.80265999999995
 40
15
 41
0.8000000000000001
 50
37.733016000000028
  1
R20
  0
TEXT
  8
_0-0_
 62
    7
 10
1441.1826000000001
 20
917.80264
 40
15
 41
0.8000000000000001
 50
-22.379941999999964
  1
R10
  0
TEXT
  8
_0-0_
 62
    7
 10
1363.5011
 20
835.01931999999999
 40
15
 41
0.8000000000000001
 50
-22.380202000000011
  1
R10
  0
TEXT
  8
_0-0_
 62
    7
 10
1359.3803
 20
675.02380000000005
 40
25
 41
0.8
 50
0
  1
側面
  0
LINE
  8
_0-0_
  6
CONTINUOUS
 62
    7
 10
835.68101000000001
 20
613.79512
 11
1076.36418
 21
613.79512
  0
LINE
  8
_0-0_
  6
CONTINUOUS
 62
    7
 10
556.36419999999998
 20
599.79516000000001
 11
795.68100000000004
 21
599.79516000000001
  0
LINE
  8
_0-0_
  6
CONTINUOUS
 62
    7
 10
1115.8464800000002
 20
1137.2527
 11
1109.8465000000001
 21
1143.2528
  0
LINE
  8
_0-0_
  6
CONTINUOUS
 62
    7
 10
521.8464899999999
 20
1143.2528
 11
515.84647999999993
 21
1137.2527
  0
LINE
  8
_0-0_
  6
CONTINUOUS
 62
    7
 10
521.8464899999999
 20
1143.2528
 11
1065.8465000000001
 21
1143.2528
  0
LINE
  8
_0-0_
  6
CONTINUOUS
 62
    7
 10
521.8464899999999
 20
1143.2528
 11
1109.8465000000001
 21
1143.2528
  0
LINE
  8
_0-0_
  6
CONTINUOUS
 62
    7
 10
560.84646999999995
 20
1143.2528
 11
564.59649000000002
 21
1128.2528
  0
LINE
  8
_0-0_
  6
CONTINUOUS
 62
    7
 10
610.84647999999993
 20
1143.2528
 11
607.09649999999999
 21
1128.2528
  0
LINE
  8
_0-0_
  6
CONTINUOUS
 62
    7
 10
575.34651000000008
 20
1128.2528
 11
564.59649000000002
 21
1128.2528
  0
LINE
  8
_0-0_
  6
CONTINUOUS
 62
    7
 10
596.34647999999993
 20
1128.2528
 11
607.09649999999999
 21
1128.2528
  0
LINE
  8
_0-0_
  6
CONTINUOUS
 62
    7
 10
1070.84646
 20
1143.2528
 11
1067.0965099999999
 21
1128.2528
  0
LINE
  8
_0-0_
  6
CONTINUOUS
 62
    7
 10
1020.84648
 20
1143.2528
 11
1024.5964899999999
 21
1128.2528
  0
LINE
  8
_0-0_
  6
CONTINUOUS
 62
    7
 10
1035.34645
 20
1128.2528
 11
1024.5964899999999
 21
1128.2528
  0
LINE
  8
_0-0_
  6
CONTINUOUS
 62
    7
 10
1056.3464800000002
 20
1128.2528
 11
1067.0965099999999
 21
1128.2528
  0
LINE
  8
_0-0_
  6
CONTINUOUS
 62
    7
 10
1113.43741
 20
1140.0196000000001
 11
1169.8719000000001
 21
1183.2951
  0
LINE
  8
_0-0_
  6
CONTINUOUS
 62
    7
 10
1113.43741
 20
1140.0196000000001
 11
1120.3088699999998
 21
1150.8377
  0
LINE
  8
_0-0_
  6
CONTINUOUS
 62
    7
 10
515.84647999999993
 20
1023.25279
 11
1115.8464800000002
 21
1023.25279
  0
LINE
  8
_0-0_
  6
CONTINUOUS
 62
    7
 10
1109.8465000000001
 20
1143.2528
 11
1109.8465000000001
 21
1023.25279
  0
LINE
  8
_0-0_
  6
CONTINUOUS
 62
    7
 10
1115.8464800000002
 20
1137.2527
 11
1115.8464800000002
 21
1023.25279
  0
LINE
  8
_0-0_
  6
CONTINUOUS
 62
    7
 10
515.84647999999993
 20
1137.2527
 11
515.84647999999993
 21
1023.25279
  0
LINE
  8
_0-0_
  6
CONTINUOUS
 62
    7
 10
521.8464899999999
 20
1143.2528
 11
521.8464899999999
 21
1023.25279
  0
LINE
  8
_0-0_
  6
CONTINUOUS
 62
    7
 10
515.84647999999993
 20
1063.2528
 11
1115.8464800000002
 21
1063.2528
  0
LINE
  8
_0-0_
  6
CONTINUOUS
 62
    7
 10
515.84647999999993
 20
988.82618000000002
 11
585.84649999999999
 21
988.82618000000002
  0
LINE
  8
_0-0_
  6
CONTINUOUS
 62
    7
 10
515.84647999999993
 20
988.82618000000002
 11
515.84647999999993
 21
1014.2179599999999
  0
LINE
  8
_0-0_
  6
CONTINUOUS
 62
    7
 10
585.84649999999999
 20
988.82618000000002
 11
585.84649999999999
 21
1014.2179599999999
  0
LINE
  8
_0-0_
  6
CONTINUOUS
 62
    7
 10
585.84649999999999
 20
988.82618000000002
 11
1045.8465000000001
 21
988.82618000000002
  0
LINE
  8
_0-0_
  6
CONTINUOUS
 62
    7
 10
1045.8465000000001
 20
988.82618000000002
 11
1045.8465000000001
 21
1014.2179599999999
  0
LINE
  8
_0-0_
  6
CONTINUOUS
 62
    7
 10
1045.8465000000001
 20
988.82618000000002
 11
1115.8464800000002
 21
988.82618000000002
  0
LINE
  8
_0-0_
  6
CONTINUOUS
 62
    7
 10
1115.8464800000002
 20
988.82618000000002
 11
1115.8464800000002
 21
1014.2179599999999
  0
LINE
  8
_0-0_
  6
CONTINUOUS
 62
    7
 10
515.84647999999993
 20
964.45014000000003
 11
515.84647999999993
 21
1014.2179599999999
  0
LINE
  8
_0-0_
  6
CONTINUOUS
 62
    7
 10
1115.8464800000002
 20
964.45014000000003
 11
1115.8464800000002
 21
1014.2179599999999
  0
LINE
  8
_0-0_
  6
CONTINUOUS
 62
    7
 10
580.34649999999999
 20
1123.2528
 11
580.34649999999999
 21
1063.2528
  0
LINE
  8
_0-0_
  6
CONTINUOUS
 62
    7
 10
591.34649000000002
 20
1123.2528
 11
591.34649000000002
 21
1063.2528
  0
LINE
  8
_0-0_
  6
CONTINUOUS
 62
    7
 10
1040.34647
 20
1123.2528
 11
1040.34647
 21
1063.2528
  0
LINE
  8
_0-0_
  6
CONTINUOUS
 62
    7
 10
1051.34647
 20
1123.2528
 11
1051.34647
 21
1063.2528
  0
LINE
  8
_0-0_
  6
CONTINUOUS
 62
    7
 10
1180.0309
 20
1143.2528
 11
1180.0309
 21
1023.25279
  0
LINE
  8
_0-0_
  6
CONTINUOUS
 62
    7
 10
1180.0309
 20
1143.2528
 11
1123.81565
 21
1143.2528
  0
LINE
  8
_0-0_
  6
CONTINUOUS
 62
    7
 10
1180.0309
 20
1023.25279
 11
1123.81565
 21
1023.25279
  0
LINE
  8
_0-0_
  6
CONTINUOUS
 62
    7
 10
580.34649999999999
 20
1056.5051100000001
 11
580.34649999999999
 21
1042.80629
  0
LINE
  8
_0-0_
  6
CONTINUOUS
 62
    7
 10
580.34649999999999
 20
1038.8108200000001
 11
580.34649999999999
 21
1023.25279
  0
LINE
  8
_0-0_
  6
CONTINUOUS
 62
    7
 10
591.34649000000002
 20
1056.9939300000001
 11
591.34649000000002
 21
1042.23551
  0
LINE
  8
_0-0_
  6
CONTINUOUS
 62
    7
 10
591.34649000000002
 20
1038.8108200000001
 11
591.34649000000002
 21
1023.25279
  0
LINE
  8
_0-0_
  6
CONTINUOUS
 62
    7
 10
1040.34647
 20
1057.8588
 11
1040.34647
 21
1044.51863
  0
LINE
  8
_0-0_
  6
CONTINUOUS
 62
    7
 10
1040.34647
 20
1039.3816000000002
 11
1040.34647
 21
1023.25279
  0
LINE
  8
_0-0_
  6
CONTINUOUS
 62
    7
 10
1051.34647
 20
1058.7236
 11
1051.34647
 21
1045.08942
  0
LINE
  8
_0-0_
  6
CONTINUOUS
 62
    7
 10
1051.34647
 20
1037.6691900000001
 11
1051.34647
 21
1023.25279
  0
LINE
  8
_0-0_
  6
CONTINUOUS
 62
    7
 10
556.33806000000004
 20
1094.52901
 11
556.33806000000004
 21
1086.5289699999998
  0
LINE
  8
_0-0_
  6
CONTINUOUS
 62
    7
 10
556.33806000000004
 20
1107.529
 11
556.33806000000004
 21
1099.529
  0
LINE
  8
_0-0_
  6
CONTINUOUS
 62
    7
 10
556.33806000000004
 20
1120.5289
 11
556.33806000000004
 21
1112.529
  0
LINE
  8
_0-0_
  6
CONTINUOUS
 62
    7
 10
556.33806000000004
 20
1081.5289499999999
 11
556.33806000000004
 21
1073.52891
  0
LINE
  8
_0-0_
  6
CONTINUOUS
 62
    7
 10
1074.3481000000002
 20
1120.5289
 11
1074.3481000000002
 21
1112.529
  0
LINE
  8
_0-0_
  6
CONTINUOUS
 62
    7
 10
1074.3481000000002
 20
1107.529
 11
1074.3481000000002
 21
1099.529
  0
LINE
  8
_0-0_
  6
CONTINUOUS
 62
    7
 10
1074.3481000000002
 20
1094.52901
 11
1074.3481000000002
 21
1086.5289699999998
  0
LINE
  8
_0-0_
  6
CONTINUOUS
 62
    7
 10
1074.3481000000002
 20
1081.5289499999999
 11
1074.3481000000002
 21
1073.52891
  0
LINE
  8
_0-0_
  6
CONTINUOUS
 62
    7
 10
582.15479000000005
 20
1128.3934999999999
 11
590.33681999999999
 21
1128.3934999999999
  0
LINE
  8
_0-0_
  6
CONTINUOUS
 62
    7
 10
1041.7130200000001
 20
1127.0297
 11
1049.2132299999998
 21
1127.0297
  0
LINE
  8
_0-0_
  6
CONTINUOUS
 62
    7
 10
515.84647999999993
 20
1093.2527700000001
 11
531.84649999999988
 21
1083.2528
  0
LINE
  8
_0-0_
  6
CONTINUOUS
 62
    7
 10
531.84649999999988
 20
1083.2528
 11
531.84649999999988
 21
1063.2528
  0
LINE
  8
_0-0_
  6
CONTINUOUS
 62
    7
 10
531.84649999999988
 20
1063.2528
 11
515.84647999999993
 21
1053.2528299999999
  0
LINE
  8
_0-0_
  6
CONTINUOUS
 62
    7
 10
1099.84653
 20
1083.2528
 11
1099.84653
 21
1063.2528
  0
LINE
  8
_0-0_
  6
CONTINUOUS
 62
    7
 10
1115.8464800000002
 20
1093.2527700000001
 11
1099.84653
 21
1083.2528
  0
LINE
  8
_0-0_
  6
CONTINUOUS
 62
    7
 10
1099.84653
 20
1063.2528
 11
1115.8464800000002
 21
1053.2528299999999
  0
LINE
  8
_0-0_
  6
CONTINUOUS
 62
    7
 10
515.68103999999994
 20
782.43056000000001
 11
585.68105000000003
 21
782.43056000000001
  0
LINE
  8
_0-0_
  6
CONTINUOUS
 62
    7
 10
515.68103999999994
 20
782.43056000000001
 11
515.68103999999994
 21
750.19305000000008
  0
LINE
  8
_0-0_
  6
CONTINUOUS
 62
    7
 10
585.68105000000003
 20
782.43056000000001
 11
585.68105000000003
 21
750.19305000000008
  0
LINE
  8
_0-0_
  6
CONTINUOUS
 62
    7
 10
585.68105000000003
 20
782.43056000000001
 11
1045.68102
 21
782.43056000000001
  0
LINE
  8
_0-0_
  6
CONTINUOUS
 62
    7
 10
1045.68102
 20
782.43056000000001
 11
1045.68102
 21
750.19305000000008
  0
LINE
  8
_0-0_
  6
CONTINUOUS
 62
    7
 10
1045.68102
 20
782.43056000000001
 11
1115.68101
 21
782.43056000000001
  0
LINE
  8
_0-0_
  6
CONTINUOUS
 62
    7
 10
1115.68101
 20
782.43056000000001
 11
1115.68101
 21
750.19305000000008
  0
LINE
  8
_0-0_
  6
CONTINUOUS
 62
    7
 10
515.68103999999994
 20
818.96641
 11
1115.68101
 21
818.96641
  0
LINE
  8
_0-0_
  6
CONTINUOUS
 62
    7
 10
515.68103999999994
 20
818.96641
 11
515.68103999999994
 21
750.19305000000008
  0
LINE
  8
_0-0_
  6
CONTINUOUS
 62
    7
 10
1115.68101
 20
818.96641
 11
1115.68101
 21
750.19305000000008
  0
LINE
  8
_0-0_
  6
CONTINUOUS
 62
    7
 10
521.68105000000003
 20
742.47613999999999
 11
515.68103999999994
 21
736.47616000000005
  0
LINE
  8
_0-0_
  6
CONTINUOUS
 62
    7
 10
1109.68102
 20
742.47613999999999
 11
521.68105000000003
 21
742.47613999999999
  0
LINE
  8
_0-0_
  6
CONTINUOUS
 62
    7
 10
1109.68102
 20
742.47613999999999
 11
1115.68101
 21
736.47616000000005
  0
LINE
  8
_0-0_
  6
CONTINUOUS
 62
    7
 10
521.68105000000003
 20
736.47616000000005
 11
1109.68102
 21
736.47616000000005
  0
LINE
  8
_0-0_
  6
CONTINUOUS
 62
    7
 10
521.68105000000003
 20
742.47613999999999
 11
521.68105000000003
 21
562.47613999999999
  0
LINE
  8
_0-0_
  6
CONTINUOUS
 62
    7
 10
1109.68102
 20
742.47613999999999
 11
1109.68102
 21
562.47613999999999
  0
LINE
  8
_0-0_
  6
CONTINUOUS
 62
    7
 10
1115.68101
 20
736.47616000000005
 11
1115.68101
 21
562.47613999999999
  0
LINE
  8
_0-0_
  6
CONTINUOUS
 62
    7
 10
1115.68101
 20
562.47613999999999
 11
515.68103999999994
 21
562.47613999999999
  0
LINE
  8
_0-0_
  6
CONTINUOUS
 62
    7
 10
1160.8081
 20
742.47613999999999
 11
1160.8081
 21
667.47613999999999
  0
LINE
  8
_0-0_
  6
CONTINUOUS
 62
    7
 10
1160.8081
 20
742.47613999999999
 11
1125.2149199999999
 21
742.47613999999999
  0
LINE
  8
_0-0_
  6
CONTINUOUS
 62
    7
 10
1160.8081
 20
667.47613999999999
 11
1125.2149199999999
 21
667.47613999999999
  0
LINE
  8
_0-0_
  6
CONTINUOUS
 62
    7
 10
1160.8081
 20
667.47613999999999
 11
1160.8081
 21
562.47613999999999
  0
LINE
  8
_0-0_
  6
CONTINUOUS
 62
    7
 10
1160.8081
 20
562.47613999999999
 11
1125.2149199999999
 21
562.47613999999999
  0
LINE
  8
_0-0_
  6
CONTINUOUS
 62
    7
 10
1179.8655000000001
 20
742.47613999999999
 11
1179.8655000000001
 21
562.47613999999999
  0
LINE
  8
_0-0_
  6
CONTINUOUS
 62
    7
 10
1179.8655000000001
 20
742.47613999999999
 11
1125.2149199999999
 21
742.47613999999999
  0
LINE
  8
_0-0_
  6
CONTINUOUS
 62
    7
 10
1179.8655000000001
 20
562.47613999999999
 11
1125.2149199999999
 21
562.47613999999999
  0
LINE
  8
_0-0_
  6
CONTINUOUS
 62
    7
 10
1115.68101
 20
642.47612000000004
 11
515.68103999999994
 21
642.47612000000004
  0
LINE
  8
_0-0_
  6
CONTINUOUS
 62
    7
 10
556.36419999999998
 20
607.79513999999995
 11
556.36419999999998
 21
599.79516000000001
  0
LINE
  8
_0-0_
  6
CONTINUOUS
 62
    7
 10
556.36419999999998
 20
593.79518000000007
 11
556.36419999999998
 21
585.79514000000006
  0
LINE
  8
_0-0_
  6
CONTINUOUS
 62
    7
 10
556.36419999999998
 20
579.79516000000001
 11
556.36419999999998
 21
571.79518000000007
  0
LINE
  8
_0-0_
  6
CONTINUOUS
 62
    7
 10
556.36419999999998
 20
607.79513999999995
 11
715.36419999999998
 21
607.79513999999995
  0
LINE
  8
_0-0_
  6
CONTINUOUS
 62
    7
 10
556.36419999999998
 20
607.79513999999995
 11
715.36419999999998
 21
607.79513999999995
  0
LINE
  8
_0-0_
  6
CONTINUOUS
 62
    7
 10
556.36419999999998
 20
621.79516000000001
 11
556.36419999999998
 21
613.79512
  0
LINE
  8
_0-0_
  6
CONTINUOUS
 62
    7
 10
1076.36418
 20
607.79513999999995
 11
1076.36418
 21
599.79516000000001
  0
LINE
  8
_0-0_
  6
CONTINUOUS
 62
    7
 10
1076.36418
 20
593.79518000000007
 11
1076.36418
 21
585.79514000000006
  0
LINE
  8
_0-0_
  6
CONTINUOUS
 62
    7
 10
1076.36418
 20
579.79516000000001
 11
1076.36418
 21
571.79518000000007
  0
LINE
  8
_0-0_
  6
CONTINUOUS
 62
    7
 10
917.36416999999994
 20
607.79513999999995
 11
1076.36418
 21
607.79513999999995
  0
LINE
  8
_0-0_
  6
CONTINUOUS
 62
    7
 10
917.36416999999994
 20
607.79513999999995
 11
1076.36418
 21
607.79513999999995
  0
LINE
  8
_0-0_
  6
CONTINUOUS
 62
    7
 10
1076.36418
 20
621.79516000000001
 11
1076.36418
 21
613.79512
  0
LINE
  8
_0-0_
  6
CONTINUOUS
 62
    7
 10
557.68103999999994
 20
629.47613000000001
 11
613.68106
 21
629.47613000000001
  0
LINE
  8
_0-0_
  6
CONTINUOUS
 62
    7
 10
557.68103999999994
 20
664.47612000000004
 11
557.68103999999994
 21
629.47613000000001
  0
LINE
  8
_0-0_
  6
CONTINUOUS
 62
    7
 10
613.68106
 20
664.47612000000004
 11
613.68106
 21
629.47613000000001
  0
LINE
  8
_0-0_
  6
CONTINUOUS
 62
    7
 10
1017.6810400000002
 20
629.47613000000001
 11
1073.6810599999999
 21
629.47613000000001
  0
LINE
  8
_0-0_
  6
CONTINUOUS
 62
    7
 10
1017.6810400000002
 20
664.47612000000004
 11
1017.6810400000002
 21
629.47613000000001
  0
LINE
  8
_0-0_
  6
CONTINUOUS
 62
    7
 10
1073.6810599999999
 20
664.47612000000004
 11
1073.6810599999999
 21
629.47613000000001
  0
LINE
  8
_0-0_
  6
CONTINUOUS
 62
    7
 10
1045.68102
 20
742.47613999999999
 11
1045.68102
 21
670.04233999999997
  0
LINE
  8
_0-0_
  6
CONTINUOUS
 62
    7
 10
1045.68102
 20
670.04233999999997
 11
1045.68102
 21
667.47613999999999
  0
LINE
  8
_0-0_
  6
CONTINUOUS
 62
    7
 10
515.68103999999994
 20
736.47616000000005
 11
515.68103999999994
 21
667.07306000000005
  0
LINE
  8
_0-0_
  6
CONTINUOUS
 62
    7
 10
515.68103999999994
 20
667.07306000000005
 11
515.68103999999994
 21
562.47613999999999
  0
LINE
  8
_0-0_
  6
CONTINUOUS
 62
    7
 10
1115.68101
 20
667.47613999999999
 11
1045.68102
 21
667.47613999999999
  0
LINE
  8
_0-0_
  6
CONTINUOUS
 62
    7
 10
515.68103999999994
 20
642.47612000000004
 11
530.68101999999999
 21
647.47613999999999
  0
LINE
  8
_0-0_
  6
CONTINUOUS
 62
    7
 10
515.68103999999994
 20
702.47613000000001
 11
530.68101999999999
 21
697.47612000000004
  0
LINE
  8
_0-0_
  6
CONTINUOUS
 62
    7
 10
530.68101999999999
 20
697.47612000000004
 11
530.68101999999999
 21
647.47613999999999
  0
LINE
  8
_0-0_
  6
CONTINUOUS
 62
    7
 10
1115.68101
 20
702.47613000000001
 11
1100.68102
 21
697.47612000000004
  0
LINE
  8
_0-0_
  6
CONTINUOUS
 62
    7
 10
1100.68102
 20
647.47613999999999
 11
1115.68101
 21
642.47612000000004
  0
LINE
  8
_0-0_
  6
CONTINUOUS
 62
    7
 10
1100.68102
 20
697.47612000000004
 11
1100.68102
 21
647.47613999999999
  0
LINE
  8
_0-0_
  6
CONTINUOUS
 62
    7
 10
1113.0421800000001
 20
739.12531000000001
 11
1172.5658000000001
 21
780.04777999999999
  0
LINE
  8
_0-0_
  6
CONTINUOUS
 62
    7
 10
1113.0421800000001
 20
739.12531000000001
 11
1122.60852
 21
753.47478000000001
  0
LINE
  8
_0-0_
  6
CONTINUOUS
 62
    7
 10
556.33806000000004
 20
1120.5289
 11
795.84648000000004
 21
1120.5289
  0
LINE
  8
_0-0_
  6
CONTINUOUS
 62
    7
 10
556.33806000000004
 20
1112.529
 11
795.84648000000004
 21
1112.529
  0
LINE
  8
_0-0_
  6
CONTINUOUS
 62
    7
 10
556.33806000000004
 20
1107.529
 11
795.84648000000004
 21
1107.529
  0
LINE
  8
_0-0_
  6
CONTINUOUS
 62
    7
 10
556.33806000000004
 20
1099.529
 11
795.84648000000004
 21
1099.529
  0
LINE
  8
_0-0_
  6
CONTINUOUS
 62
    7
 10
556.33806000000004
 20
1094.52901
 11
795.84648000000004
 21
1094.52901
  0
LINE
  8
_0-0_
  6
CONTINUOUS
 62
    7
 10
556.33806000000004
 20
1086.5289699999998
 11
795.84648000000004
 21
1086.5289699999998
  0
LINE
  8
_0-0_
  6
CONTINUOUS
 62
    7
 10
556.33806000000004
 20
1081.5289499999999
 11
795.84648000000004
 21
1081.5289499999999
  0
LINE
  8
_0-0_
  6
CONTINUOUS
 62
    7
 10
556.33806000000004
 20
1073.52891
 11
795.84648000000004
 21
1073.52891
  0
LINE
  8
_0-0_
  6
CONTINUOUS
 62
    7
 10
795.84648000000004
 20
1120.5289
 11
795.84648000000004
 21
1112.529
  0
LINE
  8
_0-0_
  6
CONTINUOUS
 62
    7
 10
795.84648000000004
 20
1107.529
 11
795.84648000000004
 21
1099.529
  0
LINE
  8
_0-0_
  6
CONTINUOUS
 62
    7
 10
795.84648000000004
 20
1094.52901
 11
795.84648000000004
 21
1086.5289699999998
  0
LINE
  8
_0-0_
  6
CONTINUOUS
 62
    7
 10
795.84648000000004
 20
1081.5289499999999
 11
795.84648000000004
 21
1073.52891
  0
LINE
  8
_0-0_
  6
CONTINUOUS
 62
    7
 10
835.84648000000004
 20
1120.5289
 11
1074.3481000000002
 21
1120.5289
  0
LINE
  8
_0-0_
  6
CONTINUOUS
 62
    7
 10
835.84648000000004
 20
1112.529
 11
1074.3481000000002
 21
1112.529
  0
LINE
  8
_0-0_
  6
CONTINUOUS
 62
    7
 10
835.84648000000004
 20
1107.529
 11
1074.3481000000002
 21
1107.529
  0
LINE
  8
_0-0_
  6
CONTINUOUS
 62
    7
 10
835.84648000000004
 20
1099.529
 11
1074.3481000000002
 21
1099.529
  0
LINE
  8
_0-0_
  6
CONTINUOUS
 62
    7
 10
835.84648000000004
 20
1094.52901
 11
1074.3481000000002
 21
1094.52901
  0
LINE
  8
_0-0_
  6
CONTINUOUS
 62
    7
 10
835.84648000000004
 20
1086.5289699999998
 11
1074.3481000000002
 21
1086.5289699999998
  0
LINE
  8
_0-0_
  6
CONTINUOUS
 62
    7
 10
835.84648000000004
 20
1081.5289499999999
 11
1074.3481000000002
 21
1081.5289499999999
  0
LINE
  8
_0-0_
  6
CONTINUOUS
 62
    7
 10
835.84648000000004
 20
1073.52891
 11
1074.3481000000002
 21
1073.52891
  0
LINE
  8
_0-0_
  6
CONTINUOUS
 62
    7
 10
835.84648000000004
 20
1120.5289
 11
835.84648000000004
 21
1112.529
  0
LINE
  8
_0-0_
  6
CONTINUOUS
 62
    7
 10
835.84648000000004
 20
1107.529
 11
835.84648000000004
 21
1099.529
  0
LINE
  8
_0-0_
  6
CONTINUOUS
 62
    7
 10
835.84648000000004
 20
1094.52901
 11
835.84648000000004
 21
1086.5289699999998
  0
LINE
  8
_0-0_
  6
CONTINUOUS
 62
    7
 10
835.84648000000004
 20
1081.5289499999999
 11
835.84648000000004
 21
1073.52891
  0
LINE
  8
_0-0_
  6
CONTINUOUS
 62
    7
 10
556.36419999999998
 20
621.79516000000001
 11
795.68100000000004
 21
621.79516000000001
  0
LINE
  8
_0-0_
  6
CONTINUOUS
 62
    7
 10
556.36419999999998
 20
613.79512
 11
795.68100000000004
 21
613.79512
  0
LINE
  8
_0-0_
  6
CONTINUOUS
 62
    7
 10
556.36419999999998
 20
607.79513999999995
 11
795.68100000000004
 21
607.79513999999995
  0
LINE
  8
_0-0_
  6
CONTINUOUS
 62
    7
 10
556.36419999999998
 20
585.79514000000006
 11
795.68100000000004
 21
585.79514000000006
  0
LINE
  8
_0-0_
  6
CONTINUOUS
 62
    7
 10
556.36419999999998
 20
593.79518000000007
 11
795.68100000000004
 21
593.79518000000007
  0
LINE
  8
_0-0_
  6
CONTINUOUS
 62
    7
 10
556.36419999999998
 20
579.79516000000001
 11
795.68100000000004
 21
579.79516000000001
  0
LINE
  8
_0-0_
  6
CONTINUOUS
 62
    7
 10
556.36419999999998
 20
571.79518000000007
 11
795.68100000000004
 21
571.79518000000007
  0
LINE
  8
_0-0_
  6
CONTINUOUS
 62
    7
 10
795.68100000000004
 20
607.79513999999995
 11
795.68100000000004
 21
599.79516000000001
  0
LINE
  8
_0-0_
  6
CONTINUOUS
 62
    7
 10
795.68100000000004
 20
593.79518000000007
 11
795.68100000000004
 21
585.79514000000006
  0
LINE
  8
_0-0_
  6
CONTINUOUS
 62
    7
 10
795.68100000000004
 20
579.79516000000001
 11
795.68100000000004
 21
571.79518000000007
  0
LINE
  8
_0-0_
  6
CONTINUOUS
 62
    7
 10
795.68100000000004
 20
621.79516000000001
 11
795.68100000000004
 21
613.79512
  0
LINE
  8
_0-0_
  6
CONTINUOUS
 62
    7
 10
835.68101000000001
 20
621.79516000000001
 11
1076.36418
 21
621.79516000000001
  0
LINE
  8
_0-0_
  6
CONTINUOUS
 62
    7
 10
835.68101000000001
 20
607.79513999999995
 11
1076.36418
 21
607.79513999999995
  0
LINE
  8
_0-0_
  6
CONTINUOUS
 62
    7
 10
835.68101000000001
 20
599.79516000000001
 11
1076.36418
 21
599.79516000000001
  0
LINE
  8
_0-0_
  6
CONTINUOUS
 62
    7
 10
835.68101000000001
 20
585.79514000000006
 11
1076.36418
 21
585.79514000000006
  0
LINE
  8
_0-0_
  6
CONTINUOUS
 62
    7
 10
835.68101000000001
 20
593.79518000000007
 11
1076.36418
 21
593.79518000000007
  0
LINE
  8
_0-0_
  6
CONTINUOUS
 62
    7
 10
835.68101000000001
 20
579.79516000000001
 11
1076.36418
 21
579.79516000000001
  0
LINE
  8
_0-0_
  6
CONTINUOUS
 62
    7
 10
835.68101000000001
 20
571.79518000000007
 11
1076.36418
 21
571.79518000000007
  0
LINE
  8
_0-0_
  6
CONTINUOUS
 62
    7
 10
835.68101000000001
 20
621.79516000000001
 11
835.68101000000001
 21
613.79512
  0
LINE
  8
_0-0_
  6
CONTINUOUS
 62
    7
 10
835.68101000000001
 20
607.79513999999995
 11
835.68101000000001
 21
599.79516000000001
  0
LINE
  8
_0-0_
  6
CONTINUOUS
 62
    7
 10
835.68101000000001
 20
593.79518000000007
 11
835.68101000000001
 21
585.79514000000006
  0
LINE
  8
_0-0_
  6
CONTINUOUS
 62
    7
 10
835.68101000000001
 20
579.79516000000001
 11
835.68101000000001
 21
571.79518000000007
  0
LINE
  8
_0-0_
  6
CONTINUOUS
 62
    7
 10
1392.3163
 20
783.31867999999997
 11
1572.3163
 21
783.31867999999997
  0
LINE
  8
_0-0_
  6
CONTINUOUS
 62
    7
 10
1360.6219000000001
 20
903.31865000000005
 11
1360.6219000000001
 21
823.31868999999995
  0
LINE
  8
_0-0_
  6
CONTINUOUS
 62
    7
 10
1360.6219000000001
 20
903.31865000000005
 11
1386.4201
 21
903.31865000000005
  0
LINE
  8
_0-0_
  6
CONTINUOUS
 62
    7
 10
1360.6219000000001
 20
823.31868999999995
 11
1386.4201
 21
823.31868999999995
  0
LINE
  8
_0-0_
  6
CONTINUOUS
 62
    7
 10
1360.6219000000001
 20
823.31868999999995
 11
1360.6219000000001
 21
783.31867999999997
  0
LINE
  8
_0-0_
  6
CONTINUOUS
 62
    7
 10
1360.6219000000001
 20
783.31867999999997
 11
1386.4201
 21
783.31867999999997
  0
LINE
  8
_0-0_
  6
CONTINUOUS
 62
    7
 10
1392.3163
 20
761.93747000000008
 11
1497.3163
 21
761.93747000000008
  0
LINE
  8
_0-0_
  6
CONTINUOUS
 62
    7
 10
1392.3163
 20
761.93747000000008
 11
1392.3163
 21
778.35454000000004
  0
LINE
  8
_0-0_
  6
CONTINUOUS
 62
    7
 10
1497.3163
 20
761.93747000000008
 11
1572.3163
 21
761.93747000000008
  0
LINE
  8
_0-0_
  6
CONTINUOUS
 62
    7
 10
1572.3163
 20
761.93747000000008
 11
1572.3163
 21
778.35454000000004
  0
LINE
  8
_0-0_
  6
CONTINUOUS
 62
    7
 10
1392.3163
 20
739.07094000000006
 11
1572.3163
 21
739.07094000000006
  0
LINE
  8
_0-0_
  6
CONTINUOUS
 62
    7
 10
1392.3163
 20
739.07094000000006
 11
1392.3163
 21
778.35454000000004
  0
LINE
  8
_0-0_
  6
CONTINUOUS
 62
    7
 10
1572.3163
 20
739.07094000000006
 11
1572.3163
 21
778.35454000000004
  0
LINE
  8
_0-0_
  6
CONTINUOUS
 62
    7
 10
1392.3163
 20
949.56069000000002
 11
1472.3163
 21
949.56069000000002
  0
LINE
  8
_0-0_
  6
CONTINUOUS
 62
    7
 10
1472.3163
 20
949.56069000000002
 11
1472.3163
 21
909.69072000000006
  0
LINE
  8
_0-0_
  6
CONTINUOUS
 62
    7
 10
1472.3163
 20
949.56069000000002
 11
1572.3163
 21
949.56069000000002
  0
LINE
  8
_0-0_
  6
CONTINUOUS
 62
    7
 10
1392.3163
 20
927.86671999999999
 11
1395.3163
 21
927.86671999999999
  0
LINE
  8
_0-0_
  6
CONTINUOUS
 62
    7
 10
1392.3163
 20
927.86671999999999
 11
1392.3163
 21
909.69072000000006
  0
LINE
  8
_0-0_
  6
CONTINUOUS
 62
    7
 10
1395.3163
 20
927.86671999999999
 11
1395.3163
 21
909.69072000000006
  0
LINE
  8
_0-0_
  6
CONTINUOUS
 62
    7
 10
1567.3163
 20
927.86671999999999
 11
1572.3163
 21
927.86671999999999
  0
LINE
  8
_0-0_
  6
CONTINUOUS
 62
    7
 10
1567.3163
 20
927.86671999999999
 11
1567.3163
 21
909.69072000000006
  0
LINE
  8
_0-0_
  6
CONTINUOUS
 62
    7
 10
1572.3163
 20
927.86671999999999
 11
1572.3163
 21
909.69072000000006
  0
LINE
  8
_0-0_
  6
CONTINUOUS
 62
    7
 10
1568.1150000000002
 20
884.15128000000004
 11
1572.3163
 21
783.31867999999997
  0
LINE
  8
_0-0_
  6
CONTINUOUS
 62
    7
 10
1563.319
 20
879.15125999999998
 11
1567.3207000000002
 21
783.11051999999995
  0
LINE
  8
_0-0_
  6
CONTINUOUS
 62
    7
 10
1476.4953999999998
 20
903.31865000000005
 11
1548.1323
 21
903.31865000000005
  0
LINE
  8
_0-0_
  6
CONTINUOUS
 62
    7
 10
1396.0988
 20
826.13641000000007
 11
1469.3800000000001
 21
900.3451
  0
LINE
  8
_0-0_
  6
CONTINUOUS
 62
    7
 10
1393.2174
 20
819.35983999999985
 11
1392.3163
 21
783.31867999999997
  0
LINE
  8
_0-0_
  6
CONTINUOUS
 62
    7
 10
1626.2258999999999
 20
783.31867999999997
 11
1626.2258999999999
 21
903.31865000000005
  0
LINE
  8
_0-0_
  6
CONTINUOUS
 62
    7
 10
1626.2258999999999
 20
783.31867999999997
 11
1586.9423999999999
 21
783.31867999999997
  0
LINE
  8
_0-0_
  6
CONTINUOUS
 62
    7
 10
1626.2258999999999
 20
903.31865000000005
 11
1586.9423999999999
 21
903.31865000000005
  0
LINE
  8
_0-0_
  6
CONTINUOUS
 62
    7
 10
1478.5849000000001
 20
898.31868999999995
 11
1543.3362999999999
 21
898.31868999999995
  0
LINE
  8
_0-0_
  6
CONTINUOUS
 62
    7
 10
1401.0479
 20
824.03206
 11
1471.4694999999999
 21
895.34514000000001
  0
LINE
  8
_0-0_
  6
CONTINUOUS
 62
    7
 10
1398.1663000000001
 20
817.25549000000001
 11
1397.3146999999999
 21
783.19372999999996
  0
LINE
  8
_0-0_
  6
CONTINUOUS
 62
    7
 10
1572.3163
 20
949.56069000000002
 11
1572.3163
 21
783.31867999999997
  0
LINE
  8
_0-0_
  6
CONTINUOUS
 62
    7
 10
1392.3163
 20
949.56069000000002
 11
1392.3163
 21
783.31867999999997
  0
LINE
  8
_0-0_
  6
CONTINUOUS
 62
    7
 10
1527.2815999999998
 20
853.31867
 11
1477.2815999999998
 21
853.31867
  0
LINE
  8
_0-0_
  6
CONTINUOUS
 62
    7
 10
1472.2815999999998
 20
818.31867
 11
1472.2815999999998
 21
848.31871000000001
  0
LINE
  8
_0-0_
  6
CONTINUOUS
 62
    7
 10
1477.2815999999998
 20
823.31868999999995
 11
1477.2815999999998
 21
843.31870000000004
  0
LINE
  8
_0-0_
  6
CONTINUOUS
 62
    7
 10
1522.2815999999998
 20
818.31867
 11
1482.2815999999998
 21
818.31867
  0
LINE
  8
_0-0_
  6
CONTINUOUS
 62
    7
 10
1532.2817
 20
818.31867
 11
1532.2817
 21
848.31871000000001
  0
LINE
  8
_0-0_
  6
CONTINUOUS
 62
    7
 10
1527.2815999999998
 20
813.31866000000002
 11
1477.2815999999998
 21
813.31866000000002
  0
LINE
  8
_0-0_
  6
CONTINUOUS
 62
    7
 10
1522.2815999999998
 20
848.31871000000001
 11
1482.2815999999998
 21
848.31871000000001
  0
LINE
  8
_0-0_
  6
CONTINUOUS
 62
    7
 10
1527.2815999999998
 20
843.31870000000004
 11
1527.2815999999998
 21
823.31868999999995
  0
LINE
  8
_0-0_
  6
CONTINUOUS
 62
    7
 10
1562.9857999999999
 20
898.24712
 11
1609.9192
 21
934.56460000000004
  0
LINE
  8
_0-0_
  6
CONTINUOUS
 62
    7
 10
1562.9857999999999
 20
898.24712
 11
1568.5732
 21
905.51058999999998
  0
LINE
  8
_0-0_
  6
CONTINUOUS
 62
    7
 10
1471.3541
 20
903.83443
 11
1433.3603000000001
 21
919.47888000000012
  0
LINE
  8
_0-0_
  6
CONTINUOUS
 62
    7
 10
1471.3541
 20
903.83443
 11
1465.7666999999999
 21
909.42174999999997
  0
LINE
  8
_0-0_
  6
CONTINUOUS
 62
    7
 10
1393.6904999999999
 20
822.25971000000004
 11
1362.9602
 21
834.55178000000001
  0
LINE
  8
_0-0_
  6
CONTINUOUS
 62
    7
 10
1393.6904999999999
 20
822.25971000000004
 11
1387.5445
 21
828.40574000000004
  0
LINE
  8
_0-0_
  6
CONTINUOUS
 62
    7
 10
1497.3163
 20
761.93747000000008
 11
1497.3163
 21
777.19987000000003
  0
LINE
  8
_0-0_
  6
CONTINUOUS
 62
    7
 10
1493.3163
 20
875.29887000000008
 11
1493.3163
 21
783.31867999999997
  0
LINE
  8
_0-0_
  6
CONTINUOUS
 62
    7
 10
1501.3163999999999
 20
875.29887000000008
 11
1501.3163999999999
 21
783.31867999999997
  0
LINE
  8
_0-0_
  6
CONTINUOUS
 62
    7
 10
1414.5808
 20
837.7362700000001
 11
1407.5537999999999
 21
837.7362700000001
  0
LINE
  8
_0-0_
  6
CONTINUOUS
 62
    7
 10
1427.3418999999999
 20
850.65899999999999
 11
1420.3149000000001
 21
850.65899999999999
  0
LINE
  8
_0-0_
  6
CONTINUOUS
 62
    7
 10
1441.1378
 20
864.62945000000002
 11
1434.1107999999999
 21
864.62945000000002
  0
LINE
  8
_0-0_
  6
CONTINUOUS
 62
    7
 10
1452.8642
 20
876.50432999999998
 11
1445.8371999999999
 21
876.50432999999998
  0
LINE
  8
_0-0_
  6
CONTINUOUS
 62
    7
 10
1452.8642
 20
883.62027
 11
1452.8642
 21
876.50432999999998
  0
LINE
  8
_0-0_
  6
CONTINUOUS
 62
    7
 10
1441.1378
 20
871.74539000000004
 11
1441.1378
 21
864.62945000000002
  0
LINE
  8
_0-0_
  6
CONTINUOUS
 62
    7
 10
1427.3418999999999
 20
857.69778999999994
 11
1427.3418999999999
 21
850.65899999999999
  0
LINE
  8
_0-0_
  6
CONTINUOUS
 62
    7
 10
1414.5808
 20
844.85233000000005
 11
1414.5808
 21
837.7362700000001
  0
LINE
  8
_0-0_
  6
CONTINUOUS
 62
    7
 10
1484.9301999999998
 20
885.2989
 11
1491.3163999999999
 21
875.29887000000008
  0
LINE
  8
_0-0_
  6
CONTINUOUS
 62
    7
 10
1503.3384000000001
 20
875.29887000000008
 11
1491.3163999999999
 21
875.29887000000008
  0
LINE
  8
_0-0_
  6
CONTINUOUS
 62
    7
 10
1509.7025000000001
 20
885.2989
 11
1503.3163999999997
 21
875.29887000000008
  0
LINE
  8
_0-0_
  6
CONTINUOUS
 62
    7
 10
1522.5292999999997
 20
903.31865000000005
 11
1516.9848000000002
 21
885.2989
  0
LINE
  8
_0-0_
  6
CONTINUOUS
 62
    7
 10
1516.9848000000002
 20
885.2989
 11
1456.9553000000001
 21
885.2989
  0
LINE
  8
_0-0_
  6
CONTINUOUS
 62
    7
 10
515.84647999999993
 20
964.45014000000003
 11
1115.8464800000002
 21
964.45014000000003
  0
ARC
  8
_0-0_
  6
CONTINUOUS
 62
    7
 10
575.34651000000008
 20
1123.2528
 40
5
 50
0
 51
90
  0
ARC
  8
_0-0_
  6
CONTINUOUS
 62
    7
 10
596.34647999999993
 20
1123.2528
 40
5
 50
90
 51
180
  0
ARC
  8
_0-0_
  6
CONTINUOUS
 62
    7
 10
1035.34645
 20
1123.2528
 40
5
 50
0
 51
90
  0
ARC
  8
_0-0_
  6
CONTINUOUS
 62
    7
 10
1056.3464800000002
 20
1123.2528
 40
5
 50
90
 51
180
  0
CIRCLE
  8
_0-0_
  6
CONTINUOUS
 62
    7
 10
585.68105000000003
 20
667.47613999999999
 40
10
  0
CIRCLE
  8
_0-0_
  6
CONTINUOUS
 62
    7
 10
585.68105000000003
 20
667.47613999999999
 40
15
  0
CIRCLE
  8
_0-0_
  6
CONTINUOUS
 62
    7
 10
585.68105000000003
 20
667.47613999999999
 40
20
  0
ARC
  8
_0-0_
  6
CONTINUOUS
 62
    7
 10
583.68106
 20
664.47612000000004
 40
30
 50
0
 51
86.177443999999994
  0
ARC
  8
_0-0_
  6
CONTINUOUS
 62
    7
 10
587.68105000000003
 20
664.47612000000004
 40
30
 50
93.822539999999989
 51
180
  0
CIRCLE
  8
_0-0_
  6
CONTINUOUS
 62
    7
 10
1045.68102
 20
667.47613999999999
 40
10
  0
CIRCLE
  8
_0-0_
  6
CONTINUOUS
 62
    7
 10
1045.68102
 20
667.47613999999999
 40
15
  0
CIRCLE
  8
_0-0_
  6
CONTINUOUS
 62
    7
 10
1045.68102
 20
667.47613999999999
 40
20
  0
ARC
  8
_0-0_
  6
CONTINUOUS
 62
    7
 10
1043.68103
 20
664.47612000000004
 40
30
 50
0
 51
86.177443999999994
  0
ARC
  8
_0-0_
  6
CONTINUOUS
 62
    7
 10
1047.68102
 20
664.47612000000004
 40
30
 50
93.822539999999989
 51
180
  0
ARC
  8
_0-0_
  6
CONTINUOUS
 62
    7
 10
1548.1323
 20
883.31863999999996
 40
20
 50
2.3859404999999998
 51
89.999983999999969
  0
ARC
  8
_0-0_
  6
CONTINUOUS
 62
    7
 10
1543.3362999999999
 20
878.31868999999995
 40
20
 50
2.3859404999999998
 51
89.999999999999972
  0
ARC
  8
_0-0_
  6
CONTINUOUS
 62
    7
 10
1476.4953999999998
 20
893.31867
 40
10
 50
90
 51
135.36033
  0
ARC
  8
_0-0_
  6
CONTINUOUS
 62
    7
 10
1403.2141999999999
 20
819.10992999999985
 40
10
 50
135.36033
 51
178.56790000000004
  0
ARC
  8
_0-0_
  6
CONTINUOUS
 62
    7
 10
1478.5849000000001
 20
888.31866000000002
 40
10
 50
90
 51
135.36033
  0
ARC
  8
_0-0_
  6
CONTINUOUS
 62
    7
 10
1408.1632
 20
817.00557000000003
 40
10
 50
135.36033
 51
178.56790000000004
  0
ARC
  8
_0-0_
  6
CONTINUOUS
 62
    7
 10
1477.2815999999998
 20
848.31871000000001
 40
5
 50
90
 51
180
  0
ARC
  8
_0-0_
  6
CONTINUOUS
 62
    7
 10
1482.2815999999998
 20
843.31870000000004
 40
5
 50
90
 51
180
  0
ARC
  8
_0-0_
  6
CONTINUOUS
 62
    7
 10
1527.2815999999998
 20
848.31871000000001
 40
5
 50
0
 51
90
  0
ARC
  8
_0-0_
  6
CONTINUOUS
 62
    7
 10
1477.2815999999998
 20
818.31867
 40
5
 50
180
 51
270
  0
ARC
  8
_0-0_
  6
CONTINUOUS
 62
    7
 10
1482.2815999999998
 20
823.31868999999995
 40
5
 50
180
 51
270
  0
ARC
  8
_0-0_
  6
CONTINUOUS
 62
    7
 10
1522.2815999999998
 20
823.31868999999995
 40
5
 50
270
 51
0
  0
ARC
  8
_0-0_
  6
CONTINUOUS
 62
    7
 10
1527.2815999999998
 20
818.31867
 40
5
 50
270
 51
0
  0
ARC
  8
_0-0_
  6
CONTINUOUS
 62
    7
 10
1522.2815999999998
 20
843.31870000000004
 40
5
 50
0
 51
90
  0
POINT
  8
_0-0_
 62
    7
 10
515.84647999999993
 20
988.82618000000002
  0
POINT
  8
_0-0_
 62
    7
 10
585.84649999999999
 20
988.82618000000002
  0
POINT
  8
_0-0_
 62
    7
 10
1045.8465000000001
 20
988.82618000000002
  0
POINT
  8
_0-0_
 62
    7
 10
1115.8464800000002
 20
988.82618000000002
  0
POINT
  8
_0-0_
 62
    7
 10
515.84647999999993
 20
964.45014000000003
  0
POINT
  8
_0-0_
 62
    7
 10
1115.8464800000002
 20
964.45014000000003
  0
POINT
  8
_0-0_
 62
    7
 10
1180.0309
 20
1143.2528
  0
POINT
  8
_0-0_
 62
    7
 10
1180.0309
 20
1023.25279
  0
POINT
  8
_0-0_
 62
    7
 10
515.68103999999994
 20
782.43056000000001
  0
POINT
  8
_0-0_
 62
    7
 10
585.68105000000003
 20
782.43056000000001
  0
POINT
  8
_0-0_
 62
    7
 10
1045.68102
 20
782.43056000000001
  0
POINT
  8
_0-0_
 62
    7
 10
1115.68101
 20
782.43056000000001
  0
POINT
  8
_0-0_
 62
    7
 10
515.68103999999994
 20
818.96641
  0
POINT
  8
_0-0_
 62
    7
 10
1115.68101
 20
818.96641
  0
POINT
  8
_0-0_
 62
    7
 10
1160.8081
 20
742.47613999999999
  0
POINT
  8
_0-0_
 62
    7
 10
1160.8081
 20
667.47613999999999
  0
POINT
  8
_0-0_
 62
    7
 10
1160.8081
 20
562.47613999999999
  0
POINT
  8
_0-0_
 62
    7
 10
1179.8655000000001
 20
742.47613999999999
  0
POINT
  8
_0-0_
 62
    7
 10
1179.8655000000001
 20
562.47613999999999
  0
POINT
  8
_0-0_
 62
    7
 10
1360.6219000000001
 20
903.31865000000005
  0
POINT
  8
_0-0_
 62
    7
 10
1360.6219000000001
 20
823.31868999999995
  0
POINT
  8
_0-0_
 62
    7
 10
1360.6219000000001
 20
783.31867999999997
  0
POINT
  8
_0-0_
 62
    7
 10
1392.3163
 20
761.93747000000008
  0
POINT
  8
_0-0_
 62
    7
 10
1497.3163
 20
761.93747000000008
  0
POINT
  8
_0-0_
 62
    7
 10
1572.3163
 20
761.93747000000008
  0
POINT
  8
_0-0_
 62
    7
 10
1392.3163
 20
739.07094000000006
  0
POINT
  8
_0-0_
 62
    7
 10
1572.3163
 20
739.07094000000006
  0
POINT
  8
_0-0_
 62
    7
 10
1392.3163
 20
949.56069000000002
  0
POINT
  8
_0-0_
 62
    7
 10
1472.3163
 20
949.56069000000002
  0
POINT
  8
_0-0_
 62
    7
 10
1572.3163
 20
949.56069000000002
  0
POINT
  8
_0-0_
 62
    7
 10
1392.3163
 20
927.86671999999999
  0
POINT
  8
_0-0_
 62
    7
 10
1395.3163
 20
927.86671999999999
  0
POINT
  8
_0-0_
 62
    7
 10
1567.3163
 20
927.86671999999999
  0
POINT
  8
_0-0_
 62
    7
 10
1572.3163
 20
927.86671999999999
  0
POINT
  8
_0-0_
 62
    7
 10
1626.2258999999999
 20
783.31867999999997
  0
POINT
  8
_0-0_
 62
    7
 10
1626.2258999999999
 20
903.31865000000005
  0
LINE
  8
_0-0_
  6
CONTINUOUS
 62
    7
 10
370.09744999999998
 20
1360.0211999999999
 11
370.09744999999998
 21
360.02118000000002
  0
LINE
  8
_0-0_
  6
CONTINUOUS
 62
    7
 10
1770.0974000000001
 20
1360.0211999999999
 11
370.09744999999998
 21
1360.0211999999999
  0
LINE
  8
_0-0_
  6
CONTINUOUS
 62
    7
 10
1770.0974000000001
 20
360.02118000000002
 11
1770.0974000000001
 21
1360.0211999999999
  0
LINE
  8
_0-0_
  6
CONTINUOUS
 62
    7
 10
370.09744999999998
 20
410.02118999999999
 11
1770.0974000000001
 21
410.02118999999999
  0
LINE
  8
_0-0_
  6
CONTINUOUS
 62
    7
 10
370.09744999999998
 20
360.02118000000002
 11
1770.0974000000001
 21
360.02118000000002
  0
LINE
  8
_0-0_
  6
CONTINUOUS
 62
    7
 10
1417.0842
 20
410.02118999999999
 11
1417.0842
 21
360.02118000000002
  0
LINE
  8
_0-0_
  6
CONTINUOUS
 62
    7
 10
1324.4861000000001
 20
410.02118999999999
 11
1324.4861000000001
 21
360.02118000000002
  0
LINE
  8
_0-0_
  6
CONTINUOUS
 62
    7
 10
1213.0546999999999
 20
410.02118999999999
 11
1213.0546999999999
 21
360.02118000000002
  0
LINE
  8
_0-0_
  6
CONTINUOUS
 62
    7
 10
1112.6094700000001
 20
410.02118999999999
 11
1112.6094700000001
 21
360.02118000000002
  0
LINE
  8
_0-0_
  6
CONTINUOUS
 62
    7
 10
1035.70604
 20
410.02118999999999
 11
1035.70604
 21
360.02118000000002
  0
LINE
  8
_0-0_
  6
CONTINUOUS
 62
    7
 10
938.39971000000014
 20
410.02118999999999
 11
938.39971000000014
 21
360.02118000000002
  0
LINE
  8
_0-0_
  6
CONTINUOUS
 62
    7
 10
856.78793999999994
 20
410.02118999999999
 11
856.78793999999994
 21
360.02118000000002
  0
LINE
  8
_0-0_
  6
CONTINUOUS
 62
    7
 10
459.71519000000001
 20
410.02118999999999
 11
459.71519000000001
 21
360.02118000000002
  0
ENDSEC
  0
EOF
