  0
SECTION
  2
HEADER
  9
$ACADVER
  1
AC1009
  9
$INSBASE
 10
0
 20
0
 30
0
  9
$EXTMIN
 10
0
 20
0
  9
$EXTMAX
 10
2376
 20
1680
  9
$LIMMIN
 10
0
 20
0
  9
$LIMMAX
 10
2376
 20
1680
  9
$LTSCALE
 40
4
  0
ENDSEC
  0
SECTION
  2
TABLES
  0
TABLE
  2
LTYPE
 70
     9
  0
LTYPE
  2
CONTINUOUS
 70
    64
  3
実線
 72
    65
 73
     0
 40
0.0
  0
LTYPE
  2
DASHED1
 70
    64
  3
--  --  --  --  --  --  --  --  
 72
    65
 73
     2
 40
2.5
 49
1.25
 49
-1.25
  0
LTYPE
  2
DASHED2
 70
    64
  3
----    ----    ----    ----    
 72
    65
 73
     2
 40
5.0
 49
2.5
 49
-2.5
  0
LTYPE
  2
DASHED3
 70
    64
  3
------  ------  ------  ------  
 72
    65
 73
     2
 40
5.0
 49
3.75
 49
-1.25
  0
LTYPE
  2
CENTER1
 70
    64
  3
----- - ----- - ----- - ----- - 
 72
    65
 73
     4
 40
10.0
 49
6.25
 49
-1.25
 49
1.25
 49
-1.25
  0
LTYPE
  2
CENTER2
 70
    64
  3
----------  --  ----------  --  
 72
    65
 73
     4
 40
20.0
 49
12.5
 49
-2.5
 49
2.5
 49
-2.5
  0
LTYPE
  2
PHANTOM1
 70
    64
  3
--- - - --- - - --- - - --- - - 
 72
    65
 73
     6
 40
10.0
 49
3.25
 49
-1.25
 49
1.25
 49
-1.25
 49
1.25
 49
-1.25
  0
LTYPE
  2
PHANTOM2
 70
    64
  3
--------  -  -  --------  -  -  
 72
    65
 73
     6
 40
20.0
 49
10.0
 49
-2.5
 49
1.25
 49
-2.5
 49
1.25
 49
-2.5
  0
LTYPE
  2
DOT
 70
    64
  3
-   -   -   -   -   -   -   -   
 72
    65
 73
     2
 40
2.5
 49
0.625
 49
-1.875
  0
LTYPE
  2
DUMMY
 70
    64
  3
ダミー
 72
    65
 73
     0
 40
0.0
  0
LTYPE
  2
RAND1
 70
    64
  3
ランダム線1
 72
    65
 73
     4
 40
10.0
 49
1.0
 49
-2.0
 49
3.0
 49
-4.0
  0
LTYPE
  2
RAND2
 70
    64
  3
ランダム線2
 72
    65
 73
     4
 40
14.0
 49
2.0
 49
-3.0
 49
4.0
 49
-5.0
  0
LTYPE
  2
RAND3
 70
    64
  3
ランダム線3
 72
    65
 73
     4
 40
18.0
 49
3.0
 49
-4.0
 49
5.0
 49
-6.0
  0
LTYPE
  2
RAND4
 70
    64
  3
ランダム線4
 72
    65
 73
     4
 40
22.0
 49
4.0
 49
-5.0
 49
6.0
 49
-7.0
  0
LTYPE
  2
RAND5
 70
    64
  3
ランダム線5
 72
    65
 73
     4
 40
26.0
 49
5.0
 49
-6.0
 49
7.0
 49
-8.0
  0
LTYPE
  2
LONG1
 70
    64
  3
----------  --  ----------  --  
 72
    65
 73
     4
 40
40.0
 49
32.5
 49
-2.5
 49
2.5
 49
-2.5
  0
LTYPE
  2
LONG2
 70
    64
  3
--------  -  -  --------  -  -  
 72
    65
 73
     6
 40
40.0
 49
30.0
 49
-2.5
 49
1.25
 49
-2.5
 49
1.25
 49
-2.5
  0
LTYPE
  2
LONG3
 70
    64
  3
+++++++++++++++..+++++++++++++++
 72
    65
 73
     2
 40
40.0
 49
37.5
 49
-2.5
  0
LTYPE
  2
LONG4
 70
    64
  3
+++++++++++++++..+++++++++++++++
 72
    65
 73
     2
 40
80.0
 49
75.0
 49
-5.0
  0
LTYPE
  2
LONG5
 70
    64
  3
----------  --  ----------  --  
 72
    65
 73
     4
 40
60.0
 49
37.5
 49
-7.5
 49
7.5
 49
-7.5
  0
LTYPE
  2
dashed
 70
   64
  3
-------   -------------   ------
 72
   65
 73
    2
 40
7.5
 49
6
 49
-1.5
  0
LTYPE
  2
dashed_spaced
 70
   64
  3
----        --------        ----
 72
   65
 73
    2
 40
12
 49
6
 49
-6
  0
LTYPE
  2
long_dashed_dotted
 70
   64
  3
------------- --- --------------
 72
   65
 73
    4
 40
15.25
 49
12
 49
-1.5
 49
0.25
 49
-1.5
  0
LTYPE
  2
long_dashed_double-dotted
 70
   64
  3
----------- --- --- ------------
 72
   65
 73
    6
 40
17
 49
12
 49
-1.5
 49
0.25
 49
-1.5
 49
0.25
 49
-1.5
  0
LTYPE
  2
long_dashed_triplicate-dotted
 70
   64
  3
--------- --- --- --- ----------
 72
   65
 73
    8
 40
18.75
 49
12
 49
-1.5
 49
0.25
 49
-1.5
 49
0.25
 49
-1.5
 49
0.25
 49
-1.5
  0
LTYPE
  2
dotted
 70
   64
  3
   -       -       -       -    
 72
   65
 73
    2
 40
1.75
 49
0.25
 49
-1.5
  0
LTYPE
  2
chain
 70
   64
  3
-------------- -- --------------
 72
   65
 73
    4
 40
18.5
 49
12
 49
-1.5
 49
3.5
 49
-1.5
  0
LTYPE
  2
chain_double_dash
 70
   64
  3
------------ -- -- -------------
 72
   65
 73
    6
 40
23.5
 49
12
 49
-1.5
 49
3.5
 49
-1.5
 49
3.5
 49
-1.5
  0
LTYPE
  2
dashed_dotted
 70
   64
  3
-----------     -     ----------
 72
   65
 73
    4
 40
9.25
 49
6
 49
-1.5
 49
0.25
 49
-1.5
  0
LTYPE
  2
double-dashed_dotted
 70
   64
  3
------   -----------   -   -----
 72
   65
 73
    6
 40
16.75
 49
6
 49
-1.5
 49
6
 49
-1.5
 49
0.25
 49
-1.5
  0
LTYPE
  2
dashed_double-dotted
 70
   64
  3
---------    -    -    ---------
 72
   65
 73
    6
 40
11
 49
6
 49
-1.5
 49
0.25
 49
-1.5
 49
0.25
 49
-1.5
  0
LTYPE
  2
double-dashed_double-dotted
 70
   64
  3
-----   ---------   -   -   ----
 72
   65
 73
    8
 40
18.5
 49
6
 49
-1.5
 49
6
 49
-1.5
 49
0.25
 49
-1.5
 49
0.25
 49
-1.5
  0
LTYPE
  2
dashed_triplicate-dotted
 70
   64
  3
-------    -    -    -    ------
 72
   65
 73
    8
 40
12.75
 49
6
 49
-1.5
 49
0.25
 49
-1.5
 49
0.25
 49
-1.5
 49
0.25
 49
-1.5
  0
LTYPE
  2
double-dashed_triplicate-dotted
 70
   64
  3
-----  ---------  -  -  -  -----
 72
   65
 73
   10
 40
20.25
 49
6
 49
-1.5
 49
6
 49
-1.5
 49
0.25
 49
-1.5
 49
0.25
 49
-1.5
 49
0.25
 49
-1.5
  0
LTYPE
  2
undefined
 70
   64
  3
--------------------------------
 72
   65
 73
    0
 40
0
  0
ENDTAB
  0
TABLE
  2
STYLE
  5
3
100
AcDbSymbolTable
 70
     1
  0
STYLE
  5
10
100
AcDbSymbolTableRecord
100
AcDbTextStyleTableRecord
  2
STANDARD
 70
     0
 40
0.0
 41
1.0
 50
0.0
 71
     0
 42
0.2
  3
txt
  4
bigfont.shx
  0
STYLE
  5
26
100
AcDbSymbolTableRecord
100
AcDbTextStyleTableRecord
  2
TATEGAKI
 70
    68
 40
0.0
 41
1.0
 50
0.0
 71
     0
 42
1.0
  3
txt
  4
bigfont.shx
  0
ENDTAB
  0
TABLE
  2
LAYER
 70
    2
  0
LAYER
  2
_0-0_
 70
   64
 62
    7
  6
CONTINUOUS
  0
LAYER
  2
ADD_LINE
 70
   64
 62
    7
  6
CONTINUOUS
  0
ENDTAB
  0
ENDSEC
  0
SECTION
  2
BLOCKS
  0
ENDSEC
  0
SECTION
  2
ENTITIES
  0
TEXT
  8
_0-0_
 62
    7
 10
1335.7882
 20
798.58722
 40
15
 41
0.8
 50
90
  1
80
  0
TEXT
  8
_0-0_
 62
    7
 10
1335.7882
 20
738.58721000000003
 40
15
 41
0.8
 50
90
  1
40
  0
TEXT
  8
_0-0_
 62
    7
 10
1410.9827
 20
706.95603000000006
 40
15
 41
0.8
 50
0
  1
105
  0
TEXT
  8
_0-0_
 62
    7
 10
1505.2326
 20
706.95603000000006
 40
15
 41
0.8
 50
0
  1
75
  0
TEXT
  8
_0-0_
 62
    7
 10
1448.4827
 20
684.08950000000004
 40
15
 41
0.8
 50
0
  1
180
  0
TEXT
  8
_0-0_
 62
    7
 10
1402.7327
 20
894.57919000000004
 40
15
 41
0.8
 50
0
  1
80
  0
TEXT
  8
_0-0_
 62
    7
 10
1488.4827
 20
894.57919000000004
 40
15
 41
0.8
 50
0
  1
100
  0
TEXT
  8
_0-0_
 62
    7
 10
1544.4827
 20
872.88527999999997
 40
15
 41
0.8
 50
0
  1
5
  0
TEXT
  8
_0-0_
 62
    7
 10
1601.3922
 20
774.33722
 40
15
 41
0.8
 50
90
  1
120
  0
TEXT
  8
_0-0_
 62
    7
 10
1372.5293999999999
 20
872.77542000000005
 40
15
 41
0.8
 50
0
  1
3
  0
TEXT
  8
_0-0_
 62
    7
 10
1563.5601999999999
 20
860.32122000000004
 40
15
 41
0.8
 50
37.733016000000028
  1
R20
  0
TEXT
  8
_0-0_
 62
    7
 10
1418.8489
 20
860.32122000000004
 40
15
 41
0.8
 50
-22.380059000000003
  1
R10
  0
TEXT
  8
_0-0_
 62
    7
 10
1341.1674
 20
777.53787
 40
15
 41
0.8
 50
-22.380202000000033
  1
R10
  0
TEXT
  8
_0-0_
 62
    7
 10
1465.7374
 20
370.53428000000002
 40
20
 41
0.8
 50
0
  1
岩城ブロック工業株式会社
  0
TEXT
  8
_0-0_
 62
    7
 10
1227.1797999999999
 20
372.10372999999998
 40
20
 41
0.8
 50
0
  1
参考重量
  0
TEXT
  8
_0-0_
 62
    7
 10
804.34648000000004
 20
1185.7951
 40
15
 41
0.8
 50
0
  1
182
  0
TEXT
  8
_0-0_
 62
    7
 10
543.59649000000002
 20
991.32619
 40
15
 41
0.8
 50
0
  1
70
  0
TEXT
  8
_0-0_
 62
    7
 10
804.34648000000004
 20
991.32619
 40
15
 41
0.8
 50
0
  1
460
  0
TEXT
  8
_0-0_
 62
    7
 10
1073.5964899999999
 20
991.32619
 40
15
 41
0.8
 50
0
  1
70
  0
TEXT
  8
_0-0_
 62
    7
 10
804.34648000000004
 20
966.95015000000001
 40
15
 41
0.8
 50
0
  1
600
  0
TEXT
  8
_0-0_
 62
    7
 10
1177.5309
 20
1071.7527700000001
 40
15
 41
0.8
 50
90
  1
120
  0
TEXT
  8
_0-0_
 62
    7
 10
543.43103999999994
 20
784.93056999999999
 40
15
 41
0.8
 50
0
  1
70
  0
TEXT
  8
_0-0_
 62
    7
 10
804.18104000000005
 20
784.93056999999999
 40
15
 41
0.8
 50
0
  1
460
  0
TEXT
  8
_0-0_
 62
    7
 10
1073.4310399999999
 20
784.93056999999999
 40
15
 41
0.8
 50
0
  1
70
  0
TEXT
  8
_0-0_
 62
    7
 10
804.18104000000005
 20
821.46641999999997
 40
15
 41
0.8
 50
0
  1
600
  0
TEXT
  8
_0-0_
 62
    7
 10
1158.3081
 20
697.72613999999999
 40
15
 41
0.8
 50
90
  1
75
  0
TEXT
  8
_0-0_
 62
    7
 10
1158.3081
 20
603.47614999999996
 40
15
 41
0.8
 50
90
  1
105
  0
TEXT
  8
_0-0_
 62
    7
 10
1177.3655000000001
 20
640.97614999999996
 40
15
 41
0.8
 50
90
  1
180
  0
TEXT
  8
_0-0_
 62
    7
 10
516.17795000000001
 20
1218.1778999999999
 40
25
 41
0.8
 50
0
  1
正面
  0
TEXT
  8
_0-0_
 62
    7
 10
515.68102999999996
 20
836.64988000000005
 40
25
 41
0.8
 50
0
  1
上部
  0
TEXT
  8
_0-0_
 62
    7
 10
1337.0465999999999
 20
617.54235000000006
 40
25
 41
0.8
 50
0
  1
側面
  0
TEXT
  8
_0-0_
 62
    7
 10
502.71739000000002
 20
373.17833000000002
 40
20
 41
0.8
 50
0
  1
パーキングブロック　ＮＳＰ-120Ａ
  0
TEXT
  8
_0-0_
 62
    7
 10
389.60334999999998
 20
373.17833000000002
 40
20
 41
0.8
 50
0
  1
名　称
  0
TEXT
  8
_0-0_
 62
    7
 10
1042.8369600000001
 20
373.17833000000002
 40
20
 41
0.8
 50
0
  1
図　番
  0
TEXT
  8
_0-0_
 62
    7
 10
867.51018999999997
 20
373.17833000000002
 40
20
 41
0.8
 50
0
  1
分　類
  0
TEXT
  8
_0-0_
 62
    7
 10
1342.4619
 20
371.90107999999998
 40
20
 41
0.8
 50
0
  1
25ｋｇ
  0
TEXT
  8
_0-0_
 62
    7
 10
1133.6219099999998
 20
1156.8889999999999
 40
15
 41
0.8
 50
37.481733999999953
  1
R6
  0
TEXT
  8
_0-0_
 62
    7
 10
1142.1961999999999
 20
759.60509999999999
 40
15
 41
0.8
 50
37.482120999999985
  1
R6
  0
LINE
  8
_0-0_
  6
CONTINUOUS
 62
    7
 10
1369.9827
 20
725.83723999999995
 11
1549.9826
 21
725.83723999999995
  0
LINE
  8
_0-0_
  6
CONTINUOUS
 62
    7
 10
1338.2882
 20
845.83720000000005
 11
1338.2882
 21
765.83723999999995
  0
LINE
  8
_0-0_
  6
CONTINUOUS
 62
    7
 10
1338.2882
 20
845.83720000000005
 11
1364.0863999999999
 21
845.83720000000005
  0
LINE
  8
_0-0_
  6
CONTINUOUS
 62
    7
 10
1338.2882
 20
765.83723999999995
 11
1364.0863999999999
 21
765.83723999999995
  0
LINE
  8
_0-0_
  6
CONTINUOUS
 62
    7
 10
1338.2882
 20
765.83723999999995
 11
1338.2882
 21
725.83723999999995
  0
LINE
  8
_0-0_
  6
CONTINUOUS
 62
    7
 10
1338.2882
 20
725.83723999999995
 11
1364.0863999999999
 21
725.83723999999995
  0
LINE
  8
_0-0_
  6
CONTINUOUS
 62
    7
 10
1369.9827
 20
704.45601999999997
 11
1474.9826
 21
704.45601999999997
  0
LINE
  8
_0-0_
  6
CONTINUOUS
 62
    7
 10
1369.9827
 20
704.45601999999997
 11
1369.9827
 21
720.87310000000002
  0
LINE
  8
_0-0_
  6
CONTINUOUS
 62
    7
 10
1474.9826
 20
704.45601999999997
 11
1549.9826
 21
704.45601999999997
  0
LINE
  8
_0-0_
  6
CONTINUOUS
 62
    7
 10
1549.9826
 20
704.45601999999997
 11
1549.9826
 21
720.87310000000002
  0
LINE
  8
_0-0_
  6
CONTINUOUS
 62
    7
 10
1369.9827
 20
681.58948999999996
 11
1549.9826
 21
681.58948999999996
  0
LINE
  8
_0-0_
  6
CONTINUOUS
 62
    7
 10
1369.9827
 20
681.58948999999996
 11
1369.9827
 21
720.87310000000002
  0
LINE
  8
_0-0_
  6
CONTINUOUS
 62
    7
 10
1549.9826
 20
681.58948999999996
 11
1549.9826
 21
720.87310000000002
  0
LINE
  8
_0-0_
  6
CONTINUOUS
 62
    7
 10
1369.9827
 20
892.07925
 11
1449.9827
 21
892.07925
  0
LINE
  8
_0-0_
  6
CONTINUOUS
 62
    7
 10
1449.9827
 20
892.07925
 11
1449.9827
 21
852.20926999999995
  0
LINE
  8
_0-0_
  6
CONTINUOUS
 62
    7
 10
1449.9827
 20
892.07925
 11
1549.9826
 21
892.07925
  0
LINE
  8
_0-0_
  6
CONTINUOUS
 62
    7
 10
1369.9827
 20
870.38526999999999
 11
1372.9826
 21
870.38526999999999
  0
LINE
  8
_0-0_
  6
CONTINUOUS
 62
    7
 10
1369.9827
 20
870.38526999999999
 11
1369.9827
 21
852.20926999999995
  0
LINE
  8
_0-0_
  6
CONTINUOUS
 62
    7
 10
1372.9826
 20
870.38526999999999
 11
1372.9826
 21
852.20926999999995
  0
LINE
  8
_0-0_
  6
CONTINUOUS
 62
    7
 10
1544.9826
 20
870.38526999999999
 11
1549.9826
 21
870.38526999999999
  0
LINE
  8
_0-0_
  6
CONTINUOUS
 62
    7
 10
1544.9826
 20
870.38526999999999
 11
1544.9826
 21
852.20926999999995
  0
LINE
  8
_0-0_
  6
CONTINUOUS
 62
    7
 10
1549.9826
 20
870.38526999999999
 11
1549.9826
 21
852.20926999999995
  0
LINE
  8
_0-0_
  6
CONTINUOUS
 62
    7
 10
1545.7814000000001
 20
826.66983000000005
 11
1549.9826
 21
725.83723999999995
  0
LINE
  8
_0-0_
  6
CONTINUOUS
 62
    7
 10
1540.9854
 20
821.66980999999998
 11
1544.9871000000001
 21
725.62908000000004
  0
LINE
  8
_0-0_
  6
CONTINUOUS
 62
    7
 10
1454.1617000000001
 20
845.83720000000005
 11
1525.7986000000001
 21
845.83720000000005
  0
LINE
  8
_0-0_
  6
CONTINUOUS
 62
    7
 10
1373.7651000000001
 20
768.65497000000005
 11
1447.0463
 21
842.86365000000001
  0
LINE
  8
_0-0_
  6
CONTINUOUS
 62
    7
 10
1370.8837000000001
 20
761.87838999999997
 11
1369.9827
 21
725.83723999999995
  0
LINE
  8
_0-0_
  6
CONTINUOUS
 62
    7
 10
1603.8922
 20
725.83723999999995
 11
1603.8922
 21
845.83720000000005
  0
LINE
  8
_0-0_
  6
CONTINUOUS
 62
    7
 10
1603.8922
 20
725.83723999999995
 11
1564.6087
 21
725.83723999999995
  0
LINE
  8
_0-0_
  6
CONTINUOUS
 62
    7
 10
1603.8922
 20
845.83720000000005
 11
1564.6087
 21
845.83720000000005
  0
LINE
  8
_0-0_
  6
CONTINUOUS
 62
    7
 10
1456.2511999999999
 20
840.83723999999995
 11
1521.0026
 21
840.83723999999995
  0
LINE
  8
_0-0_
  6
CONTINUOUS
 62
    7
 10
1378.7141999999999
 20
766.55061000000001
 11
1449.1358
 21
837.86369999999999
  0
LINE
  8
_0-0_
  6
CONTINUOUS
 62
    7
 10
1375.8326
 20
759.77404000000001
 11
1374.9811
 21
725.71227999999996
  0
LINE
  8
_0-0_
  6
CONTINUOUS
 62
    7
 10
1549.9826
 20
892.07925
 11
1549.9826
 21
725.83723999999995
  0
LINE
  8
_0-0_
  6
CONTINUOUS
 62
    7
 10
1369.9827
 20
892.07925
 11
1369.9827
 21
725.83723999999995
  0
LINE
  8
_0-0_
  6
CONTINUOUS
 62
    7
 10
1504.9480000000001
 20
795.83722
 11
1454.9478999999999
 21
795.83722
  0
LINE
  8
_0-0_
  6
CONTINUOUS
 62
    7
 10
1449.9478999999999
 20
760.83722999999998
 11
1449.9478999999999
 21
790.83726999999999
  0
LINE
  8
_0-0_
  6
CONTINUOUS
 62
    7
 10
1454.9478999999999
 20
765.83723999999995
 11
1454.9478999999999
 21
785.83725000000004
  0
LINE
  8
_0-0_
  6
CONTINUOUS
 62
    7
 10
1499.9480000000001
 20
760.83722999999998
 11
1459.9478999999999
 21
760.83722999999998
  0
LINE
  8
_0-0_
  6
CONTINUOUS
 62
    7
 10
1509.9480000000001
 20
760.83722999999998
 11
1509.9480000000001
 21
790.83726999999999
  0
LINE
  8
_0-0_
  6
CONTINUOUS
 62
    7
 10
1504.9480000000001
 20
755.83721000000003
 11
1454.9478999999999
 21
755.83721000000003
  0
LINE
  8
_0-0_
  6
CONTINUOUS
 62
    7
 10
1499.9480000000001
 20
790.83726999999999
 11
1459.9478999999999
 21
790.83726999999999
  0
LINE
  8
_0-0_
  6
CONTINUOUS
 62
    7
 10
1504.9480000000001
 20
785.83725000000004
 11
1504.9480000000001
 21
765.83723999999995
  0
LINE
  8
_0-0_
  6
CONTINUOUS
 62
    7
 10
1540.6522
 20
840.76567
 11
1587.5856000000001
 21
877.08316000000002
  0
LINE
  8
_0-0_
  6
CONTINUOUS
 62
    7
 10
1540.6522
 20
840.76567
 11
1546.2394999999999
 21
848.02914999999996
  0
LINE
  8
_0-0_
  6
CONTINUOUS
 62
    7
 10
1449.0204000000001
 20
846.35298999999998
 11
1411.0265999999999
 21
861.99743000000001
  0
LINE
  8
_0-0_
  6
CONTINUOUS
 62
    7
 10
1449.0204000000001
 20
846.35298999999998
 11
1443.4331
 21
851.94029999999998
  0
LINE
  8
_0-0_
  6
CONTINUOUS
 62
    7
 10
1371.3568
 20
764.77826000000005
 11
1340.6265000000001
 21
777.07033000000001
  0
LINE
  8
_0-0_
  6
CONTINUOUS
 62
    7
 10
1371.3568
 20
764.77826000000005
 11
1365.2108000000001
 21
770.92430000000002
  0
LINE
  8
_0-0_
  6
CONTINUOUS
 62
    7
 10
1115.8464800000002
 20
1137.2527
 11
1109.8465000000001
 21
1143.2528
  0
LINE
  8
_0-0_
  6
CONTINUOUS
 62
    7
 10
521.84649000000002
 20
1143.2528
 11
515.84647999999993
 21
1137.2527
  0
LINE
  8
_0-0_
  6
CONTINUOUS
 62
    7
 10
724.84646999999995
 20
1183.2951
 11
906.84649999999999
 21
1183.2951
  0
LINE
  8
_0-0_
  6
CONTINUOUS
 62
    7
 10
724.84646999999995
 20
1183.2951
 11
724.84646999999995
 21
1152.1511
  0
LINE
  8
_0-0_
  6
CONTINUOUS
 62
    7
 10
906.84649999999999
 20
1183.2951
 11
906.84649999999999
 21
1152.1511
  0
LINE
  8
_0-0_
  6
CONTINUOUS
 62
    7
 10
521.84649000000002
 20
1143.2528
 11
1065.8465000000001
 21
1143.2528
  0
LINE
  8
_0-0_
  6
CONTINUOUS
 62
    7
 10
521.84649000000002
 20
1143.2528
 11
1109.8465000000001
 21
1143.2528
  0
LINE
  8
_0-0_
  6
CONTINUOUS
 62
    7
 10
560.84646999999995
 20
1143.2528
 11
564.59649000000002
 21
1128.2528
  0
LINE
  8
_0-0_
  6
CONTINUOUS
 62
    7
 10
610.84647999999993
 20
1143.2528
 11
607.09649999999999
 21
1128.2528
  0
LINE
  8
_0-0_
  6
CONTINUOUS
 62
    7
 10
575.34651000000008
 20
1128.2528
 11
564.59649000000002
 21
1128.2528
  0
LINE
  8
_0-0_
  6
CONTINUOUS
 62
    7
 10
596.34647999999993
 20
1128.2528
 11
607.09649999999999
 21
1128.2528
  0
LINE
  8
_0-0_
  6
CONTINUOUS
 62
    7
 10
1070.84646
 20
1143.2528
 11
1067.0965099999999
 21
1128.2528
  0
LINE
  8
_0-0_
  6
CONTINUOUS
 62
    7
 10
1020.84648
 20
1143.2528
 11
1024.5964899999999
 21
1128.2528
  0
LINE
  8
_0-0_
  6
CONTINUOUS
 62
    7
 10
1035.34645
 20
1128.2528
 11
1024.5964899999999
 21
1128.2528
  0
LINE
  8
_0-0_
  6
CONTINUOUS
 62
    7
 10
1056.3464800000002
 20
1128.2528
 11
1067.0965099999999
 21
1128.2528
  0
LINE
  8
_0-0_
  6
CONTINUOUS
 62
    7
 10
1113.43741
 20
1140.0196000000001
 11
1169.8719000000001
 21
1183.2951
  0
LINE
  8
_0-0_
  6
CONTINUOUS
 62
    7
 10
1113.43741
 20
1140.0196000000001
 11
1120.3088699999998
 21
1150.8377
  0
LINE
  8
_0-0_
  6
CONTINUOUS
 62
    7
 10
515.84647999999993
 20
1023.25279
 11
1115.8464800000002
 21
1023.25279
  0
LINE
  8
_0-0_
  6
CONTINUOUS
 62
    7
 10
1109.8465000000001
 20
1143.2528
 11
1109.8465000000001
 21
1023.25279
  0
LINE
  8
_0-0_
  6
CONTINUOUS
 62
    7
 10
1115.8464800000002
 20
1137.2527
 11
1115.8464800000002
 21
1023.25279
  0
LINE
  8
_0-0_
  6
CONTINUOUS
 62
    7
 10
515.84647999999993
 20
1137.2527
 11
515.84647999999993
 21
1023.25279
  0
LINE
  8
_0-0_
  6
CONTINUOUS
 62
    7
 10
521.84649000000002
 20
1143.2528
 11
521.84649000000002
 21
1023.25279
  0
LINE
  8
_0-0_
  6
CONTINUOUS
 62
    7
 10
515.84647999999993
 20
1063.2528
 11
1115.8464800000002
 21
1063.2528
  0
LINE
  8
_0-0_
  6
CONTINUOUS
 62
    7
 10
515.84647999999993
 20
988.82618000000002
 11
585.84649999999999
 21
988.82618000000002
  0
LINE
  8
_0-0_
  6
CONTINUOUS
 62
    7
 10
515.84647999999993
 20
988.82618000000002
 11
515.84647999999993
 21
1014.2179599999999
  0
LINE
  8
_0-0_
  6
CONTINUOUS
 62
    7
 10
585.84649999999999
 20
988.82618000000002
 11
585.84649999999999
 21
1014.2179599999999
  0
LINE
  8
_0-0_
  6
CONTINUOUS
 62
    7
 10
585.84649999999999
 20
988.82618000000002
 11
1045.8465000000001
 21
988.82618000000002
  0
LINE
  8
_0-0_
  6
CONTINUOUS
 62
    7
 10
1045.8465000000001
 20
988.82618000000002
 11
1045.8465000000001
 21
1014.2179599999999
  0
LINE
  8
_0-0_
  6
CONTINUOUS
 62
    7
 10
1045.8465000000001
 20
988.82618000000002
 11
1115.8464800000002
 21
988.82618000000002
  0
LINE
  8
_0-0_
  6
CONTINUOUS
 62
    7
 10
1115.8464800000002
 20
988.82618000000002
 11
1115.8464800000002
 21
1014.2179599999999
  0
LINE
  8
_0-0_
  6
CONTINUOUS
 62
    7
 10
515.84647999999993
 20
964.45014000000003
 11
1115.8464800000002
 21
964.45014000000003
  0
LINE
  8
_0-0_
  6
CONTINUOUS
 62
    7
 10
515.84647999999993
 20
964.45014000000003
 11
515.84647999999993
 21
1014.2179599999999
  0
LINE
  8
_0-0_
  6
CONTINUOUS
 62
    7
 10
1115.8464800000002
 20
964.45014000000003
 11
1115.8464800000002
 21
1014.2179599999999
  0
LINE
  8
_0-0_
  6
CONTINUOUS
 62
    7
 10
580.34649999999999
 20
1123.2528
 11
580.34649999999999
 21
1063.2528
  0
LINE
  8
_0-0_
  6
CONTINUOUS
 62
    7
 10
591.34649000000002
 20
1123.2528
 11
591.34649000000002
 21
1063.2528
  0
LINE
  8
_0-0_
  6
CONTINUOUS
 62
    7
 10
1040.34647
 20
1123.2528
 11
1040.34647
 21
1063.2528
  0
LINE
  8
_0-0_
  6
CONTINUOUS
 62
    7
 10
1051.34647
 20
1123.2528
 11
1051.34647
 21
1063.2528
  0
LINE
  8
_0-0_
  6
CONTINUOUS
 62
    7
 10
1180.0309
 20
1143.2528
 11
1180.0309
 21
1023.25279
  0
LINE
  8
_0-0_
  6
CONTINUOUS
 62
    7
 10
1180.0309
 20
1143.2528
 11
1123.81565
 21
1143.2528
  0
LINE
  8
_0-0_
  6
CONTINUOUS
 62
    7
 10
1180.0309
 20
1023.25279
 11
1123.81565
 21
1023.25279
  0
LINE
  8
_0-0_
  6
CONTINUOUS
 62
    7
 10
580.34649999999999
 20
1056.5051100000001
 11
580.34649999999999
 21
1042.80629
  0
LINE
  8
_0-0_
  6
CONTINUOUS
 62
    7
 10
580.34649999999999
 20
1038.8108200000001
 11
580.34649999999999
 21
1023.25279
  0
LINE
  8
_0-0_
  6
CONTINUOUS
 62
    7
 10
591.34649000000002
 20
1056.9939300000001
 11
591.34649000000002
 21
1042.23551
  0
LINE
  8
_0-0_
  6
CONTINUOUS
 62
    7
 10
591.34649000000002
 20
1038.8108200000001
 11
591.34649000000002
 21
1023.25279
  0
LINE
  8
_0-0_
  6
CONTINUOUS
 62
    7
 10
1040.34647
 20
1057.8588
 11
1040.34647
 21
1044.51863
  0
LINE
  8
_0-0_
  6
CONTINUOUS
 62
    7
 10
1040.34647
 20
1039.3816000000002
 11
1040.34647
 21
1023.25279
  0
LINE
  8
_0-0_
  6
CONTINUOUS
 62
    7
 10
1051.34647
 20
1058.7236
 11
1051.34647
 21
1045.08942
  0
LINE
  8
_0-0_
  6
CONTINUOUS
 62
    7
 10
1051.34647
 20
1037.6691900000001
 11
1051.34647
 21
1023.25279
  0
LINE
  8
_0-0_
  6
CONTINUOUS
 62
    7
 10
714.33807000000002
 20
1120.5289
 11
714.33807000000002
 21
1112.529
  0
LINE
  8
_0-0_
  6
CONTINUOUS
 62
    7
 10
556.33806000000004
 20
1112.529
 11
714.33807000000002
 21
1112.529
  0
LINE
  8
_0-0_
  6
CONTINUOUS
 62
    7
 10
556.33806000000004
 20
1107.529
 11
714.33807000000002
 21
1107.529
  0
LINE
  8
_0-0_
  6
CONTINUOUS
 62
    7
 10
714.33807000000002
 20
1107.529
 11
714.33807000000002
 21
1099.529
  0
LINE
  8
_0-0_
  6
CONTINUOUS
 62
    7
 10
556.33806000000004
 20
1094.52901
 11
714.33807000000002
 21
1094.52901
  0
LINE
  8
_0-0_
  6
CONTINUOUS
 62
    7
 10
556.33806000000004
 20
1086.5289699999998
 11
714.33807000000002
 21
1086.5289699999998
  0
LINE
  8
_0-0_
  6
CONTINUOUS
 62
    7
 10
556.33806000000004
 20
1099.529
 11
714.33807000000002
 21
1099.529
  0
LINE
  8
_0-0_
  6
CONTINUOUS
 62
    7
 10
714.33807000000002
 20
1094.52901
 11
714.33807000000002
 21
1086.5289699999998
  0
LINE
  8
_0-0_
  6
CONTINUOUS
 62
    7
 10
556.33806000000004
 20
1094.52901
 11
556.33806000000004
 21
1086.5289699999998
  0
LINE
  8
_0-0_
  6
CONTINUOUS
 62
    7
 10
556.33806000000004
 20
1107.529
 11
556.33806000000004
 21
1099.529
  0
LINE
  8
_0-0_
  6
CONTINUOUS
 62
    7
 10
556.33806000000004
 20
1120.5289
 11
556.33806000000004
 21
1112.529
  0
LINE
  8
_0-0_
  6
CONTINUOUS
 62
    7
 10
556.33806000000004
 20
1120.5289
 11
714.33807000000002
 21
1120.5289
  0
LINE
  8
_0-0_
  6
CONTINUOUS
 62
    7
 10
556.33806000000004
 20
1081.5289499999999
 11
714.33807000000002
 21
1081.5289499999999
  0
LINE
  8
_0-0_
  6
CONTINUOUS
 62
    7
 10
556.33806000000004
 20
1073.52891
 11
714.33807000000002
 21
1073.52891
  0
LINE
  8
_0-0_
  6
CONTINUOUS
 62
    7
 10
556.33806000000004
 20
1081.5289499999999
 11
556.33806000000004
 21
1073.52891
  0
LINE
  8
_0-0_
  6
CONTINUOUS
 62
    7
 10
714.33807000000002
 20
1081.5289499999999
 11
714.33807000000002
 21
1073.52891
  0
LINE
  8
_0-0_
  6
CONTINUOUS
 62
    7
 10
916.34806000000003
 20
1120.5289
 11
1074.3481000000002
 21
1120.5289
  0
LINE
  8
_0-0_
  6
CONTINUOUS
 62
    7
 10
916.34806000000003
 20
1120.5289
 11
916.34806000000003
 21
1112.529
  0
LINE
  8
_0-0_
  6
CONTINUOUS
 62
    7
 10
916.34806000000003
 20
1112.529
 11
1074.3481000000002
 21
1112.529
  0
LINE
  8
_0-0_
  6
CONTINUOUS
 62
    7
 10
1074.3481000000002
 20
1120.5289
 11
1074.3481000000002
 21
1112.529
  0
LINE
  8
_0-0_
  6
CONTINUOUS
 62
    7
 10
1074.3481000000002
 20
1107.529
 11
1074.3481000000002
 21
1099.529
  0
LINE
  8
_0-0_
  6
CONTINUOUS
 62
    7
 10
916.34806000000003
 20
1107.529
 11
1074.3481000000002
 21
1107.529
  0
LINE
  8
_0-0_
  6
CONTINUOUS
 62
    7
 10
916.34806000000003
 20
1099.529
 11
1074.3481000000002
 21
1099.529
  0
LINE
  8
_0-0_
  6
CONTINUOUS
 62
    7
 10
916.34806000000003
 20
1086.5289699999998
 11
1074.3481000000002
 21
1086.5289699999998
  0
LINE
  8
_0-0_
  6
CONTINUOUS
 62
    7
 10
916.34806000000003
 20
1094.52901
 11
1074.3481000000002
 21
1094.52901
  0
LINE
  8
_0-0_
  6
CONTINUOUS
 62
    7
 10
1074.3481000000002
 20
1094.52901
 11
1074.3481000000002
 21
1086.5289699999998
  0
LINE
  8
_0-0_
  6
CONTINUOUS
 62
    7
 10
916.34806000000003
 20
1107.529
 11
916.34806000000003
 21
1099.529
  0
LINE
  8
_0-0_
  6
CONTINUOUS
 62
    7
 10
916.34806000000003
 20
1094.52901
 11
916.34806000000003
 21
1086.5289699999998
  0
LINE
  8
_0-0_
  6
CONTINUOUS
 62
    7
 10
916.34806000000003
 20
1081.5289499999999
 11
1074.3481000000002
 21
1081.5289499999999
  0
LINE
  8
_0-0_
  6
CONTINUOUS
 62
    7
 10
916.34806000000003
 20
1073.52891
 11
1074.3481000000002
 21
1073.52891
  0
LINE
  8
_0-0_
  6
CONTINUOUS
 62
    7
 10
916.34806000000003
 20
1081.5289499999999
 11
916.34806000000003
 21
1073.52891
  0
LINE
  8
_0-0_
  6
CONTINUOUS
 62
    7
 10
1074.3481000000002
 20
1081.5289499999999
 11
1074.3481000000002
 21
1073.52891
  0
LINE
  8
_0-0_
  6
CONTINUOUS
 62
    7
 10
725.02493000000004
 20
1074.5293099999999
 11
907.02495999999996
 21
1074.5293099999999
  0
LINE
  8
_0-0_
  6
CONTINUOUS
 62
    7
 10
725.02493000000004
 20
1124.5291999999999
 11
907.02495999999996
 21
1124.5291999999999
  0
LINE
  8
_0-0_
  6
CONTINUOUS
 62
    7
 10
725.02493000000004
 20
1124.5291999999999
 11
725.02493000000004
 21
1074.5293099999999
  0
LINE
  8
_0-0_
  6
CONTINUOUS
 62
    7
 10
907.02495999999996
 20
1124.5291999999999
 11
907.02495999999996
 21
1074.5293099999999
  0
LINE
  8
_0-0_
  6
CONTINUOUS
 62
    7
 10
725.02493000000004
 20
1124.5291999999999
 11
728.02494999999999
 21
1119.5291999999999
  0
LINE
  8
_0-0_
  6
CONTINUOUS
 62
    7
 10
907.02495999999996
 20
1124.5291999999999
 11
904.02494000000002
 21
1119.5291999999999
  0
LINE
  8
_0-0_
  6
CONTINUOUS
 62
    7
 10
728.02494999999999
 20
1119.5291999999999
 11
904.02494000000002
 21
1119.5291999999999
  0
LINE
  8
_0-0_
  6
CONTINUOUS
 62
    7
 10
728.02494999999999
 20
1119.5291999999999
 11
904.02494000000002
 21
1119.5291999999999
  0
LINE
  8
_0-0_
  6
CONTINUOUS
 62
    7
 10
728.02494999999999
 20
1119.5291999999999
 11
904.02494000000002
 21
1119.5291999999999
  0
LINE
  8
_0-0_
  6
CONTINUOUS
 62
    7
 10
728.02494999999999
 20
1119.5291999999999
 11
728.02494999999999
 21
1074.5293099999999
  0
LINE
  8
_0-0_
  6
CONTINUOUS
 62
    7
 10
904.02494000000002
 20
1119.5291999999999
 11
904.02494000000002
 21
1074.5293099999999
  0
LINE
  8
_0-0_
  6
CONTINUOUS
 62
    7
 10
582.15479000000005
 20
1128.3934999999999
 11
590.33681999999999
 21
1128.3934999999999
  0
LINE
  8
_0-0_
  6
CONTINUOUS
 62
    7
 10
1041.7130200000001
 20
1127.0297
 11
1049.2132299999998
 21
1127.0297
  0
LINE
  8
_0-0_
  6
CONTINUOUS
 62
    7
 10
515.84647999999993
 20
1093.2527700000001
 11
531.84649999999999
 21
1083.2528
  0
LINE
  8
_0-0_
  6
CONTINUOUS
 62
    7
 10
531.84649999999999
 20
1083.2528
 11
531.84649999999999
 21
1063.2528
  0
LINE
  8
_0-0_
  6
CONTINUOUS
 62
    7
 10
531.84649999999999
 20
1063.2528
 11
515.84647999999993
 21
1053.2528299999999
  0
LINE
  8
_0-0_
  6
CONTINUOUS
 62
    7
 10
1099.84653
 20
1083.2528
 11
1099.84653
 21
1063.2528
  0
LINE
  8
_0-0_
  6
CONTINUOUS
 62
    7
 10
1115.8464800000002
 20
1093.2527700000001
 11
1099.84653
 21
1083.2528
  0
LINE
  8
_0-0_
  6
CONTINUOUS
 62
    7
 10
1099.84653
 20
1063.2528
 11
1115.8464800000002
 21
1053.2528299999999
  0
LINE
  8
_0-0_
  6
CONTINUOUS
 62
    7
 10
515.68103999999994
 20
782.43056000000001
 11
585.68105000000003
 21
782.43056000000001
  0
LINE
  8
_0-0_
  6
CONTINUOUS
 62
    7
 10
515.68103999999994
 20
782.43056000000001
 11
515.68103999999994
 21
750.19304999999997
  0
LINE
  8
_0-0_
  6
CONTINUOUS
 62
    7
 10
585.68105000000003
 20
782.43056000000001
 11
1045.68102
 21
782.43056000000001
  0
LINE
  8
_0-0_
  6
CONTINUOUS
 62
    7
 10
1045.68102
 20
782.43056000000001
 11
1045.68102
 21
750.19304999999997
  0
LINE
  8
_0-0_
  6
CONTINUOUS
 62
    7
 10
1045.68102
 20
782.43056000000001
 11
1115.68101
 21
782.43056000000001
  0
LINE
  8
_0-0_
  6
CONTINUOUS
 62
    7
 10
1115.68101
 20
782.43056000000001
 11
1115.68101
 21
750.19304999999997
  0
LINE
  8
_0-0_
  6
CONTINUOUS
 62
    7
 10
515.68103999999994
 20
818.96641
 11
1115.68101
 21
818.96641
  0
LINE
  8
_0-0_
  6
CONTINUOUS
 62
    7
 10
515.68103999999994
 20
818.96641
 11
515.68103999999994
 21
750.19304999999997
  0
LINE
  8
_0-0_
  6
CONTINUOUS
 62
    7
 10
1115.68101
 20
818.96641
 11
1115.68101
 21
750.19304999999997
  0
LINE
  8
_0-0_
  6
CONTINUOUS
 62
    7
 10
521.68105000000003
 20
742.47613999999999
 11
515.68103999999994
 21
736.47616000000005
  0
LINE
  8
_0-0_
  6
CONTINUOUS
 62
    7
 10
1109.68102
 20
742.47613999999999
 11
521.68105000000003
 21
742.47613999999999
  0
LINE
  8
_0-0_
  6
CONTINUOUS
 62
    7
 10
1109.68102
 20
742.47613999999999
 11
1115.68101
 21
736.47616000000005
  0
LINE
  8
_0-0_
  6
CONTINUOUS
 62
    7
 10
521.68105000000003
 20
736.47616000000005
 11
1109.68102
 21
736.47616000000005
  0
LINE
  8
_0-0_
  6
CONTINUOUS
 62
    7
 10
521.68105000000003
 20
742.47613999999999
 11
521.68105000000003
 21
562.47613999999999
  0
LINE
  8
_0-0_
  6
CONTINUOUS
 62
    7
 10
1109.68102
 20
742.47613999999999
 11
1109.68102
 21
562.47613999999999
  0
LINE
  8
_0-0_
  6
CONTINUOUS
 62
    7
 10
1115.68101
 20
736.47616000000005
 11
1115.68101
 21
562.47613999999999
  0
LINE
  8
_0-0_
  6
CONTINUOUS
 62
    7
 10
1115.68101
 20
562.47613999999999
 11
515.68103999999994
 21
562.47613999999999
  0
LINE
  8
_0-0_
  6
CONTINUOUS
 62
    7
 10
1160.8081
 20
742.47613999999999
 11
1160.8081
 21
667.47613999999999
  0
LINE
  8
_0-0_
  6
CONTINUOUS
 62
    7
 10
1160.8081
 20
742.47613999999999
 11
1125.2149199999999
 21
742.47613999999999
  0
LINE
  8
_0-0_
  6
CONTINUOUS
 62
    7
 10
1160.8081
 20
667.47613999999999
 11
1125.2149199999999
 21
667.47613999999999
  0
LINE
  8
_0-0_
  6
CONTINUOUS
 62
    7
 10
1160.8081
 20
667.47613999999999
 11
1160.8081
 21
562.47613999999999
  0
LINE
  8
_0-0_
  6
CONTINUOUS
 62
    7
 10
1160.8081
 20
562.47613999999999
 11
1125.2149199999999
 21
562.47613999999999
  0
LINE
  8
_0-0_
  6
CONTINUOUS
 62
    7
 10
1179.8655000000001
 20
742.47613999999999
 11
1179.8655000000001
 21
562.47613999999999
  0
LINE
  8
_0-0_
  6
CONTINUOUS
 62
    7
 10
1179.8655000000001
 20
742.47613999999999
 11
1125.2149199999999
 21
742.47613999999999
  0
LINE
  8
_0-0_
  6
CONTINUOUS
 62
    7
 10
1179.8655000000001
 20
562.47613999999999
 11
1125.2149199999999
 21
562.47613999999999
  0
LINE
  8
_0-0_
  6
CONTINUOUS
 62
    7
 10
1115.68101
 20
642.47612000000004
 11
515.68103999999994
 21
642.47612000000004
  0
LINE
  8
_0-0_
  6
CONTINUOUS
 62
    7
 10
556.36419999999998
 20
621.79516000000001
 11
715.36419999999998
 21
621.79516000000001
  0
LINE
  8
_0-0_
  6
CONTINUOUS
 62
    7
 10
556.36419999999998
 20
571.79518000000007
 11
715.36419999999998
 21
571.79518000000007
  0
LINE
  8
_0-0_
  6
CONTINUOUS
 62
    7
 10
715.36419999999998
 20
621.79516000000001
 11
715.36419999999998
 21
613.79512
  0
LINE
  8
_0-0_
  6
CONTINUOUS
 62
    7
 10
715.36419999999998
 20
607.79513999999995
 11
715.36419999999998
 21
599.79516000000001
  0
LINE
  8
_0-0_
  6
CONTINUOUS
 62
    7
 10
715.36419999999998
 20
593.79518000000007
 11
715.36419999999998
 21
585.79513999999995
  0
LINE
  8
_0-0_
  6
CONTINUOUS
 62
    7
 10
715.36419999999998
 20
579.79516000000001
 11
715.36419999999998
 21
571.79518000000007
  0
LINE
  8
_0-0_
  6
CONTINUOUS
 62
    7
 10
556.36419999999998
 20
607.79513999999995
 11
715.36419999999998
 21
607.79513999999995
  0
LINE
  8
_0-0_
  6
CONTINUOUS
 62
    7
 10
556.36419999999998
 20
599.79516000000001
 11
715.36419999999998
 21
599.79516000000001
  0
LINE
  8
_0-0_
  6
CONTINUOUS
 62
    7
 10
556.36419999999998
 20
593.79518000000007
 11
715.36419999999998
 21
593.79518000000007
  0
LINE
  8
_0-0_
  6
CONTINUOUS
 62
    7
 10
556.36419999999998
 20
585.79513999999995
 11
715.36419999999998
 21
585.79513999999995
  0
LINE
  8
_0-0_
  6
CONTINUOUS
 62
    7
 10
556.36419999999998
 20
579.79516000000001
 11
715.36419999999998
 21
579.79516000000001
  0
LINE
  8
_0-0_
  6
CONTINUOUS
 62
    7
 10
556.36419999999998
 20
607.79513999999995
 11
556.36419999999998
 21
599.79516000000001
  0
LINE
  8
_0-0_
  6
CONTINUOUS
 62
    7
 10
556.36419999999998
 20
593.79518000000007
 11
556.36419999999998
 21
585.79513999999995
  0
LINE
  8
_0-0_
  6
CONTINUOUS
 62
    7
 10
556.36419999999998
 20
579.79516000000001
 11
556.36419999999998
 21
571.79518000000007
  0
LINE
  8
_0-0_
  6
CONTINUOUS
 62
    7
 10
556.36419999999998
 20
607.79513999999995
 11
715.36419999999998
 21
607.79513999999995
  0
LINE
  8
_0-0_
  6
CONTINUOUS
 62
    7
 10
556.36419999999998
 20
607.79513999999995
 11
715.36419999999998
 21
607.79513999999995
  0
LINE
  8
_0-0_
  6
CONTINUOUS
 62
    7
 10
556.36419999999998
 20
613.79512
 11
715.36419999999998
 21
613.79512
  0
LINE
  8
_0-0_
  6
CONTINUOUS
 62
    7
 10
556.36419999999998
 20
621.79516000000001
 11
556.36419999999998
 21
613.79512
  0
LINE
  8
_0-0_
  6
CONTINUOUS
 62
    7
 10
917.36416999999994
 20
621.79516000000001
 11
917.36416999999994
 21
613.79512
  0
LINE
  8
_0-0_
  6
CONTINUOUS
 62
    7
 10
917.36416999999994
 20
607.79513999999995
 11
917.36416999999994
 21
599.79516000000001
  0
LINE
  8
_0-0_
  6
CONTINUOUS
 62
    7
 10
917.36416999999994
 20
593.79518000000007
 11
917.36416999999994
 21
585.79513999999995
  0
LINE
  8
_0-0_
  6
CONTINUOUS
 62
    7
 10
917.36416999999994
 20
579.79516000000001
 11
917.36416999999994
 21
571.79518000000007
  0
LINE
  8
_0-0_
  6
CONTINUOUS
 62
    7
 10
1076.36418
 20
607.79513999999995
 11
1076.36418
 21
599.79516000000001
  0
LINE
  8
_0-0_
  6
CONTINUOUS
 62
    7
 10
1076.36418
 20
593.79518000000007
 11
1076.36418
 21
585.79513999999995
  0
LINE
  8
_0-0_
  6
CONTINUOUS
 62
    7
 10
1076.36418
 20
579.79516000000001
 11
1076.36418
 21
571.79518000000007
  0
LINE
  8
_0-0_
  6
CONTINUOUS
 62
    7
 10
917.36416999999994
 20
607.79513999999995
 11
1076.36418
 21
607.79513999999995
  0
LINE
  8
_0-0_
  6
CONTINUOUS
 62
    7
 10
917.36416999999994
 20
599.79516000000001
 11
1076.36418
 21
599.79516000000001
  0
LINE
  8
_0-0_
  6
CONTINUOUS
 62
    7
 10
917.36416999999994
 20
593.79518000000007
 11
1076.36418
 21
593.79518000000007
  0
LINE
  8
_0-0_
  6
CONTINUOUS
 62
    7
 10
917.36416999999994
 20
585.79513999999995
 11
1076.36418
 21
585.79513999999995
  0
LINE
  8
_0-0_
  6
CONTINUOUS
 62
    7
 10
917.36416999999994
 20
579.79516000000001
 11
1076.36418
 21
579.79516000000001
  0
LINE
  8
_0-0_
  6
CONTINUOUS
 62
    7
 10
917.36416999999994
 20
571.79518000000007
 11
1076.36418
 21
571.79518000000007
  0
LINE
  8
_0-0_
  6
CONTINUOUS
 62
    7
 10
917.36416999999994
 20
607.79513999999995
 11
1076.36418
 21
607.79513999999995
  0
LINE
  8
_0-0_
  6
CONTINUOUS
 62
    7
 10
917.36416999999994
 20
607.79513999999995
 11
1076.36418
 21
607.79513999999995
  0
LINE
  8
_0-0_
  6
CONTINUOUS
 62
    7
 10
917.36416999999994
 20
621.79516000000001
 11
1076.36418
 21
621.79516000000001
  0
LINE
  8
_0-0_
  6
CONTINUOUS
 62
    7
 10
917.36416999999994
 20
613.79512
 11
1076.36418
 21
613.79512
  0
LINE
  8
_0-0_
  6
CONTINUOUS
 62
    7
 10
1076.36418
 20
621.79516000000001
 11
1076.36418
 21
613.79512
  0
LINE
  8
_0-0_
  6
CONTINUOUS
 62
    7
 10
725.18254999999999
 20
626.59592999999995
 11
725.18254999999999
 21
571.59595999999999
  0
LINE
  8
_0-0_
  6
CONTINUOUS
 62
    7
 10
725.18254999999999
 20
626.59592999999995
 11
907.18258000000003
 21
626.59592999999995
  0
LINE
  8
_0-0_
  6
CONTINUOUS
 62
    7
 10
725.18254999999999
 20
571.59595999999999
 11
907.18258000000003
 21
571.59595999999999
  0
LINE
  8
_0-0_
  6
CONTINUOUS
 62
    7
 10
907.18258000000003
 20
626.59592999999995
 11
907.18258000000003
 21
571.59595999999999
  0
LINE
  8
_0-0_
  6
CONTINUOUS
 62
    7
 10
904.18255999999997
 20
626.59592999999995
 11
904.18255999999997
 21
576.59598000000005
  0
LINE
  8
_0-0_
  6
CONTINUOUS
 62
    7
 10
728.18257000000006
 20
626.59592999999995
 11
728.18257000000006
 21
576.59598000000005
  0
LINE
  8
_0-0_
  6
CONTINUOUS
 62
    7
 10
728.18257000000006
 20
576.59598000000005
 11
725.18254999999999
 21
571.59595999999999
  0
LINE
  8
_0-0_
  6
CONTINUOUS
 62
    7
 10
904.18255999999997
 20
576.59598000000005
 11
907.18258000000003
 21
571.59595999999999
  0
LINE
  8
_0-0_
  6
CONTINUOUS
 62
    7
 10
725.18254999999999
 20
626.59592999999995
 11
907.18258000000003
 21
626.59592999999995
  0
LINE
  8
_0-0_
  6
CONTINUOUS
 62
    7
 10
728.18257000000006
 20
576.59598000000005
 11
904.18255999999997
 21
576.59598000000005
  0
LINE
  8
_0-0_
  6
CONTINUOUS
 62
    7
 10
728.18257000000006
 20
576.59598000000005
 11
904.18255999999997
 21
576.59598000000005
  0
LINE
  8
_0-0_
  6
CONTINUOUS
 62
    7
 10
557.68103999999994
 20
629.47613000000001
 11
613.68106
 21
629.47613000000001
  0
LINE
  8
_0-0_
  6
CONTINUOUS
 62
    7
 10
557.68103999999994
 20
664.47612000000004
 11
557.68103999999994
 21
629.47613000000001
  0
LINE
  8
_0-0_
  6
CONTINUOUS
 62
    7
 10
613.68106
 20
664.47612000000004
 11
613.68106
 21
629.47613000000001
  0
LINE
  8
_0-0_
  6
CONTINUOUS
 62
    7
 10
1017.6810400000001
 20
629.47613000000001
 11
1073.6810599999999
 21
629.47613000000001
  0
LINE
  8
_0-0_
  6
CONTINUOUS
 62
    7
 10
1017.6810400000001
 20
664.47612000000004
 11
1017.6810400000001
 21
629.47613000000001
  0
LINE
  8
_0-0_
  6
CONTINUOUS
 62
    7
 10
1073.6810599999999
 20
664.47612000000004
 11
1073.6810599999999
 21
629.47613000000001
  0
LINE
  8
_0-0_
  6
CONTINUOUS
 62
    7
 10
1045.68102
 20
742.47613999999999
 11
1045.68102
 21
670.04233999999997
  0
LINE
  8
_0-0_
  6
CONTINUOUS
 62
    7
 10
1045.68102
 20
670.04233999999997
 11
1045.68102
 21
667.47613999999999
  0
LINE
  8
_0-0_
  6
CONTINUOUS
 62
    7
 10
515.68103999999994
 20
736.47616000000005
 11
515.68103999999994
 21
667.07306000000005
  0
LINE
  8
_0-0_
  6
CONTINUOUS
 62
    7
 10
515.68103999999994
 20
667.07306000000005
 11
515.68103999999994
 21
562.47613999999999
  0
LINE
  8
_0-0_
  6
CONTINUOUS
 62
    7
 10
1115.68101
 20
667.47613999999999
 11
1045.68102
 21
667.47613999999999
  0
LINE
  8
_0-0_
  6
CONTINUOUS
 62
    7
 10
515.68103999999994
 20
642.47612000000004
 11
530.68101999999999
 21
647.47613999999999
  0
LINE
  8
_0-0_
  6
CONTINUOUS
 62
    7
 10
515.68103999999994
 20
702.47613000000001
 11
530.68101999999999
 21
697.47612000000004
  0
LINE
  8
_0-0_
  6
CONTINUOUS
 62
    7
 10
530.68101999999999
 20
697.47612000000004
 11
530.68101999999999
 21
647.47613999999999
  0
LINE
  8
_0-0_
  6
CONTINUOUS
 62
    7
 10
1115.68101
 20
702.47613000000001
 11
1100.68102
 21
697.47612000000004
  0
LINE
  8
_0-0_
  6
CONTINUOUS
 62
    7
 10
1100.68102
 20
647.47613999999999
 11
1115.68101
 21
642.47612000000004
  0
LINE
  8
_0-0_
  6
CONTINUOUS
 62
    7
 10
1100.68102
 20
697.47612000000004
 11
1100.68102
 21
647.47613999999999
  0
LINE
  8
_0-0_
  6
CONTINUOUS
 62
    7
 10
1113.0421799999999
 20
739.12531000000001
 11
1172.5658000000001
 21
780.04777999999999
  0
LINE
  8
_0-0_
  6
CONTINUOUS
 62
    7
 10
1113.0421799999999
 20
739.12531000000001
 11
1122.60852
 21
753.47478000000001
  0
LINE
  8
_0-0_
  6
CONTINUOUS
 62
    7
 10
1474.9826
 20
704.45601999999997
 11
1474.9826
 21
719.71835999999996
  0
LINE
  8
_0-0_
  6
CONTINUOUS
 62
    7
 10
1470.9826
 20
817.81741999999997
 11
1470.9826
 21
725.83723999999995
  0
LINE
  8
_0-0_
  6
CONTINUOUS
 62
    7
 10
1478.9826
 20
817.81741999999997
 11
1478.9826
 21
725.83723999999995
  0
LINE
  8
_0-0_
  6
CONTINUOUS
 62
    7
 10
1392.2470000000001
 20
780.25482
 11
1385.22
 21
780.25482
  0
LINE
  8
_0-0_
  6
CONTINUOUS
 62
    7
 10
1405.0083
 20
793.17749000000003
 11
1397.9811999999999
 21
793.17749000000003
  0
LINE
  8
_0-0_
  6
CONTINUOUS
 62
    7
 10
1418.8040000000001
 20
807.14793999999995
 11
1411.777
 21
807.14793999999995
  0
LINE
  8
_0-0_
  6
CONTINUOUS
 62
    7
 10
1430.5304000000001
 20
819.02288999999996
 11
1423.5035
 21
819.02288999999996
  0
LINE
  8
_0-0_
  6
CONTINUOUS
 62
    7
 10
1430.5304000000001
 20
826.13882000000001
 11
1430.5304000000001
 21
819.02288999999996
  0
LINE
  8
_0-0_
  6
CONTINUOUS
 62
    7
 10
1418.8040000000001
 20
814.26394000000005
 11
1418.8040000000001
 21
807.14793999999995
  0
LINE
  8
_0-0_
  6
CONTINUOUS
 62
    7
 10
1405.0083
 20
800.21628999999996
 11
1405.0083
 21
793.17749000000003
  0
LINE
  8
_0-0_
  6
CONTINUOUS
 62
    7
 10
1392.2470000000001
 20
787.37081999999998
 11
1392.2470000000001
 21
780.25482
  0
LINE
  8
_0-0_
  6
CONTINUOUS
 62
    7
 10
1462.5965000000001
 20
827.81739000000005
 11
1468.9826
 21
817.81741999999997
  0
LINE
  8
_0-0_
  6
CONTINUOUS
 62
    7
 10
1481.0047
 20
817.81741999999997
 11
1468.9826
 21
817.81741999999997
  0
LINE
  8
_0-0_
  6
CONTINUOUS
 62
    7
 10
1487.3687
 20
827.81739000000005
 11
1480.9827
 21
817.81741999999997
  0
LINE
  8
_0-0_
  6
CONTINUOUS
 62
    7
 10
1500.1956
 20
845.83720000000005
 11
1494.6511
 21
827.81739000000005
  0
LINE
  8
_0-0_
  6
CONTINUOUS
 62
    7
 10
1494.6511
 20
827.81739000000005
 11
1433.9331999999999
 21
827.81739000000005
  0
ARC
  8
_0-0_
  6
CONTINUOUS
 62
    7
 10
1525.7986000000001
 20
825.83720000000005
 40
20
 50
2.3859404999999998
 51
89.999983999999984
  0
ARC
  8
_0-0_
  6
CONTINUOUS
 62
    7
 10
1521.0026
 20
820.83723999999995
 40
20
 50
2.3859404999999998
 51
89.999999999999986
  0
ARC
  8
_0-0_
  6
CONTINUOUS
 62
    7
 10
1454.1617000000001
 20
835.83722999999998
 40
10
 50
90
 51
135.36033
  0
ARC
  8
_0-0_
  6
CONTINUOUS
 62
    7
 10
1380.8805
 20
761.62847999999997
 40
10
 50
135.36033
 51
178.56790000000004
  0
ARC
  8
_0-0_
  6
CONTINUOUS
 62
    7
 10
1456.2511999999999
 20
830.83721000000003
 40
10
 50
90
 51
135.36033
  0
ARC
  8
_0-0_
  6
CONTINUOUS
 62
    7
 10
1385.8296
 20
759.52413000000001
 40
10
 50
135.36033
 51
178.56790000000004
  0
ARC
  8
_0-0_
  6
CONTINUOUS
 62
    7
 10
1454.9478999999999
 20
790.83726999999999
 40
5
 50
90
 51
180
  0
ARC
  8
_0-0_
  6
CONTINUOUS
 62
    7
 10
1459.9478999999999
 20
785.83725000000004
 40
5
 50
90
 51
180
  0
ARC
  8
_0-0_
  6
CONTINUOUS
 62
    7
 10
1504.9480000000001
 20
790.83726999999999
 40
5
 50
0
 51
90
  0
ARC
  8
_0-0_
  6
CONTINUOUS
 62
    7
 10
1454.9478999999999
 20
760.83722999999998
 40
5
 50
180
 51
270
  0
ARC
  8
_0-0_
  6
CONTINUOUS
 62
    7
 10
1459.9478999999999
 20
765.83723999999995
 40
5
 50
180
 51
270
  0
ARC
  8
_0-0_
  6
CONTINUOUS
 62
    7
 10
1499.9480000000001
 20
765.83723999999995
 40
5
 50
270
 51
0
  0
ARC
  8
_0-0_
  6
CONTINUOUS
 62
    7
 10
1504.9480000000001
 20
760.83722999999998
 40
5
 50
270
 51
0
  0
ARC
  8
_0-0_
  6
CONTINUOUS
 62
    7
 10
1499.9480000000001
 20
785.83725000000004
 40
5
 50
0
 51
90
  0
ARC
  8
_0-0_
  6
CONTINUOUS
 62
    7
 10
575.34651000000008
 20
1123.2528
 40
5
 50
0
 51
90
  0
ARC
  8
_0-0_
  6
CONTINUOUS
 62
    7
 10
596.34647999999993
 20
1123.2528
 40
5
 50
90
 51
180
  0
ARC
  8
_0-0_
  6
CONTINUOUS
 62
    7
 10
1035.34645
 20
1123.2528
 40
5
 50
0
 51
90
  0
ARC
  8
_0-0_
  6
CONTINUOUS
 62
    7
 10
1056.3464800000002
 20
1123.2528
 40
5
 50
90
 51
180
  0
CIRCLE
  8
_0-0_
  6
CONTINUOUS
 62
    7
 10
585.68105000000003
 20
667.47613999999999
 40
10
  0
CIRCLE
  8
_0-0_
  6
CONTINUOUS
 62
    7
 10
585.68105000000003
 20
667.47613999999999
 40
15
  0
CIRCLE
  8
_0-0_
  6
CONTINUOUS
 62
    7
 10
585.68105000000003
 20
667.47613999999999
 40
20
  0
ARC
  8
_0-0_
  6
CONTINUOUS
 62
    7
 10
583.68106
 20
664.47612000000004
 40
30
 50
0
 51
86.177443999999994
  0
ARC
  8
_0-0_
  6
CONTINUOUS
 62
    7
 10
587.68105000000003
 20
664.47612000000004
 40
30
 50
93.822539999999989
 51
180
  0
CIRCLE
  8
_0-0_
  6
CONTINUOUS
 62
    7
 10
1045.68102
 20
667.47613999999999
 40
10
  0
CIRCLE
  8
_0-0_
  6
CONTINUOUS
 62
    7
 10
1045.68102
 20
667.47613999999999
 40
15
  0
CIRCLE
  8
_0-0_
  6
CONTINUOUS
 62
    7
 10
1045.68102
 20
667.47613999999999
 40
20
  0
ARC
  8
_0-0_
  6
CONTINUOUS
 62
    7
 10
1043.68103
 20
664.47612000000004
 40
30
 50
0
 51
86.177443999999994
  0
ARC
  8
_0-0_
  6
CONTINUOUS
 62
    7
 10
1047.68102
 20
664.47612000000004
 40
30
 50
93.822539999999989
 51
180
  0
POINT
  8
_0-0_
 62
    7
 10
1338.2882
 20
845.83720000000005
  0
POINT
  8
_0-0_
 62
    7
 10
1338.2882
 20
765.83723999999995
  0
POINT
  8
_0-0_
 62
    7
 10
1338.2882
 20
725.83723999999995
  0
POINT
  8
_0-0_
 62
    7
 10
1369.9827
 20
704.45601999999997
  0
POINT
  8
_0-0_
 62
    7
 10
1474.9826
 20
704.45601999999997
  0
POINT
  8
_0-0_
 62
    7
 10
1549.9826
 20
704.45601999999997
  0
POINT
  8
_0-0_
 62
    7
 10
1369.9827
 20
681.58948999999996
  0
POINT
  8
_0-0_
 62
    7
 10
1549.9826
 20
681.58948999999996
  0
POINT
  8
_0-0_
 62
    7
 10
1369.9827
 20
892.07925
  0
POINT
  8
_0-0_
 62
    7
 10
1449.9827
 20
892.07925
  0
POINT
  8
_0-0_
 62
    7
 10
1549.9826
 20
892.07925
  0
POINT
  8
_0-0_
 62
    7
 10
1369.9827
 20
870.38526999999999
  0
POINT
  8
_0-0_
 62
    7
 10
1372.9826
 20
870.38526999999999
  0
POINT
  8
_0-0_
 62
    7
 10
1544.9826
 20
870.38526999999999
  0
POINT
  8
_0-0_
 62
    7
 10
1549.9826
 20
870.38526999999999
  0
POINT
  8
_0-0_
 62
    7
 10
1603.8922
 20
725.83723999999995
  0
POINT
  8
_0-0_
 62
    7
 10
1603.8922
 20
845.83720000000005
  0
POINT
  8
_0-0_
 62
    7
 10
724.84646999999995
 20
1183.2951
  0
POINT
  8
_0-0_
 62
    7
 10
906.84649999999999
 20
1183.2951
  0
POINT
  8
_0-0_
 62
    7
 10
515.84647999999993
 20
988.82618000000002
  0
POINT
  8
_0-0_
 62
    7
 10
585.84649999999999
 20
988.82618000000002
  0
POINT
  8
_0-0_
 62
    7
 10
1045.8465000000001
 20
988.82618000000002
  0
POINT
  8
_0-0_
 62
    7
 10
1115.8464800000002
 20
988.82618000000002
  0
POINT
  8
_0-0_
 62
    7
 10
515.84647999999993
 20
964.45014000000003
  0
POINT
  8
_0-0_
 62
    7
 10
1115.8464800000002
 20
964.45014000000003
  0
POINT
  8
_0-0_
 62
    7
 10
1180.0309
 20
1143.2528
  0
POINT
  8
_0-0_
 62
    7
 10
1180.0309
 20
1023.25279
  0
POINT
  8
_0-0_
 62
    7
 10
515.68103999999994
 20
782.43056000000001
  0
POINT
  8
_0-0_
 62
    7
 10
585.68105000000003
 20
782.43056000000001
  0
POINT
  8
_0-0_
 62
    7
 10
1045.68102
 20
782.43056000000001
  0
POINT
  8
_0-0_
 62
    7
 10
1115.68101
 20
782.43056000000001
  0
POINT
  8
_0-0_
 62
    7
 10
515.68103999999994
 20
818.96641
  0
POINT
  8
_0-0_
 62
    7
 10
1115.68101
 20
818.96641
  0
POINT
  8
_0-0_
 62
    7
 10
1160.8081
 20
742.47613999999999
  0
POINT
  8
_0-0_
 62
    7
 10
1160.8081
 20
667.47613999999999
  0
POINT
  8
_0-0_
 62
    7
 10
1160.8081
 20
562.47613999999999
  0
POINT
  8
_0-0_
 62
    7
 10
1179.8655000000001
 20
742.47613999999999
  0
POINT
  8
_0-0_
 62
    7
 10
1179.8655000000001
 20
562.47613999999999
  0
LINE
  8
_0-0_
  6
CONTINUOUS
 62
    7
 10
585.68105000000003
 20
782.43056000000001
 11
585.68105000000003
 21
750.19304999999997
  0
LINE
  8
_0-0_
  6
CONTINUOUS
 62
    7
 10
370.09744999999998
 20
1360.0211999999999
 11
370.09744999999998
 21
360.02118000000002
  0
LINE
  8
_0-0_
  6
CONTINUOUS
 62
    7
 10
1770.0974000000001
 20
1360.0211999999999
 11
370.09744999999998
 21
1360.0211999999999
  0
LINE
  8
_0-0_
  6
CONTINUOUS
 62
    7
 10
1770.0974000000001
 20
360.02118000000002
 11
1770.0974000000001
 21
1360.0211999999999
  0
LINE
  8
_0-0_
  6
CONTINUOUS
 62
    7
 10
370.09744999999998
 20
410.02118999999999
 11
1770.0974000000001
 21
410.02118999999999
  0
LINE
  8
_0-0_
  6
CONTINUOUS
 62
    7
 10
370.09744999999998
 20
360.02118000000002
 11
1770.0974000000001
 21
360.02118000000002
  0
LINE
  8
_0-0_
  6
CONTINUOUS
 62
    7
 10
1417.0842
 20
410.02118999999999
 11
1417.0842
 21
360.02118000000002
  0
LINE
  8
_0-0_
  6
CONTINUOUS
 62
    7
 10
1324.4861000000001
 20
410.02118999999999
 11
1324.4861000000001
 21
360.02118000000002
  0
LINE
  8
_0-0_
  6
CONTINUOUS
 62
    7
 10
1213.0546999999999
 20
410.02118999999999
 11
1213.0546999999999
 21
360.02118000000002
  0
LINE
  8
_0-0_
  6
CONTINUOUS
 62
    7
 10
1112.6094699999999
 20
410.02118999999999
 11
1112.6094699999999
 21
360.02118000000002
  0
LINE
  8
_0-0_
  6
CONTINUOUS
 62
    7
 10
1035.70604
 20
410.02118999999999
 11
1035.70604
 21
360.02118000000002
  0
LINE
  8
_0-0_
  6
CONTINUOUS
 62
    7
 10
938.39971000000003
 20
410.02118999999999
 11
938.39971000000003
 21
360.02118000000002
  0
LINE
  8
_0-0_
  6
CONTINUOUS
 62
    7
 10
856.78794000000005
 20
410.02118999999999
 11
856.78794000000005
 21
360.02118000000002
  0
LINE
  8
_0-0_
  6
CONTINUOUS
 62
    7
 10
459.71519000000001
 20
410.02118999999999
 11
459.71519000000001
 21
360.02118000000002
  0
ENDSEC
  0
EOF
