  0
SECTION
  2
HEADER
  9
$ACADVER
  1
AC1009
  9
$INSBASE
 10
0
 20
0
 30
0
  9
$EXTMIN
 10
0
 20
0
  9
$EXTMAX
 10
2376
 20
1680
  9
$LIMMIN
 10
0
 20
0
  9
$LIMMAX
 10
2376
 20
1680
  9
$LTSCALE
 40
4
  0
ENDSEC
  0
SECTION
  2
TABLES
  0
TABLE
  2
LTYPE
 70
     9
  0
LTYPE
  2
CONTINUOUS
 70
    64
  3
実線
 72
    65
 73
     0
 40
0.0
  0
LTYPE
  2
DASHED1
 70
    64
  3
--  --  --  --  --  --  --  --  
 72
    65
 73
     2
 40
2.5
 49
1.25
 49
-1.25
  0
LTYPE
  2
DASHED2
 70
    64
  3
----    ----    ----    ----    
 72
    65
 73
     2
 40
5.0
 49
2.5
 49
-2.5
  0
LTYPE
  2
DASHED3
 70
    64
  3
------  ------  ------  ------  
 72
    65
 73
     2
 40
5.0
 49
3.75
 49
-1.25
  0
LTYPE
  2
CENTER1
 70
    64
  3
----- - ----- - ----- - ----- - 
 72
    65
 73
     4
 40
10.0
 49
6.25
 49
-1.25
 49
1.25
 49
-1.25
  0
LTYPE
  2
CENTER2
 70
    64
  3
----------  --  ----------  --  
 72
    65
 73
     4
 40
20.0
 49
12.5
 49
-2.5
 49
2.5
 49
-2.5
  0
LTYPE
  2
PHANTOM1
 70
    64
  3
--- - - --- - - --- - - --- - - 
 72
    65
 73
     6
 40
10.0
 49
3.25
 49
-1.25
 49
1.25
 49
-1.25
 49
1.25
 49
-1.25
  0
LTYPE
  2
PHANTOM2
 70
    64
  3
--------  -  -  --------  -  -  
 72
    65
 73
     6
 40
20.0
 49
10.0
 49
-2.5
 49
1.25
 49
-2.5
 49
1.25
 49
-2.5
  0
LTYPE
  2
DOT
 70
    64
  3
-   -   -   -   -   -   -   -   
 72
    65
 73
     2
 40
2.5
 49
0.625
 49
-1.875
  0
LTYPE
  2
DUMMY
 70
    64
  3
ダミー
 72
    65
 73
     0
 40
0.0
  0
LTYPE
  2
RAND1
 70
    64
  3
ランダム線1
 72
    65
 73
     4
 40
10.0
 49
1.0
 49
-2.0
 49
3.0
 49
-4.0
  0
LTYPE
  2
RAND2
 70
    64
  3
ランダム線2
 72
    65
 73
     4
 40
14.0
 49
2.0
 49
-3.0
 49
4.0
 49
-5.0
  0
LTYPE
  2
RAND3
 70
    64
  3
ランダム線3
 72
    65
 73
     4
 40
18.0
 49
3.0
 49
-4.0
 49
5.0
 49
-6.0
  0
LTYPE
  2
RAND4
 70
    64
  3
ランダム線4
 72
    65
 73
     4
 40
22.0
 49
4.0
 49
-5.0
 49
6.0
 49
-7.0
  0
LTYPE
  2
RAND5
 70
    64
  3
ランダム線5
 72
    65
 73
     4
 40
26.0
 49
5.0
 49
-6.0
 49
7.0
 49
-8.0
  0
LTYPE
  2
LONG1
 70
    64
  3
----------  --  ----------  --  
 72
    65
 73
     4
 40
40.0
 49
32.5
 49
-2.5
 49
2.5
 49
-2.5
  0
LTYPE
  2
LONG2
 70
    64
  3
--------  -  -  --------  -  -  
 72
    65
 73
     6
 40
40.0
 49
30.0
 49
-2.5
 49
1.25
 49
-2.5
 49
1.25
 49
-2.5
  0
LTYPE
  2
LONG3
 70
    64
  3
+++++++++++++++..+++++++++++++++
 72
    65
 73
     2
 40
40.0
 49
37.5
 49
-2.5
  0
LTYPE
  2
LONG4
 70
    64
  3
+++++++++++++++..+++++++++++++++
 72
    65
 73
     2
 40
80.0
 49
75.0
 49
-5.0
  0
LTYPE
  2
LONG5
 70
    64
  3
----------  --  ----------  --  
 72
    65
 73
     4
 40
60.0
 49
37.5
 49
-7.5
 49
7.5
 49
-7.5
  0
LTYPE
  2
dashed
 70
   64
  3
-------   -------------   ------
 72
   65
 73
    2
 40
7.5
 49
6
 49
-1.5
  0
LTYPE
  2
dashed_spaced
 70
   64
  3
----        --------        ----
 72
   65
 73
    2
 40
12
 49
6
 49
-6
  0
LTYPE
  2
long_dashed_dotted
 70
   64
  3
------------- --- --------------
 72
   65
 73
    4
 40
15.25
 49
12
 49
-1.5
 49
0.25
 49
-1.5
  0
LTYPE
  2
long_dashed_double-dotted
 70
   64
  3
----------- --- --- ------------
 72
   65
 73
    6
 40
17
 49
12
 49
-1.5
 49
0.25
 49
-1.5
 49
0.25
 49
-1.5
  0
LTYPE
  2
long_dashed_triplicate-dotted
 70
   64
  3
--------- --- --- --- ----------
 72
   65
 73
    8
 40
18.75
 49
12
 49
-1.5
 49
0.25
 49
-1.5
 49
0.25
 49
-1.5
 49
0.25
 49
-1.5
  0
LTYPE
  2
dotted
 70
   64
  3
   -       -       -       -    
 72
   65
 73
    2
 40
1.75
 49
0.25
 49
-1.5
  0
LTYPE
  2
chain
 70
   64
  3
-------------- -- --------------
 72
   65
 73
    4
 40
18.5
 49
12
 49
-1.5
 49
3.5
 49
-1.5
  0
LTYPE
  2
chain_double_dash
 70
   64
  3
------------ -- -- -------------
 72
   65
 73
    6
 40
23.5
 49
12
 49
-1.5
 49
3.5
 49
-1.5
 49
3.5
 49
-1.5
  0
LTYPE
  2
dashed_dotted
 70
   64
  3
-----------     -     ----------
 72
   65
 73
    4
 40
9.25
 49
6
 49
-1.5
 49
0.25
 49
-1.5
  0
LTYPE
  2
double-dashed_dotted
 70
   64
  3
------   -----------   -   -----
 72
   65
 73
    6
 40
16.75
 49
6
 49
-1.5
 49
6
 49
-1.5
 49
0.25
 49
-1.5
  0
LTYPE
  2
dashed_double-dotted
 70
   64
  3
---------    -    -    ---------
 72
   65
 73
    6
 40
11
 49
6
 49
-1.5
 49
0.25
 49
-1.5
 49
0.25
 49
-1.5
  0
LTYPE
  2
double-dashed_double-dotted
 70
   64
  3
-----   ---------   -   -   ----
 72
   65
 73
    8
 40
18.5
 49
6
 49
-1.5
 49
6
 49
-1.5
 49
0.25
 49
-1.5
 49
0.25
 49
-1.5
  0
LTYPE
  2
dashed_triplicate-dotted
 70
   64
  3
-------    -    -    -    ------
 72
   65
 73
    8
 40
12.75
 49
6
 49
-1.5
 49
0.25
 49
-1.5
 49
0.25
 49
-1.5
 49
0.25
 49
-1.5
  0
LTYPE
  2
double-dashed_triplicate-dotted
 70
   64
  3
-----  ---------  -  -  -  -----
 72
   65
 73
   10
 40
20.25
 49
6
 49
-1.5
 49
6
 49
-1.5
 49
0.25
 49
-1.5
 49
0.25
 49
-1.5
 49
0.25
 49
-1.5
  0
LTYPE
  2
undefined
 70
   64
  3
--------------------------------
 72
   65
 73
    0
 40
0
  0
ENDTAB
  0
TABLE
  2
STYLE
  5
3
100
AcDbSymbolTable
 70
     1
  0
STYLE
  5
10
100
AcDbSymbolTableRecord
100
AcDbTextStyleTableRecord
  2
STANDARD
 70
     0
 40
0.0
 41
1.0
 50
0.0
 71
     0
 42
0.2
  3
txt
  4
bigfont.shx
  0
STYLE
  5
26
100
AcDbSymbolTableRecord
100
AcDbTextStyleTableRecord
  2
TATEGAKI
 70
    68
 40
0.0
 41
1.0
 50
0.0
 71
     0
 42
1.0
  3
txt
  4
bigfont.shx
  0
ENDTAB
  0
TABLE
  2
LAYER
 70
    2
  0
LAYER
  2
_0-0_
 70
   64
 62
    7
  6
CONTINUOUS
  0
LAYER
  2
ADD_LINE
 70
   64
 62
    7
  6
CONTINUOUS
  0
ENDTAB
  0
ENDSEC
  0
SECTION
  2
BLOCKS
  0
ENDSEC
  0
SECTION
  2
ENTITIES
  0
TEXT
  8
_0-0_
 62
    7
 10
1369.9047
 20
885.01576999999997
 40
15
 41
0.8
 50
-10.88552700000001
  1
R10
  0
TEXT
  8
_0-0_
 62
    7
 10
541.70339000000001
 20
975.97459000000003
 40
15
 41
0.8
 50
0
  1
70
  0
TEXT
  8
_0-0_
 62
    7
 10
802.45338000000004
 20
975.97459000000003
 40
15
 41
0.8
 50
0
  1
460
  0
TEXT
  8
_0-0_
 62
    7
 10
1071.7033900000001
 20
975.97459000000003
 40
15
 41
0.8
 50
0
  1
70
  0
TEXT
  8
_0-0_
 62
    7
 10
802.45338000000004
 20
947.05506000000003
 40
15
 41
0.8
 50
0
  1
600
  0
TEXT
  8
_0-0_
 62
    7
 10
1175.6378
 20
1052.1228700000001
 40
15
 41
0.8
 50
90
  1
100
  0
TEXT
  8
_0-0_
 62
    7
 10
541.70339000000001
 20
806.07727
 40
15
 41
0.8
 50
0
  1
70
  0
TEXT
  8
_0-0_
 62
    7
 10
802.45338000000004
 20
806.07727
 40
15
 41
0.8
 50
0
  1
460
  0
TEXT
  8
_0-0_
 62
    7
 10
1071.7033900000001
 20
806.07727
 40
15
 41
0.8
 50
0
  1
70
  0
TEXT
  8
_0-0_
 62
    7
 10
802.45338000000004
 20
842.61311999999998
 40
15
 41
0.8
 50
0
  1
600
  0
TEXT
  8
_0-0_
 62
    7
 10
1145.8535000000002
 20
723.87285999999995
 40
15
 41
0.8
 50
90
  1
65
  0
TEXT
  8
_0-0_
 62
    7
 10
1145.8535000000002
 20
643.87287000000003
 40
15
 41
0.8
 50
90
  1
95
  0
TEXT
  8
_0-0_
 62
    7
 10
1175.6378
 20
672.12285999999995
 40
15
 41
0.8
 50
90
  1
160
  0
TEXT
  8
_0-0_
 62
    7
 10
1556.5518
 20
816.08703000000003
 40
15
 41
0.8
 50
90
  1
100
  0
TEXT
  8
_0-0_
 62
    7
 10
1379.5210999999999
 20
747.86123999999995
 40
15
 41
0.8
 50
0
  1
95
  0
TEXT
  8
_0-0_
 62
    7
 10
1459.5210999999999
 20
747.86123999999995
 40
15
 41
0.8
 50
0
  1
65
  0
TEXT
  8
_0-0_
 62
    7
 10
1409.1002000000001
 20
728.35641999999996
 40
15
 41
0.8
 50
0
  1
160
  0
TEXT
  8
_0-0_
 62
    7
 10
1367.0211999999999
 20
911.72577999999999
 40
15
 41
0.8
 50
0
  1
70
  0
TEXT
  8
_0-0_
 62
    7
 10
1447.0211999999999
 20
911.72577999999999
 40
15
 41
0.8
 50
0
  1
90
  0
TEXT
  8
_0-0_
 62
    7
 10
1503.3996
 20
894.53979000000004
 40
15
 41
0.8
 50
0
  1
5
  0
TEXT
  8
_0-0_
 62
    7
 10
1280.6099999999999
 20
837.96186
 40
15
 41
0.8
 50
90
  1
65
  0
TEXT
  8
_0-0_
 62
    7
 10
1280.6099999999999
 20
787.96185000000003
 40
15
 41
0.8
 50
90
  1
35
  0
TEXT
  8
_0-0_
 62
    7
 10
1131.7288699999999
 20
1127.2591
 40
15
 41
0.8
 50
37.481733999999953
  1
R6
  0
TEXT
  8
_0-0_
 62
    7
 10
1130.7554599999999
 20
776.34743000000003
 40
15
 41
0.8
 50
37.481928000000003
  1
R6
  0
TEXT
  8
_0-0_
 62
    7
 10
1522.421
 20
888.14395999999999
 40
15
 41
0.8
 50
25.796063000000046
  1
R20
  0
TEXT
  8
_0-0_
 62
    7
 10
1312.6025999999999
 20
819.57417999999996
 40
15
 41
0.8
 50
-10.88552700000001
  1
R10
  0
TEXT
  8
_0-0_
 62
    7
 10
1412.3475000000001
 20
354.96224000000001
 40
20
 41
0.8
 50
0
  1
岩城ブロック工業株式会社
  0
TEXT
  8
_0-0_
 62
    7
 10
1173.79
 20
356.53169000000003
 40
20
 41
0.8
 50
0
  1
参考重量
  0
TEXT
  8
_0-0_
 62
    7
 10
336.21348999999998
 20
357.60629
 40
20
 41
0.8
 50
0
  1
名　称
  0
TEXT
  8
_0-0_
 62
    7
 10
989.44710999999995
 20
357.60629
 40
20
 41
0.8
 50
0
  1
図　番
  0
TEXT
  8
_0-0_
 62
    7
 10
814.12035000000003
 20
357.60629
 40
20
 41
0.8
 50
0
  1
分　類
  0
TEXT
  8
_0-0_
 62
    7
 10
1280.4282000000001
 20
356.19000999999997
 40
20
 41
0.8
 50
0
  1
18.5ｋｇ
  0
TEXT
  8
_0-0_
 62
    7
 10
516.17795999999998
 20
1167.0127
 40
25
 41
0.8
 50
0
  1
正　面
  0
TEXT
  8
_0-0_
 62
    7
 10
507.27965999999992
 20
851.12288999999998
 40
25
 41
0.8
 50
0
  1
上　部
  0
TEXT
  8
_0-0_
 62
    7
 10
1319.2499
 20
679.83050000000003
 40
25
 41
0.8
 50
0
  1
側　面
  0
TEXT
  8
_0-0_
 62
    7
 10
1331.9540999999999
 20
895.47301000000004
 40
15
 41
0.8
 50
0
  1
3
  0
TEXT
  8
_0-0_
 62
    7
 10
449.32754
 20
357.60629
 40
20
 41
0.8
 50
0
  1
パーキングブロック　ＮＳＰ-100Ｂ
  0
LINE
  8
_0-0_
  6
CONTINUOUS
 62
    7
 10
1339.2711999999999
 20
777.71187999999995
 11
1499.2710999999999
 21
777.71187999999995
  0
LINE
  8
_0-0_
  6
CONTINUOUS
 62
    7
 10
513.95337999999992
 20
603.62286999999992
 11
1113.9533799999999
 21
603.62286999999992
  0
LINE
  8
_0-0_
  6
CONTINUOUS
 62
    7
 10
1113.9533799999999
 20
733.62287000000003
 11
1098.9533900000001
 21
728.62284999999997
  0
LINE
  8
_0-0_
  6
CONTINUOUS
 62
    7
 10
519.95339000000001
 20
763.62284
 11
519.95339000000001
 21
603.62286999999992
  0
LINE
  8
_0-0_
  6
CONTINUOUS
 62
    7
 10
554.95339000000001
 20
1069.6228900000001
 11
554.95339000000001
 21
1061.62285
  0
LINE
  8
_0-0_
  6
CONTINUOUS
 62
    7
 10
513.95337999999992
 20
1013.6228599999999
 11
1113.9533799999999
 21
1013.6228599999999
  0
LINE
  8
_0-0_
  6
CONTINUOUS
 62
    7
 10
1113.9533799999999
 20
1107.6228999999998
 11
1113.9533799999999
 21
1013.6228599999999
  0
LINE
  8
_0-0_
  6
CONTINUOUS
 62
    7
 10
1113.9533799999999
 20
1107.6228999999998
 11
1107.9533999999999
 21
1113.6228000000001
  0
LINE
  8
_0-0_
  6
CONTINUOUS
 62
    7
 10
1107.9533999999999
 20
1113.6228000000001
 11
1107.9533999999999
 21
1013.6228599999999
  0
LINE
  8
_0-0_
  6
CONTINUOUS
 62
    7
 10
519.95339000000001
 20
1113.6228000000001
 11
519.95339000000001
 21
1013.6228599999999
  0
LINE
  8
_0-0_
  6
CONTINUOUS
 62
    7
 10
513.95337999999992
 20
1107.6228999999998
 11
513.95337999999992
 21
1013.6228599999999
  0
LINE
  8
_0-0_
  6
CONTINUOUS
 62
    7
 10
519.95339000000001
 20
1113.6228000000001
 11
513.95337999999992
 21
1107.6228999999998
  0
LINE
  8
_0-0_
  6
CONTINUOUS
 62
    7
 10
513.95337999999992
 20
1048.6228599999999
 11
1113.9533799999999
 21
1048.6228599999999
  0
LINE
  8
_0-0_
  6
CONTINUOUS
 62
    7
 10
513.95337999999992
 20
973.47457999999995
 11
583.95339999999999
 21
973.47457999999995
  0
LINE
  8
_0-0_
  6
CONTINUOUS
 62
    7
 10
513.95337999999992
 20
973.47457999999995
 11
513.95337999999992
 21
1000.1695
  0
LINE
  8
_0-0_
  6
CONTINUOUS
 62
    7
 10
583.95339999999999
 20
973.47457999999995
 11
583.95339999999999
 21
1000.1695
  0
LINE
  8
_0-0_
  6
CONTINUOUS
 62
    7
 10
583.95339999999999
 20
973.47457999999995
 11
1043.9533999999999
 21
973.47457999999995
  0
LINE
  8
_0-0_
  6
CONTINUOUS
 62
    7
 10
1043.9533999999999
 20
973.47457999999995
 11
1043.9533999999999
 21
1000.1695
  0
LINE
  8
_0-0_
  6
CONTINUOUS
 62
    7
 10
1043.9533999999999
 20
973.47457999999995
 11
1113.9533799999999
 21
973.47457999999995
  0
LINE
  8
_0-0_
  6
CONTINUOUS
 62
    7
 10
1113.9533799999999
 20
973.47457999999995
 11
1113.9533799999999
 21
1000.1695
  0
LINE
  8
_0-0_
  6
CONTINUOUS
 62
    7
 10
513.95337999999992
 20
944.55511000000001
 11
1113.9533799999999
 21
944.55511000000001
  0
LINE
  8
_0-0_
  6
CONTINUOUS
 62
    7
 10
513.95337999999992
 20
944.55511000000001
 11
513.95337999999992
 21
1000.1695
  0
LINE
  8
_0-0_
  6
CONTINUOUS
 62
    7
 10
1113.9533799999999
 20
944.55511000000001
 11
1113.9533799999999
 21
1000.1695
  0
LINE
  8
_0-0_
  6
CONTINUOUS
 62
    7
 10
519.95339000000001
 20
1113.6228000000001
 11
1063.9533999999999
 21
1113.6228000000001
  0
LINE
  8
_0-0_
  6
CONTINUOUS
 62
    7
 10
519.95339000000001
 20
1113.6228000000001
 11
1107.9533999999999
 21
1113.6228000000001
  0
LINE
  8
_0-0_
  6
CONTINUOUS
 62
    7
 10
622.95337999999992
 20
1108.6228000000001
 11
622.95337999999992
 21
1100.6228000000001
  0
LINE
  8
_0-0_
  6
CONTINUOUS
 62
    7
 10
1004.95336
 20
1108.6228000000001
 11
1004.95336
 21
1100.6228000000001
  0
LINE
  8
_0-0_
  6
CONTINUOUS
 62
    7
 10
558.95336999999995
 20
1113.6228000000001
 11
562.70339000000001
 21
1098.6228999999998
  0
LINE
  8
_0-0_
  6
CONTINUOUS
 62
    7
 10
608.95337999999992
 20
1113.6228000000001
 11
605.20339999999999
 21
1098.6228999999998
  0
LINE
  8
_0-0_
  6
CONTINUOUS
 62
    7
 10
573.45341000000008
 20
1098.6228999999998
 11
562.70339000000001
 21
1098.6228999999998
  0
LINE
  8
_0-0_
  6
CONTINUOUS
 62
    7
 10
594.45337999999992
 20
1098.6228999999998
 11
605.20339999999999
 21
1098.6228999999998
  0
LINE
  8
_0-0_
  6
CONTINUOUS
 62
    7
 10
1068.95336
 20
1113.6228000000001
 11
1065.2034100000001
 21
1098.6228999999998
  0
LINE
  8
_0-0_
  6
CONTINUOUS
 62
    7
 10
1018.95338
 20
1113.6228000000001
 11
1022.70339
 21
1098.6228999999998
  0
LINE
  8
_0-0_
  6
CONTINUOUS
 62
    7
 10
1033.45335
 20
1098.6228999999998
 11
1022.70339
 21
1098.6228999999998
  0
LINE
  8
_0-0_
  6
CONTINUOUS
 62
    7
 10
1054.4533799999999
 20
1098.6228999999998
 11
1065.2034100000001
 21
1098.6228999999998
  0
LINE
  8
_0-0_
  6
CONTINUOUS
 62
    7
 10
554.95339000000001
 20
1095.6228799999999
 11
554.95339000000001
 21
1087.6228999999998
  0
LINE
  8
_0-0_
  6
CONTINUOUS
 62
    7
 10
554.95339000000001
 20
1082.6228799999999
 11
554.95339000000001
 21
1074.6228999999998
  0
LINE
  8
_0-0_
  6
CONTINUOUS
 62
    7
 10
1072.9534100000001
 20
1095.6228799999999
 11
1072.9534100000001
 21
1087.6228999999998
  0
LINE
  8
_0-0_
  6
CONTINUOUS
 62
    7
 10
1072.9534100000001
 20
1082.6228799999999
 11
1072.9534100000001
 21
1074.6228999999998
  0
LINE
  8
_0-0_
  6
CONTINUOUS
 62
    7
 10
1072.9534100000001
 20
1069.6228900000001
 11
1072.9534100000001
 21
1061.62285
  0
LINE
  8
_0-0_
  6
CONTINUOUS
 62
    7
 10
578.45339999999999
 20
1093.6228799999999
 11
578.45339999999999
 21
1061.62285
  0
LINE
  8
_0-0_
  6
CONTINUOUS
 62
    7
 10
589.45339000000001
 20
1093.6228799999999
 11
589.45339000000001
 21
1061.62285
  0
LINE
  8
_0-0_
  6
CONTINUOUS
 62
    7
 10
1038.4533699999999
 20
1093.6228799999999
 11
1038.4533699999999
 21
1061.62285
  0
LINE
  8
_0-0_
  6
CONTINUOUS
 62
    7
 10
1049.4533699999999
 20
1093.6228799999999
 11
1049.4533699999999
 21
1061.62285
  0
LINE
  8
_0-0_
  6
CONTINUOUS
 62
    7
 10
578.45339999999999
 20
1048.6228599999999
 11
578.45339999999999
 21
1035.1476499999999
  0
LINE
  8
_0-0_
  6
CONTINUOUS
 62
    7
 10
578.45339999999999
 20
1029.09367
 11
578.45339999999999
 21
1013.6228599999999
  0
LINE
  8
_0-0_
  6
CONTINUOUS
 62
    7
 10
589.45339000000001
 20
1048.6228599999999
 11
589.45339000000001
 21
1034.28279
  0
LINE
  8
_0-0_
  6
CONTINUOUS
 62
    7
 10
589.45339000000001
 20
1027.364
 11
589.45339000000001
 21
1013.6228599999999
  0
LINE
  8
_0-0_
  6
CONTINUOUS
 62
    7
 10
1038.4533699999999
 20
1048.6228599999999
 11
1038.4533699999999
 21
1035.1476499999999
  0
LINE
  8
_0-0_
  6
CONTINUOUS
 62
    7
 10
1038.4533699999999
 20
1028.2288699999999
 11
1038.4533699999999
 21
1013.6228599999999
  0
LINE
  8
_0-0_
  6
CONTINUOUS
 62
    7
 10
1049.4533699999999
 20
1048.6228599999999
 11
1049.4533699999999
 21
1036.01252
  0
LINE
  8
_0-0_
  6
CONTINUOUS
 62
    7
 10
1049.4533699999999
 20
1029.09367
 11
1049.4533699999999
 21
1013.6228599999999
  0
LINE
  8
_0-0_
  6
CONTINUOUS
 62
    7
 10
513.95337999999992
 20
1078.62283
 11
529.95339999999999
 21
1068.6228599999999
  0
LINE
  8
_0-0_
  6
CONTINUOUS
 62
    7
 10
529.95339999999999
 20
1068.6228599999999
 11
529.95339999999999
 21
1048.6228599999999
  0
LINE
  8
_0-0_
  6
CONTINUOUS
 62
    7
 10
529.95339999999999
 20
1048.6228599999999
 11
513.95337999999992
 21
1038.6228900000001
  0
LINE
  8
_0-0_
  6
CONTINUOUS
 62
    7
 10
1097.95343
 20
1068.6228599999999
 11
1097.95343
 21
1048.6228599999999
  0
LINE
  8
_0-0_
  6
CONTINUOUS
 62
    7
 10
1113.9533799999999
 20
1078.62283
 11
1097.95343
 21
1068.6228599999999
  0
LINE
  8
_0-0_
  6
CONTINUOUS
 62
    7
 10
1097.95343
 20
1048.6228599999999
 11
1113.9533799999999
 21
1038.6228900000001
  0
LINE
  8
_0-0_
  6
CONTINUOUS
 62
    7
 10
1178.1378999999999
 20
1113.6228000000001
 11
1178.1378999999999
 21
1013.6228599999999
  0
LINE
  8
_0-0_
  6
CONTINUOUS
 62
    7
 10
1178.1378999999999
 20
1113.6228000000001
 11
1121.92255
 21
1113.6228000000001
  0
LINE
  8
_0-0_
  6
CONTINUOUS
 62
    7
 10
1178.1378999999999
 20
1013.6228599999999
 11
1121.92255
 21
1013.6228599999999
  0
LINE
  8
_0-0_
  6
CONTINUOUS
 62
    7
 10
1111.54431
 20
1110.3896999999999
 11
1167.9788000000001
 21
1153.6651999999999
  0
LINE
  8
_0-0_
  6
CONTINUOUS
 62
    7
 10
1111.54431
 20
1110.3896999999999
 11
1118.4157700000001
 21
1121.2076999999999
  0
LINE
  8
_0-0_
  6
CONTINUOUS
 62
    7
 10
513.95337999999992
 20
673.62285999999995
 11
1113.9533799999999
 21
673.62285999999995
  0
LINE
  8
_0-0_
  6
CONTINUOUS
 62
    7
 10
513.95337999999992
 20
803.57726000000002
 11
583.95339999999999
 21
803.57726000000002
  0
LINE
  8
_0-0_
  6
CONTINUOUS
 62
    7
 10
513.95337999999992
 20
803.57726000000002
 11
513.95337999999992
 21
771.33974999999998
  0
LINE
  8
_0-0_
  6
CONTINUOUS
 62
    7
 10
583.95339999999999
 20
803.57726000000002
 11
583.95339999999999
 21
771.33974999999998
  0
LINE
  8
_0-0_
  6
CONTINUOUS
 62
    7
 10
583.95339999999999
 20
803.57726000000002
 11
1043.9533999999999
 21
803.57726000000002
  0
LINE
  8
_0-0_
  6
CONTINUOUS
 62
    7
 10
1043.9533999999999
 20
803.57726000000002
 11
1043.9533999999999
 21
771.33974999999998
  0
LINE
  8
_0-0_
  6
CONTINUOUS
 62
    7
 10
1043.9533999999999
 20
803.57726000000002
 11
1113.9533799999999
 21
803.57726000000002
  0
LINE
  8
_0-0_
  6
CONTINUOUS
 62
    7
 10
1113.9533799999999
 20
803.57726000000002
 11
1113.9533799999999
 21
771.33974999999998
  0
LINE
  8
_0-0_
  6
CONTINUOUS
 62
    7
 10
513.95337999999992
 20
840.11311000000001
 11
1113.9533799999999
 21
840.11311000000001
  0
LINE
  8
_0-0_
  6
CONTINUOUS
 62
    7
 10
513.95337999999992
 20
840.11311000000001
 11
513.95337999999992
 21
771.33974999999998
  0
LINE
  8
_0-0_
  6
CONTINUOUS
 62
    7
 10
1113.9533799999999
 20
840.11311000000001
 11
1113.9533799999999
 21
771.33974999999998
  0
LINE
  8
_0-0_
  6
CONTINUOUS
 62
    7
 10
1148.3535000000002
 20
763.62284
 11
1148.3535000000002
 21
698.62288000000001
  0
LINE
  8
_0-0_
  6
CONTINUOUS
 62
    7
 10
1148.3535000000002
 20
763.62284
 11
1121.92255
 21
763.62284
  0
LINE
  8
_0-0_
  6
CONTINUOUS
 62
    7
 10
1148.3535000000002
 20
698.62288000000001
 11
1121.92255
 21
698.62288000000001
  0
LINE
  8
_0-0_
  6
CONTINUOUS
 62
    7
 10
1148.3535000000002
 20
698.62288000000001
 11
1148.3535000000002
 21
603.62286999999992
  0
LINE
  8
_0-0_
  6
CONTINUOUS
 62
    7
 10
1148.3535000000002
 20
603.62286999999992
 11
1121.92255
 21
603.62286999999992
  0
LINE
  8
_0-0_
  6
CONTINUOUS
 62
    7
 10
1178.1378999999999
 20
763.62284
 11
1178.1378999999999
 21
603.62286999999992
  0
LINE
  8
_0-0_
  6
CONTINUOUS
 62
    7
 10
1178.1378999999999
 20
763.62284
 11
1121.92255
 21
763.62284
  0
LINE
  8
_0-0_
  6
CONTINUOUS
 62
    7
 10
1178.1378999999999
 20
603.62286999999992
 11
1121.92255
 21
603.62286999999992
  0
LINE
  8
_0-0_
  6
CONTINUOUS
 62
    7
 10
1107.9533999999999
 20
763.62284
 11
1107.9533999999999
 21
603.62286999999992
  0
LINE
  8
_0-0_
  6
CONTINUOUS
 62
    7
 10
513.95337999999992
 20
757.62285999999995
 11
513.95337999999992
 21
603.62286999999992
  0
LINE
  8
_0-0_
  6
CONTINUOUS
 62
    7
 10
519.95339000000001
 20
763.62284
 11
513.95337999999992
 21
757.62285999999995
  0
LINE
  8
_0-0_
  6
CONTINUOUS
 62
    7
 10
1107.9533999999999
 20
763.62284
 11
519.95339000000001
 21
763.62284
  0
LINE
  8
_0-0_
  6
CONTINUOUS
 62
    7
 10
1113.9533799999999
 20
757.62285999999995
 11
1113.9533799999999
 21
603.62286999999992
  0
LINE
  8
_0-0_
  6
CONTINUOUS
 62
    7
 10
1107.9533999999999
 20
763.62284
 11
1113.9533799999999
 21
757.62285999999995
  0
LINE
  8
_0-0_
  6
CONTINUOUS
 62
    7
 10
519.95339000000001
 20
757.62285999999995
 11
1107.9533999999999
 21
757.62285999999995
  0
LINE
  8
_0-0_
  6
CONTINUOUS
 62
    7
 10
622.95337999999992
 20
667.62287000000003
 11
622.95337999999992
 21
659.62283000000002
  0
LINE
  8
_0-0_
  6
CONTINUOUS
 62
    7
 10
1004.95336
 20
667.62287000000003
 11
1004.95336
 21
659.62283000000002
  0
LINE
  8
_0-0_
  6
CONTINUOUS
 62
    7
 10
553.95339000000001
 20
659.62283000000002
 11
613.95336999999995
 21
659.62283000000002
  0
LINE
  8
_0-0_
  6
CONTINUOUS
 62
    7
 10
613.95336999999995
 20
699.62284
 11
613.95336999999995
 21
659.62283000000002
  0
LINE
  8
_0-0_
  6
CONTINUOUS
 62
    7
 10
1013.95336
 20
659.62283000000002
 11
1073.9533699999999
 21
659.62283000000002
  0
LINE
  8
_0-0_
  6
CONTINUOUS
 62
    7
 10
1013.95336
 20
699.62284
 11
1013.95336
 21
659.62283000000002
  0
LINE
  8
_0-0_
  6
CONTINUOUS
 62
    7
 10
553.95339000000001
 20
699.62284
 11
553.95339000000001
 21
659.62283000000002
  0
LINE
  8
_0-0_
  6
CONTINUOUS
 62
    7
 10
553.95339000000001
 20
653.62284999999997
 11
553.95339000000001
 21
645.62288000000001
  0
LINE
  8
_0-0_
  6
CONTINUOUS
 62
    7
 10
553.95339000000001
 20
639.62288999999998
 11
553.95339000000001
 21
631.62284999999997
  0
LINE
  8
_0-0_
  6
CONTINUOUS
 62
    7
 10
553.95339000000001
 20
625.62287000000003
 11
553.95339000000001
 21
617.62288999999998
  0
LINE
  8
_0-0_
  6
CONTINUOUS
 62
    7
 10
1073.9533699999999
 20
699.62284
 11
1073.9533699999999
 21
659.62283000000002
  0
LINE
  8
_0-0_
  6
CONTINUOUS
 62
    7
 10
1073.9533699999999
 20
653.62284999999997
 11
1073.9533699999999
 21
645.62288000000001
  0
LINE
  8
_0-0_
  6
CONTINUOUS
 62
    7
 10
1073.9533699999999
 20
639.62288999999998
 11
1073.9533699999999
 21
631.62284999999997
  0
LINE
  8
_0-0_
  6
CONTINUOUS
 62
    7
 10
1073.9533699999999
 20
625.62287000000003
 11
1073.9533699999999
 21
617.62288999999998
  0
LINE
  8
_0-0_
  6
CONTINUOUS
 62
    7
 10
914.95336999999995
 20
653.62284999999997
 11
1073.9533699999999
 21
653.62284999999997
  0
LINE
  8
_0-0_
  6
CONTINUOUS
 62
    7
 10
914.95336999999995
 20
653.62284999999997
 11
1073.9533699999999
 21
653.62284999999997
  0
LINE
  8
_0-0_
  6
CONTINUOUS
 62
    7
 10
553.95339000000001
 20
653.62284999999997
 11
712.95339000000001
 21
653.62284999999997
  0
LINE
  8
_0-0_
  6
CONTINUOUS
 62
    7
 10
553.95339000000001
 20
653.62284999999997
 11
712.95339000000001
 21
653.62284999999997
  0
LINE
  8
_0-0_
  6
CONTINUOUS
 62
    7
 10
1043.9533999999999
 20
763.62284
 11
1043.9533999999999
 21
698.62288000000001
  0
LINE
  8
_0-0_
  6
CONTINUOUS
 62
    7
 10
1043.9533999999999
 20
698.62288000000001
 11
1113.9533799999999
 21
698.62288000000001
  0
LINE
  8
_0-0_
  6
CONTINUOUS
 62
    7
 10
513.95337999999992
 20
673.62285999999995
 11
528.95336999999995
 21
678.62287000000003
  0
LINE
  8
_0-0_
  6
CONTINUOUS
 62
    7
 10
513.95337999999992
 20
733.62287000000003
 11
528.95336999999995
 21
728.62284999999997
  0
LINE
  8
_0-0_
  6
CONTINUOUS
 62
    7
 10
1098.9533900000001
 20
678.62287000000003
 11
1113.9533799999999
 21
673.62285999999995
  0
LINE
  8
_0-0_
  6
CONTINUOUS
 62
    7
 10
1098.9533900000001
 20
728.62284999999997
 11
1098.9533900000001
 21
678.62287000000003
  0
LINE
  8
_0-0_
  6
CONTINUOUS
 62
    7
 10
528.95336999999995
 20
728.62284999999997
 11
528.95336999999995
 21
678.62287000000003
  0
LINE
  8
_0-0_
  6
CONTINUOUS
 62
    7
 10
1495.2212
 20
858.71063000000004
 11
1499.2710999999999
 21
777.71187999999995
  0
LINE
  8
_0-0_
  6
CONTINUOUS
 62
    7
 10
1490.4648999999999
 20
853.71060999999997
 11
1494.2773999999999
 21
777.46214999999995
  0
LINE
  8
_0-0_
  6
CONTINUOUS
 62
    7
 10
1559.0517
 20
777.46214999999995
 11
1559.0517
 21
877.71184000000005
  0
LINE
  8
_0-0_
  6
CONTINUOUS
 62
    7
 10
1559.0517
 20
777.46214999999995
 11
1508.8103000000001
 21
777.46214999999995
  0
LINE
  8
_0-0_
  6
CONTINUOUS
 62
    7
 10
1559.0517
 20
877.71184000000005
 11
1508.8103000000001
 21
877.71184000000005
  0
LINE
  8
_0-0_
  6
CONTINUOUS
 62
    7
 10
1339.2711999999999
 20
745.36122999999998
 11
1434.2710999999999
 21
745.36122999999998
  0
LINE
  8
_0-0_
  6
CONTINUOUS
 62
    7
 10
1339.2711999999999
 20
745.36122999999998
 11
1339.2711999999999
 21
770.86843999999996
  0
LINE
  8
_0-0_
  6
CONTINUOUS
 62
    7
 10
1434.2710999999999
 20
745.36122999999998
 11
1434.2710999999999
 21
770.86843999999996
  0
LINE
  8
_0-0_
  6
CONTINUOUS
 62
    7
 10
1434.2710999999999
 20
745.36122999999998
 11
1499.2710999999999
 21
745.36122999999998
  0
LINE
  8
_0-0_
  6
CONTINUOUS
 62
    7
 10
1499.2710999999999
 20
745.36122999999998
 11
1499.2710999999999
 21
770.86843999999996
  0
LINE
  8
_0-0_
  6
CONTINUOUS
 62
    7
 10
1339.2711999999999
 20
727.58348000000001
 11
1499.2710999999999
 21
727.58348000000001
  0
LINE
  8
_0-0_
  6
CONTINUOUS
 62
    7
 10
1339.2711999999999
 20
727.58348000000001
 11
1339.2711999999999
 21
770.86843999999996
  0
LINE
  8
_0-0_
  6
CONTINUOUS
 62
    7
 10
1499.2710999999999
 20
727.58348000000001
 11
1499.2710999999999
 21
770.86843999999996
  0
LINE
  8
_0-0_
  6
CONTINUOUS
 62
    7
 10
1339.2711999999999
 20
909.22577999999999
 11
1409.2711999999999
 21
909.22577999999999
  0
LINE
  8
_0-0_
  6
CONTINUOUS
 62
    7
 10
1339.2711999999999
 20
909.22577999999999
 11
1339.2711999999999
 21
884.49150999999995
  0
LINE
  8
_0-0_
  6
CONTINUOUS
 62
    7
 10
1409.2711999999999
 20
909.22577999999999
 11
1409.2711999999999
 21
884.49150999999995
  0
LINE
  8
_0-0_
  6
CONTINUOUS
 62
    7
 10
1409.2711999999999
 20
909.22577999999999
 11
1499.2710999999999
 21
909.22577999999999
  0
LINE
  8
_0-0_
  6
CONTINUOUS
 62
    7
 10
1499.2710999999999
 20
909.22577999999999
 11
1499.2710999999999
 21
884.49150999999995
  0
LINE
  8
_0-0_
  6
CONTINUOUS
 62
    7
 10
1499.2710999999999
 20
896.08573000000001
 11
1494.2773999999999
 21
896.08573000000001
  0
LINE
  8
_0-0_
  6
CONTINUOUS
 62
    7
 10
1499.2710999999999
 20
896.08573000000001
 11
1499.2710999999999
 21
882.94563000000005
  0
LINE
  8
_0-0_
  6
CONTINUOUS
 62
    7
 10
1494.2773999999999
 20
896.08573000000001
 11
1494.2773999999999
 21
882.94563000000005
  0
LINE
  8
_0-0_
  6
CONTINUOUS
 62
    7
 10
1283.1099999999999
 20
877.71184000000005
 11
1283.1099999999999
 21
812.71186999999998
  0
LINE
  8
_0-0_
  6
CONTINUOUS
 62
    7
 10
1283.1099999999999
 20
877.71184000000005
 11
1328.7138
 21
877.71184000000005
  0
LINE
  8
_0-0_
  6
CONTINUOUS
 62
    7
 10
1283.1099999999999
 20
812.71186999999998
 11
1328.7138
 21
812.71186999999998
  0
LINE
  8
_0-0_
  6
CONTINUOUS
 62
    7
 10
1283.1099999999999
 20
812.71186999999998
 11
1283.1099999999999
 21
777.71187999999995
  0
LINE
  8
_0-0_
  6
CONTINUOUS
 62
    7
 10
1283.1099999999999
 20
777.71187999999995
 11
1328.7138
 21
777.71187999999995
  0
LINE
  8
_0-0_
  6
CONTINUOUS
 62
    7
 10
1413.3248000000001
 20
877.71184000000005
 11
1475.2462
 21
877.71184000000005
  0
LINE
  8
_0-0_
  6
CONTINUOUS
 62
    7
 10
1344.9523999999999
 20
815.31314999999995
 11
1406.3616
 21
874.88923
  0
LINE
  8
_0-0_
  6
CONTINUOUS
 62
    7
 10
1341.9521
 20
808.98976000000005
 11
1339.2711999999999
 21
777.71187999999995
  0
LINE
  8
_0-0_
  6
CONTINUOUS
 62
    7
 10
1339.2711999999999
 20
896.08573000000001
 11
1343.0241000000001
 21
896.08573000000001
  0
LINE
  8
_0-0_
  6
CONTINUOUS
 62
    7
 10
1339.2711999999999
 20
896.08573000000001
 11
1339.2711999999999
 21
884.49150999999995
  0
LINE
  8
_0-0_
  6
CONTINUOUS
 62
    7
 10
1343.0241000000001
 20
896.08573000000001
 11
1343.0241000000001
 21
884.49150999999995
  0
LINE
  8
_0-0_
  6
CONTINUOUS
 62
    7
 10
1415.3516
 20
872.71189000000004
 11
1470.4899
 21
872.71189000000004
  0
LINE
  8
_0-0_
  6
CONTINUOUS
 62
    7
 10
1349.7746
 20
813.02512999999999
 11
1408.3885
 21
869.88927999999999
  0
LINE
  8
_0-0_
  6
CONTINUOUS
 62
    7
 10
1346.7743
 20
806.70174999999995
 11
1344.2529
 21
777.28485999999998
  0
LINE
  8
_0-0_
  6
CONTINUOUS
 62
    7
 10
1409.6757
 20
819.32254
 11
1409.6757
 21
839.32248000000004
  0
LINE
  8
_0-0_
  6
CONTINUOUS
 62
    7
 10
1454.6757
 20
814.32252000000005
 11
1414.6757
 21
814.32252000000005
  0
LINE
  8
_0-0_
  6
CONTINUOUS
 62
    7
 10
1449.6757
 20
839.32248000000004
 11
1419.6758
 21
839.32248000000004
  0
LINE
  8
_0-0_
  6
CONTINUOUS
 62
    7
 10
1454.6757
 20
834.32245999999998
 11
1454.6757
 21
824.32249000000002
  0
LINE
  8
_0-0_
  6
CONTINUOUS
 62
    7
 10
1454.6757
 20
844.32249999999999
 11
1414.6757
 21
844.32249999999999
  0
LINE
  8
_0-0_
  6
CONTINUOUS
 62
    7
 10
1459.6758
 20
839.32248000000004
 11
1459.6758
 21
819.32254
  0
LINE
  8
_0-0_
  6
CONTINUOUS
 62
    7
 10
1414.6757
 20
824.32249000000002
 11
1414.6757
 21
834.32245999999998
  0
LINE
  8
_0-0_
  6
CONTINUOUS
 62
    7
 10
1419.6758
 20
819.32248000000004
 11
1449.6757
 21
819.32248000000004
  0
LINE
  8
_0-0_
  6
CONTINUOUS
 62
    7
 10
1362.1936000000001
 20
825.07340999999997
 11
1355.0128999999999
 21
825.07340999999997
  0
LINE
  8
_0-0_
  6
CONTINUOUS
 62
    7
 10
1373.4742000000001
 20
836.01718000000005
 11
1366.2935
 21
836.01718000000005
  0
LINE
  8
_0-0_
  6
CONTINUOUS
 62
    7
 10
1385.9267
 20
848.09793000000002
 11
1378.7460000000001
 21
848.09793000000002
  0
LINE
  8
_0-0_
  6
CONTINUOUS
 62
    7
 10
1397.3536999999999
 20
859.18385999999998
 11
1390.173
 21
859.18385999999998
  0
LINE
  8
_0-0_
  6
CONTINUOUS
 62
    7
 10
1362.1936000000001
 20
832.03971000000001
 11
1362.1936000000001
 21
825.07340999999997
  0
LINE
  8
_0-0_
  6
CONTINUOUS
 62
    7
 10
1373.4742000000001
 20
842.98347999999999
 11
1373.4742000000001
 21
836.01718000000005
  0
LINE
  8
_0-0_
  6
CONTINUOUS
 62
    7
 10
1385.9267
 20
855.06429000000003
 11
1385.9267
 21
848.09793000000002
  0
LINE
  8
_0-0_
  6
CONTINUOUS
 62
    7
 10
1397.3536999999999
 20
866.15021000000002
 11
1397.3536999999999
 21
859.18385999999998
  0
LINE
  8
_0-0_
  6
CONTINUOUS
 62
    7
 10
1110.5709400000001
 20
759.47798
 11
1167.0054
 21
802.75346999999999
  0
LINE
  8
_0-0_
  6
CONTINUOUS
 62
    7
 10
1110.5709400000001
 20
759.47798
 11
1117.4424100000001
 21
770.29605000000004
  0
LINE
  8
_0-0_
  6
CONTINUOUS
 62
    7
 10
1492.2874999999999
 20
873.05130999999994
 11
1547.3327999999999
 21
899.65660000000003
  0
LINE
  8
_0-0_
  6
CONTINUOUS
 62
    7
 10
1492.2874999999999
 20
873.05130999999994
 11
1500.5443
 21
881.30813000000001
  0
LINE
  8
_0-0_
  6
CONTINUOUS
 62
    7
 10
1407.8846000000001
 20
877.63846999999998
 11
1360.1786999999999
 21
886.81268
  0
LINE
  8
_0-0_
  6
CONTINUOUS
 62
    7
 10
1407.8846000000001
 20
877.63846999999998
 11
1396.8755000000001
 21
883.14296000000002
  0
LINE
  8
_0-0_
  6
CONTINUOUS
 62
    7
 10
1342.6994999999999
 20
813.00156000000004
 11
1307.8925999999999
 21
819.40282999999999
  0
LINE
  8
_0-0_
  6
CONTINUOUS
 62
    7
 10
1342.6994999999999
 20
813.00156000000004
 11
1335.8981000000001
 21
816.20219999999995
  0
LINE
  8
_0-0_
  6
CONTINUOUS
 62
    7
 10
622.95337999999992
 20
1108.6228000000001
 11
793.95338000000004
 21
1108.6228000000001
  0
LINE
  8
_0-0_
  6
CONTINUOUS
 62
    7
 10
622.95337999999992
 20
1100.6228000000001
 11
793.95338000000004
 21
1100.6228000000001
  0
LINE
  8
_0-0_
  6
CONTINUOUS
 62
    7
 10
554.95339000000001
 20
1095.6228799999999
 11
793.95338000000004
 21
1095.6228799999999
  0
LINE
  8
_0-0_
  6
CONTINUOUS
 62
    7
 10
554.95339000000001
 20
1087.6228999999998
 11
793.95338000000004
 21
1087.6228999999998
  0
LINE
  8
_0-0_
  6
CONTINUOUS
 62
    7
 10
554.95339000000001
 20
1082.6228799999999
 11
793.95338000000004
 21
1082.6228799999999
  0
LINE
  8
_0-0_
  6
CONTINUOUS
 62
    7
 10
554.95339000000001
 20
1074.6228999999998
 11
793.95338000000004
 21
1074.6228999999998
  0
LINE
  8
_0-0_
  6
CONTINUOUS
 62
    7
 10
554.95339000000001
 20
1069.6228900000001
 11
793.95338000000004
 21
1069.6228900000001
  0
LINE
  8
_0-0_
  6
CONTINUOUS
 62
    7
 10
554.95339000000001
 20
1061.62285
 11
793.95338000000004
 21
1061.62285
  0
LINE
  8
_0-0_
  6
CONTINUOUS
 62
    7
 10
833.95338000000004
 20
1108.6228000000001
 11
1004.95336
 21
1108.6228000000001
  0
LINE
  8
_0-0_
  6
CONTINUOUS
 62
    7
 10
833.95338000000004
 20
1100.6228000000001
 11
1004.95336
 21
1100.6228000000001
  0
LINE
  8
_0-0_
  6
CONTINUOUS
 62
    7
 10
833.95338000000004
 20
1095.6228799999999
 11
1072.9534100000001
 21
1095.6228799999999
  0
LINE
  8
_0-0_
  6
CONTINUOUS
 62
    7
 10
833.95338000000004
 20
1087.6228999999998
 11
1072.9534100000001
 21
1087.6228999999998
  0
LINE
  8
_0-0_
  6
CONTINUOUS
 62
    7
 10
833.95338000000004
 20
1082.6228799999999
 11
1072.9534100000001
 21
1082.6228799999999
  0
LINE
  8
_0-0_
  6
CONTINUOUS
 62
    7
 10
833.95338000000004
 20
1074.6228999999998
 11
1072.9534100000001
 21
1074.6228999999998
  0
LINE
  8
_0-0_
  6
CONTINUOUS
 62
    7
 10
833.95338000000004
 20
1069.6228900000001
 11
1072.9534100000001
 21
1069.6228900000001
  0
LINE
  8
_0-0_
  6
CONTINUOUS
 62
    7
 10
833.95338000000004
 20
1061.62285
 11
1072.9534100000001
 21
1061.62285
  0
LINE
  8
_0-0_
  6
CONTINUOUS
 62
    7
 10
793.95338000000004
 20
1108.6228000000001
 11
793.95338000000004
 21
1100.6228000000001
  0
LINE
  8
_0-0_
  6
CONTINUOUS
 62
    7
 10
793.95338000000004
 20
1095.6228799999999
 11
793.95338000000004
 21
1087.6228999999998
  0
LINE
  8
_0-0_
  6
CONTINUOUS
 62
    7
 10
793.95338000000004
 20
1082.6228799999999
 11
793.95338000000004
 21
1074.6228999999998
  0
LINE
  8
_0-0_
  6
CONTINUOUS
 62
    7
 10
793.95338000000004
 20
1069.6228900000001
 11
793.95338000000004
 21
1061.62285
  0
LINE
  8
_0-0_
  6
CONTINUOUS
 62
    7
 10
833.95338000000004
 20
1108.6228000000001
 11
833.95338000000004
 21
1100.6228000000001
  0
LINE
  8
_0-0_
  6
CONTINUOUS
 62
    7
 10
833.95338000000004
 20
1095.6228799999999
 11
833.95338000000004
 21
1087.6228999999998
  0
LINE
  8
_0-0_
  6
CONTINUOUS
 62
    7
 10
833.95338000000004
 20
1082.6228799999999
 11
833.95338000000004
 21
1074.6228999999998
  0
LINE
  8
_0-0_
  6
CONTINUOUS
 62
    7
 10
833.95338000000004
 20
1069.6228900000001
 11
833.95338000000004
 21
1061.62285
  0
LINE
  8
_0-0_
  6
CONTINUOUS
 62
    7
 10
622.95337999999992
 20
667.62287000000003
 11
793.95338000000004
 21
667.62287000000003
  0
LINE
  8
_0-0_
  6
CONTINUOUS
 62
    7
 10
622.95337999999992
 20
659.62283000000002
 11
793.95338000000004
 21
659.62283000000002
  0
LINE
  8
_0-0_
  6
CONTINUOUS
 62
    7
 10
553.95339000000001
 20
653.62284999999997
 11
793.95338000000004
 21
653.62284999999997
  0
LINE
  8
_0-0_
  6
CONTINUOUS
 62
    7
 10
553.95339000000001
 20
645.62288000000001
 11
793.95338000000004
 21
645.62288000000001
  0
LINE
  8
_0-0_
  6
CONTINUOUS
 62
    7
 10
553.95339000000001
 20
639.62288999999998
 11
793.95338000000004
 21
639.62288999999998
  0
LINE
  8
_0-0_
  6
CONTINUOUS
 62
    7
 10
553.95339000000001
 20
631.62284999999997
 11
793.95338000000004
 21
631.62284999999997
  0
LINE
  8
_0-0_
  6
CONTINUOUS
 62
    7
 10
553.95339000000001
 20
625.62287000000003
 11
793.95338000000004
 21
625.62287000000003
  0
LINE
  8
_0-0_
  6
CONTINUOUS
 62
    7
 10
553.95339000000001
 20
617.62288999999998
 11
793.95338000000004
 21
617.62288999999998
  0
LINE
  8
_0-0_
  6
CONTINUOUS
 62
    7
 10
833.95338000000004
 20
667.62287000000003
 11
1004.95336
 21
667.62287000000003
  0
LINE
  8
_0-0_
  6
CONTINUOUS
 62
    7
 10
833.95338000000004
 20
659.62283000000002
 11
1004.95336
 21
659.62283000000002
  0
LINE
  8
_0-0_
  6
CONTINUOUS
 62
    7
 10
833.95338000000004
 20
653.62284999999997
 11
1073.9533699999999
 21
653.62284999999997
  0
LINE
  8
_0-0_
  6
CONTINUOUS
 62
    7
 10
833.95338000000004
 20
645.62288000000001
 11
1073.9533699999999
 21
645.62288000000001
  0
LINE
  8
_0-0_
  6
CONTINUOUS
 62
    7
 10
833.95338000000004
 20
639.62288999999998
 11
1073.9533699999999
 21
639.62288999999998
  0
LINE
  8
_0-0_
  6
CONTINUOUS
 62
    7
 10
833.95338000000004
 20
631.62284999999997
 11
1073.9533699999999
 21
631.62284999999997
  0
LINE
  8
_0-0_
  6
CONTINUOUS
 62
    7
 10
833.95338000000004
 20
625.62287000000003
 11
1073.9533699999999
 21
625.62287000000003
  0
LINE
  8
_0-0_
  6
CONTINUOUS
 62
    7
 10
833.95338000000004
 20
617.62288999999998
 11
1073.9533699999999
 21
617.62288999999998
  0
LINE
  8
_0-0_
  6
CONTINUOUS
 62
    7
 10
833.95338000000004
 20
803.90246000000002
 11
833.95338000000004
 21
803.57726000000002
  0
LINE
  8
_0-0_
  6
CONTINUOUS
 62
    7
 10
833.95338000000004
 20
667.62287000000003
 11
833.95338000000004
 21
659.62283000000002
  0
LINE
  8
_0-0_
  6
CONTINUOUS
 62
    7
 10
833.95338000000004
 20
653.62284999999997
 11
833.95338000000004
 21
645.62288000000001
  0
LINE
  8
_0-0_
  6
CONTINUOUS
 62
    7
 10
833.95338000000004
 20
639.62288999999998
 11
833.95338000000004
 21
631.62284999999997
  0
LINE
  8
_0-0_
  6
CONTINUOUS
 62
    7
 10
833.95338000000004
 20
625.62287000000003
 11
833.95338000000004
 21
617.62288999999998
  0
LINE
  8
_0-0_
  6
CONTINUOUS
 62
    7
 10
793.95338000000004
 20
803.90246000000002
 11
793.95338000000004
 21
803.57726000000002
  0
LINE
  8
_0-0_
  6
CONTINUOUS
 62
    7
 10
793.95338000000004
 20
667.62287000000003
 11
793.95338000000004
 21
659.62283000000002
  0
LINE
  8
_0-0_
  6
CONTINUOUS
 62
    7
 10
793.95338000000004
 20
653.62284999999997
 11
793.95338000000004
 21
645.62288000000001
  0
LINE
  8
_0-0_
  6
CONTINUOUS
 62
    7
 10
793.95338000000004
 20
639.62288999999998
 11
793.95338000000004
 21
631.62284999999997
  0
LINE
  8
_0-0_
  6
CONTINUOUS
 62
    7
 10
793.95338000000004
 20
625.62287000000003
 11
793.95338000000004
 21
617.62288999999998
  0
LINE
  8
_0-0_
  6
CONTINUOUS
 62
    7
 10
1450.0319999999999
 20
859.28480999999999
 11
1397.4577999999999
 21
859.28480999999999
  0
LINE
  8
_0-0_
  6
CONTINUOUS
 62
    7
 10
1455.7019
 20
877.71184000000005
 11
1450.0319999999999
 21
859.28480999999999
  0
LINE
  8
_0-0_
  6
CONTINUOUS
 62
    7
 10
1439.7793999999999
 20
848.89598999999998
 11
1427.7574
 21
848.89598999999998
  0
LINE
  8
_0-0_
  6
CONTINUOUS
 62
    7
 10
1421.1229000000001
 20
859.28480999999999
 11
1427.7574
 21
848.89598999999998
  0
LINE
  8
_0-0_
  6
CONTINUOUS
 62
    7
 10
1446.3916999999999
 20
859.28480999999999
 11
1439.7574
 21
848.89598999999998
  0
LINE
  8
_0-0_
  6
CONTINUOUS
 62
    7
 10
1429.7572
 20
848.89598999999998
 11
1429.7572
 21
777.71187999999995
  0
LINE
  8
_0-0_
  6
CONTINUOUS
 62
    7
 10
1437.7573
 20
848.89598999999998
 11
1437.7573
 21
777.71187999999995
  0
ARC
  8
_0-0_
  6
CONTINUOUS
 62
    7
 10
573.45341000000008
 20
1093.6228799999999
 40
5
 50
0
 51
90
  0
ARC
  8
_0-0_
  6
CONTINUOUS
 62
    7
 10
594.45337999999992
 20
1093.6228799999999
 40
5
 50
90
 51
180
  0
ARC
  8
_0-0_
  6
CONTINUOUS
 62
    7
 10
1033.45335
 20
1093.6228799999999
 40
5
 50
0
 51
90
  0
ARC
  8
_0-0_
  6
CONTINUOUS
 62
    7
 10
1054.4533799999999
 20
1093.6228799999999
 40
5
 50
90
 51
180
  0
CIRCLE
  8
_0-0_
  6
CONTINUOUS
 62
    7
 10
583.95339999999999
 20
698.62288000000001
 40
10
  0
CIRCLE
  8
_0-0_
  6
CONTINUOUS
 62
    7
 10
583.95339999999999
 20
698.62288000000001
 40
15
  0
CIRCLE
  8
_0-0_
  6
CONTINUOUS
 62
    7
 10
583.95339999999999
 20
698.62288000000001
 40
20
  0
ARC
  8
_0-0_
  6
CONTINUOUS
 62
    7
 10
583.95339999999999
 20
699.62284
 40
30
 50
90
 51
180
  0
ARC
  8
_0-0_
  6
CONTINUOUS
 62
    7
 10
583.95339999999999
 20
699.62284
 40
30
 50
0
 51
90
  0
CIRCLE
  8
_0-0_
  6
CONTINUOUS
 62
    7
 10
1043.9533999999999
 20
698.62288000000001
 40
10
  0
CIRCLE
  8
_0-0_
  6
CONTINUOUS
 62
    7
 10
1043.9533999999999
 20
698.62288000000001
 40
15
  0
CIRCLE
  8
_0-0_
  6
CONTINUOUS
 62
    7
 10
1043.9533999999999
 20
698.62288000000001
 40
20
  0
ARC
  8
_0-0_
  6
CONTINUOUS
 62
    7
 10
1043.9533999999999
 20
699.62284
 40
30
 50
90
 51
180
  0
ARC
  8
_0-0_
  6
CONTINUOUS
 62
    7
 10
1043.9533999999999
 20
699.62284
 40
30
 50
0
 51
90
  0
ARC
  8
_0-0_
  6
CONTINUOUS
 62
    7
 10
1475.2462
 20
857.71184000000005
 40
20
 50
2.8623962000000001
 51
90
  0
ARC
  8
_0-0_
  6
CONTINUOUS
 62
    7
 10
1470.4899
 20
852.71187999999995
 40
20
 50
2.8623962000000001
 51
90
  0
ARC
  8
_0-0_
  6
CONTINUOUS
 62
    7
 10
1413.3248000000001
 20
867.71186999999998
 40
10
 50
90
 51
134.13193999999999
  0
ARC
  8
_0-0_
  6
CONTINUOUS
 62
    7
 10
1351.9156
 20
808.13571999999999
 40
10
 50
134.13193999999999
 51
175.1009
  0
ARC
  8
_0-0_
  6
CONTINUOUS
 62
    7
 10
1415.3516
 20
862.71190999999999
 40
10
 50
90
 51
134.13191
  0
ARC
  8
_0-0_
  6
CONTINUOUS
 62
    7
 10
1356.7378000000001
 20
805.84776999999997
 40
10
 50
134.13191
 51
175.10092
  0
ARC
  8
_0-0_
  6
CONTINUOUS
 62
    7
 10
1414.6757
 20
839.32248000000004
 40
5
 50
90
 51
180
  0
ARC
  8
_0-0_
  6
CONTINUOUS
 62
    7
 10
1419.6758
 20
834.32245999999998
 40
5
 50
90
 51
180
  0
ARC
  8
_0-0_
  6
CONTINUOUS
 62
    7
 10
1414.6757
 20
819.32254
 40
5
 50
180
 51
270
  0
ARC
  8
_0-0_
  6
CONTINUOUS
 62
    7
 10
1454.6757
 20
819.32254
 40
5
 50
270
 51
0
  0
ARC
  8
_0-0_
  6
CONTINUOUS
 62
    7
 10
1449.6757
 20
824.32249000000002
 40
5
 50
270
 51
0
  0
ARC
  8
_0-0_
  6
CONTINUOUS
 62
    7
 10
1449.6757
 20
834.32245999999998
 40
5
 50
0
 51
90
  0
ARC
  8
_0-0_
  6
CONTINUOUS
 62
    7
 10
1454.6757
 20
839.32248000000004
 40
5
 50
0
 51
90
  0
ARC
  8
_0-0_
  6
CONTINUOUS
 62
    7
 10
1419.6758
 20
824.32249000000002
 40
5
 50
180
 51
270
  0
POINT
  8
_0-0_
 62
    7
 10
513.95337999999992
 20
973.47457999999995
  0
POINT
  8
_0-0_
 62
    7
 10
583.95339999999999
 20
973.47457999999995
  0
POINT
  8
_0-0_
 62
    7
 10
1043.9533999999999
 20
973.47457999999995
  0
POINT
  8
_0-0_
 62
    7
 10
1113.9533799999999
 20
973.47457999999995
  0
POINT
  8
_0-0_
 62
    7
 10
513.95337999999992
 20
944.55511000000001
  0
POINT
  8
_0-0_
 62
    7
 10
1113.9533799999999
 20
944.55511000000001
  0
POINT
  8
_0-0_
 62
    7
 10
1178.1378999999999
 20
1113.6228000000001
  0
POINT
  8
_0-0_
 62
    7
 10
1178.1378999999999
 20
1013.6228599999999
  0
POINT
  8
_0-0_
 62
    7
 10
513.95337999999992
 20
803.57726000000002
  0
POINT
  8
_0-0_
 62
    7
 10
583.95339999999999
 20
803.57726000000002
  0
POINT
  8
_0-0_
 62
    7
 10
1043.9533999999999
 20
803.57726000000002
  0
POINT
  8
_0-0_
 62
    7
 10
1113.9533799999999
 20
803.57726000000002
  0
POINT
  8
_0-0_
 62
    7
 10
513.95337999999992
 20
840.11311000000001
  0
POINT
  8
_0-0_
 62
    7
 10
1113.9533799999999
 20
840.11311000000001
  0
POINT
  8
_0-0_
 62
    7
 10
1148.3535000000002
 20
763.62284
  0
POINT
  8
_0-0_
 62
    7
 10
1148.3535000000002
 20
698.62288000000001
  0
POINT
  8
_0-0_
 62
    7
 10
1148.3535000000002
 20
603.62286999999992
  0
POINT
  8
_0-0_
 62
    7
 10
1178.1378999999999
 20
763.62284
  0
POINT
  8
_0-0_
 62
    7
 10
1178.1378999999999
 20
603.62286999999992
  0
POINT
  8
_0-0_
 62
    7
 10
1559.0517
 20
777.46214999999995
  0
POINT
  8
_0-0_
 62
    7
 10
1559.0517
 20
877.71184000000005
  0
POINT
  8
_0-0_
 62
    7
 10
1339.2711999999999
 20
745.36122999999998
  0
POINT
  8
_0-0_
 62
    7
 10
1434.2710999999999
 20
745.36122999999998
  0
POINT
  8
_0-0_
 62
    7
 10
1499.2710999999999
 20
745.36122999999998
  0
POINT
  8
_0-0_
 62
    7
 10
1339.2711999999999
 20
727.58348000000001
  0
POINT
  8
_0-0_
 62
    7
 10
1499.2710999999999
 20
727.58348000000001
  0
POINT
  8
_0-0_
 62
    7
 10
1339.2711999999999
 20
909.22577999999999
  0
POINT
  8
_0-0_
 62
    7
 10
1409.2711999999999
 20
909.22577999999999
  0
POINT
  8
_0-0_
 62
    7
 10
1499.2710999999999
 20
909.22577999999999
  0
POINT
  8
_0-0_
 62
    7
 10
1499.2710999999999
 20
896.08573000000001
  0
POINT
  8
_0-0_
 62
    7
 10
1494.2773999999999
 20
896.08573000000001
  0
POINT
  8
_0-0_
 62
    7
 10
1283.1099999999999
 20
877.71184000000005
  0
POINT
  8
_0-0_
 62
    7
 10
1283.1099999999999
 20
812.71186999999998
  0
POINT
  8
_0-0_
 62
    7
 10
1283.1099999999999
 20
777.71187999999995
  0
POINT
  8
_0-0_
 62
    7
 10
1339.2711999999999
 20
896.08573000000001
  0
POINT
  8
_0-0_
 62
    7
 10
1343.0241000000001
 20
896.08573000000001
  0
LINE
  8
_0-0_
  6
CONTINUOUS
 62
    7
 10
316.70762000000002
 20
1344.4491
 11
316.70762000000002
 21
344.44914
  0
LINE
  8
_0-0_
  6
CONTINUOUS
 62
    7
 10
1716.7076
 20
1344.4491
 11
316.70762000000002
 21
1344.4491
  0
LINE
  8
_0-0_
  6
CONTINUOUS
 62
    7
 10
1716.7076
 20
344.44914
 11
1716.7076
 21
1344.4491
  0
LINE
  8
_0-0_
  6
CONTINUOUS
 62
    7
 10
316.70758999999998
 20
394.44914999999997
 11
1716.7076
 21
394.44914999999997
  0
LINE
  8
_0-0_
  6
CONTINUOUS
 62
    7
 10
316.70762000000002
 20
344.44914
 11
1716.7076
 21
344.44914
  0
LINE
  8
_0-0_
  6
CONTINUOUS
 62
    7
 10
1363.6943000000001
 20
394.44914999999997
 11
1363.6943000000001
 21
344.44914
  0
LINE
  8
_0-0_
  6
CONTINUOUS
 62
    7
 10
1271.0962999999999
 20
394.44914999999997
 11
1271.0962999999999
 21
344.44914
  0
LINE
  8
_0-0_
  6
CONTINUOUS
 62
    7
 10
316.70758999999998
 20
344.44914
 11
1716.7076
 21
344.44914
  0
LINE
  8
_0-0_
  6
CONTINUOUS
 62
    7
 10
1159.6649
 20
394.44914999999997
 11
1159.6649
 21
344.44914
  0
LINE
  8
_0-0_
  6
CONTINUOUS
 62
    7
 10
1059.2196300000001
 20
394.44914999999997
 11
1059.2196300000001
 21
344.44914
  0
LINE
  8
_0-0_
  6
CONTINUOUS
 62
    7
 10
982.31619999999998
 20
394.44914999999997
 11
982.31619999999998
 21
344.44914
  0
LINE
  8
_0-0_
  6
CONTINUOUS
 62
    7
 10
885.00986999999998
 20
394.44914999999997
 11
885.00986999999998
 21
344.44914
  0
LINE
  8
_0-0_
  6
CONTINUOUS
 62
    7
 10
803.39809000000002
 20
394.44914999999997
 11
803.39809000000002
 21
344.44914
  0
LINE
  8
_0-0_
  6
CONTINUOUS
 62
    7
 10
406.32535000000007
 20
394.44914999999997
 11
406.32535000000007
 21
344.44914
  0
ENDSEC
  0
EOF
