  0
SECTION
  2
HEADER
  9
$ACADVER
  1
AC1009
  9
$INSBASE
 10
0
 20
0
 30
0
  9
$EXTMIN
 10
0
 20
0
  9
$EXTMAX
 10
2376
 20
1680
  9
$LIMMIN
 10
0
 20
0
  9
$LIMMAX
 10
2376
 20
1680
  9
$LTSCALE
 40
4
  0
ENDSEC
  0
SECTION
  2
TABLES
  0
TABLE
  2
LTYPE
 70
     9
  0
LTYPE
  2
CONTINUOUS
 70
    64
  3
実線
 72
    65
 73
     0
 40
0.0
  0
LTYPE
  2
DASHED1
 70
    64
  3
--  --  --  --  --  --  --  --  
 72
    65
 73
     2
 40
2.5
 49
1.25
 49
-1.25
  0
LTYPE
  2
DASHED2
 70
    64
  3
----    ----    ----    ----    
 72
    65
 73
     2
 40
5.0
 49
2.5
 49
-2.5
  0
LTYPE
  2
DASHED3
 70
    64
  3
------  ------  ------  ------  
 72
    65
 73
     2
 40
5.0
 49
3.75
 49
-1.25
  0
LTYPE
  2
CENTER1
 70
    64
  3
----- - ----- - ----- - ----- - 
 72
    65
 73
     4
 40
10.0
 49
6.25
 49
-1.25
 49
1.25
 49
-1.25
  0
LTYPE
  2
CENTER2
 70
    64
  3
----------  --  ----------  --  
 72
    65
 73
     4
 40
20.0
 49
12.5
 49
-2.5
 49
2.5
 49
-2.5
  0
LTYPE
  2
PHANTOM1
 70
    64
  3
--- - - --- - - --- - - --- - - 
 72
    65
 73
     6
 40
10.0
 49
3.25
 49
-1.25
 49
1.25
 49
-1.25
 49
1.25
 49
-1.25
  0
LTYPE
  2
PHANTOM2
 70
    64
  3
--------  -  -  --------  -  -  
 72
    65
 73
     6
 40
20.0
 49
10.0
 49
-2.5
 49
1.25
 49
-2.5
 49
1.25
 49
-2.5
  0
LTYPE
  2
DOT
 70
    64
  3
-   -   -   -   -   -   -   -   
 72
    65
 73
     2
 40
2.5
 49
0.625
 49
-1.875
  0
LTYPE
  2
DUMMY
 70
    64
  3
ダミー
 72
    65
 73
     0
 40
0.0
  0
LTYPE
  2
RAND1
 70
    64
  3
ランダム線1
 72
    65
 73
     4
 40
10.0
 49
1.0
 49
-2.0
 49
3.0
 49
-4.0
  0
LTYPE
  2
RAND2
 70
    64
  3
ランダム線2
 72
    65
 73
     4
 40
14.0
 49
2.0
 49
-3.0
 49
4.0
 49
-5.0
  0
LTYPE
  2
RAND3
 70
    64
  3
ランダム線3
 72
    65
 73
     4
 40
18.0
 49
3.0
 49
-4.0
 49
5.0
 49
-6.0
  0
LTYPE
  2
RAND4
 70
    64
  3
ランダム線4
 72
    65
 73
     4
 40
22.0
 49
4.0
 49
-5.0
 49
6.0
 49
-7.0
  0
LTYPE
  2
RAND5
 70
    64
  3
ランダム線5
 72
    65
 73
     4
 40
26.0
 49
5.0
 49
-6.0
 49
7.0
 49
-8.0
  0
LTYPE
  2
LONG1
 70
    64
  3
----------  --  ----------  --  
 72
    65
 73
     4
 40
40.0
 49
32.5
 49
-2.5
 49
2.5
 49
-2.5
  0
LTYPE
  2
LONG2
 70
    64
  3
--------  -  -  --------  -  -  
 72
    65
 73
     6
 40
40.0
 49
30.0
 49
-2.5
 49
1.25
 49
-2.5
 49
1.25
 49
-2.5
  0
LTYPE
  2
LONG3
 70
    64
  3
+++++++++++++++..+++++++++++++++
 72
    65
 73
     2
 40
40.0
 49
37.5
 49
-2.5
  0
LTYPE
  2
LONG4
 70
    64
  3
+++++++++++++++..+++++++++++++++
 72
    65
 73
     2
 40
80.0
 49
75.0
 49
-5.0
  0
LTYPE
  2
LONG5
 70
    64
  3
----------  --  ----------  --  
 72
    65
 73
     4
 40
60.0
 49
37.5
 49
-7.5
 49
7.5
 49
-7.5
  0
LTYPE
  2
dashed
 70
   64
  3
-------   -------------   ------
 72
   65
 73
    2
 40
7.5
 49
6
 49
-1.5
  0
LTYPE
  2
dashed_spaced
 70
   64
  3
----        --------        ----
 72
   65
 73
    2
 40
12
 49
6
 49
-6
  0
LTYPE
  2
long_dashed_dotted
 70
   64
  3
------------- --- --------------
 72
   65
 73
    4
 40
15.25
 49
12
 49
-1.5
 49
0.25
 49
-1.5
  0
LTYPE
  2
long_dashed_double-dotted
 70
   64
  3
----------- --- --- ------------
 72
   65
 73
    6
 40
17
 49
12
 49
-1.5
 49
0.25
 49
-1.5
 49
0.25
 49
-1.5
  0
LTYPE
  2
long_dashed_triplicate-dotted
 70
   64
  3
--------- --- --- --- ----------
 72
   65
 73
    8
 40
18.75
 49
12
 49
-1.5
 49
0.25
 49
-1.5
 49
0.25
 49
-1.5
 49
0.25
 49
-1.5
  0
LTYPE
  2
dotted
 70
   64
  3
   -       -       -       -    
 72
   65
 73
    2
 40
1.75
 49
0.25
 49
-1.5
  0
LTYPE
  2
chain
 70
   64
  3
-------------- -- --------------
 72
   65
 73
    4
 40
18.5
 49
12
 49
-1.5
 49
3.5
 49
-1.5
  0
LTYPE
  2
chain_double_dash
 70
   64
  3
------------ -- -- -------------
 72
   65
 73
    6
 40
23.5
 49
12
 49
-1.5
 49
3.5
 49
-1.5
 49
3.5
 49
-1.5
  0
LTYPE
  2
dashed_dotted
 70
   64
  3
-----------     -     ----------
 72
   65
 73
    4
 40
9.25
 49
6
 49
-1.5
 49
0.25
 49
-1.5
  0
LTYPE
  2
double-dashed_dotted
 70
   64
  3
------   -----------   -   -----
 72
   65
 73
    6
 40
16.75
 49
6
 49
-1.5
 49
6
 49
-1.5
 49
0.25
 49
-1.5
  0
LTYPE
  2
dashed_double-dotted
 70
   64
  3
---------    -    -    ---------
 72
   65
 73
    6
 40
11
 49
6
 49
-1.5
 49
0.25
 49
-1.5
 49
0.25
 49
-1.5
  0
LTYPE
  2
double-dashed_double-dotted
 70
   64
  3
-----   ---------   -   -   ----
 72
   65
 73
    8
 40
18.5
 49
6
 49
-1.5
 49
6
 49
-1.5
 49
0.25
 49
-1.5
 49
0.25
 49
-1.5
  0
LTYPE
  2
dashed_triplicate-dotted
 70
   64
  3
-------    -    -    -    ------
 72
   65
 73
    8
 40
12.75
 49
6
 49
-1.5
 49
0.25
 49
-1.5
 49
0.25
 49
-1.5
 49
0.25
 49
-1.5
  0
LTYPE
  2
double-dashed_triplicate-dotted
 70
   64
  3
-----  ---------  -  -  -  -----
 72
   65
 73
   10
 40
20.25
 49
6
 49
-1.5
 49
6
 49
-1.5
 49
0.25
 49
-1.5
 49
0.25
 49
-1.5
 49
0.25
 49
-1.5
  0
LTYPE
  2
undefined
 70
   64
  3
--------------------------------
 72
   65
 73
    0
 40
0
  0
ENDTAB
  0
TABLE
  2
STYLE
  5
3
100
AcDbSymbolTable
 70
     1
  0
STYLE
  5
10
100
AcDbSymbolTableRecord
100
AcDbTextStyleTableRecord
  2
STANDARD
 70
     0
 40
0.0
 41
1.0
 50
0.0
 71
     0
 42
0.2
  3
txt
  4
bigfont.shx
  0
STYLE
  5
26
100
AcDbSymbolTableRecord
100
AcDbTextStyleTableRecord
  2
TATEGAKI
 70
    68
 40
0.0
 41
1.0
 50
0.0
 71
     0
 42
1.0
  3
txt
  4
bigfont.shx
  0
ENDTAB
  0
TABLE
  2
LAYER
 70
    2
  0
LAYER
  2
_0-0_
 70
   64
 62
    7
  6
CONTINUOUS
  0
LAYER
  2
ADD_LINE
 70
   64
 62
    7
  6
CONTINUOUS
  0
ENDTAB
  0
ENDSEC
  0
SECTION
  2
BLOCKS
  0
ENDSEC
  0
SECTION
  2
ENTITIES
  0
LINE
  8
_0-0_
  6
DASHED2
 62
    7
 10
1113.9533856366133
 20
733.62287366712417
 11
1098.9533980086042
 21
728.62285717113605
  0
LINE
  8
_0-0_
  6
CONTINUOUS
 62
    7
 10
519.95339924580344
 20
763.62284892314187
 11
519.95339924580344
 21
603.62287779112125
  0
LINE
  8
_0-0_
  6
CONTINUOUS
 62
    7
 10
554.95339099780927
 20
1069.6228934623102
 11
554.95339099780927
 21
1061.6228546967377
  0
LINE
  8
_0-0_
  6
CONTINUOUS
 62
    7
 10
722.95336996542437
 20
667.62287861592063
 11
722.95336996542437
 21
612.62288273991771
  0
LINE
  8
_0-0_
  6
CONTINUOUS
 62
    7
 10
513.95338563661335
 20
1013.6228695431272
 11
1113.9533856366133
 21
1013.6228695431272
  0
LINE
  8
_0-0_
  6
CONTINUOUS
 62
    7
 10
712.95339883340375
 20
1069.6228934623102
 11
712.95339883340375
 21
1061.6228546967377
  0
LINE
  8
_0-0_
  6
CONTINUOUS
 62
    7
 10
712.95339883340375
 20
1082.6228868639148
 11
712.95339883340375
 21
1074.6229099582981
  0
LINE
  8
_0-0_
  6
CONTINUOUS
 62
    7
 10
712.95339883340375
 20
1095.6228802655196
 11
712.95339883340375
 21
1087.6229033599029
  0
LINE
  8
_0-0_
  6
CONTINUOUS
 62
    7
 10
1113.9533856366133
 20
1107.6229074839
 11
1113.9533856366133
 21
1013.6228695431272
  0
LINE
  8
_0-0_
  6
CONTINUOUS
 62
    7
 10
1113.9533856366133
 20
1107.6229074839
 11
1107.9534029574008
 21
1113.6228901631123
  0
LINE
  8
_0-0_
  6
CONTINUOUS
 62
    7
 10
1107.9534029574008
 20
1113.6228901631123
 11
1107.9534029574008
 21
1013.6228695431272
  0
LINE
  8
_0-0_
  6
CONTINUOUS
 62
    7
 10
519.95339924580344
 20
1113.6228901631123
 11
519.95339924580344
 21
1013.6228695431272
  0
LINE
  8
_0-0_
  6
CONTINUOUS
 62
    7
 10
513.95338563661335
 20
1107.6229074839
 11
513.95338563661335
 21
1013.6228695431272
  0
LINE
  8
_0-0_
  6
CONTINUOUS
 62
    7
 10
519.95339924580344
 20
1113.6228901631123
 11
513.95338563661335
 21
1107.6229074839
  0
LINE
  8
_0-0_
  6
CONTINUOUS
 62
    7
 10
513.95338563661335
 20
1048.6228612951331
 11
1113.9533856366133
 21
1048.6228612951331
  0
LINE
  8
_0-0_
  6
CONTINUOUS
 62
    7
 10
722.95336996542437
 20
1058.6228942871094
 11
904.95340130780187
 21
1058.6228942871094
  0
LINE
  8
_0-0_
  6
CONTINUOUS
 62
    7
 10
513.95338563661335
 20
973.47458298141896
 11
583.95340007060281
 21
973.47458298141896
  0
LINE
  8
_0-0_
  6
CONTINUOUS
 62
    7
 10
513.95338563661335
 20
973.47458298141896
 11
513.95338563661335
 21
1000.1695045264992
  0
LINE
  8
_0-0_
  6
CONTINUOUS
 62
    7
 10
583.95340007060281
 20
973.47458298141896
 11
583.95340007060281
 21
1000.1695045264992
  0
LINE
  8
_0-0_
  6
CONTINUOUS
 62
    7
 10
583.95340007060281
 20
973.47458298141896
 11
1043.9534021326015
 21
973.47458298141896
  0
LINE
  8
_0-0_
  6
CONTINUOUS
 62
    7
 10
1043.9534021326015
 20
973.47458298141896
 11
1043.9534021326015
 21
1000.1695045264992
  0
LINE
  8
_0-0_
  6
CONTINUOUS
 62
    7
 10
1043.9534021326015
 20
973.47458298141896
 11
1113.9533856366133
 21
973.47458298141896
  0
LINE
  8
_0-0_
  6
CONTINUOUS
 62
    7
 10
1113.9533856366133
 20
973.47458298141896
 11
1113.9533856366133
 21
1000.1695045264992
  0
LINE
  8
_0-0_
  6
CONTINUOUS
 62
    7
 10
513.95338563661335
 20
944.55511557089324
 11
1113.9533856366133
 21
944.55511557089324
  0
LINE
  8
_0-0_
  6
CONTINUOUS
 62
    7
 10
513.95338563661335
 20
944.55511557089324
 11
513.95338563661335
 21
1000.1695045264992
  0
LINE
  8
_0-0_
  6
CONTINUOUS
 62
    7
 10
1113.9533856366133
 20
944.55511557089324
 11
1113.9533856366133
 21
1000.1695045264992
  0
LINE
  8
_0-0_
  6
CONTINUOUS
 62
    7
 10
722.95336996542437
 20
1153.6652106207771
 11
904.95340130780187
 21
1153.6652106207771
  0
LINE
  8
_0-0_
  6
CONTINUOUS
 62
    7
 10
722.95336996542437
 20
1153.6652106207771
 11
722.95336996542437
 21
1122.5211973448058
  0
LINE
  8
_0-0_
  6
CONTINUOUS
 62
    7
 10
904.95340130780187
 20
1153.6652106207771
 11
904.95340130780187
 21
1122.5211973448058
  0
LINE
  8
_0-0_
  6
CONTINUOUS
 62
    7
 10
519.95339924580344
 20
1113.6228901631123
 11
1063.9534062565986
 21
1113.6228901631123
  0
LINE
  8
_0-0_
  6
CONTINUOUS
 62
    7
 10
519.95339924580344
 20
1113.6228901631123
 11
1107.9534029574008
 21
1113.6228901631123
  0
LINE
  8
_0-0_
  6
CONTINUOUS
 62
    7
 10
622.9533802754172
 20
1108.6228736671242
 11
712.95339883340375
 21
1108.6228736671242
  0
LINE
  8
_0-0_
  6
CONTINUOUS
 62
    7
 10
914.95337243982272
 20
1108.6228736671242
 11
1004.9533600678315
 21
1108.6228736671242
  0
LINE
  8
_0-0_
  6
CONTINUOUS
 62
    7
 10
622.9533802754172
 20
1100.6228967615075
 11
712.95339883340375
 21
1100.6228967615075
  0
LINE
  8
_0-0_
  6
CONTINUOUS
 62
    7
 10
914.95337243982272
 20
1100.6228967615075
 11
1004.9533600678315
 21
1100.6228967615075
  0
LINE
  8
_0-0_
  6
CONTINUOUS
 62
    7
 10
622.9533802754172
 20
1108.6228736671242
 11
622.9533802754172
 21
1100.6228967615075
  0
LINE
  8
_0-0_
  6
CONTINUOUS
 62
    7
 10
712.95339883340375
 20
1108.6228736671242
 11
712.95339883340375
 21
1100.6228967615075
  0
LINE
  8
_0-0_
  6
CONTINUOUS
 62
    7
 10
914.95337243982272
 20
1108.6228736671242
 11
914.95337243982272
 21
1100.6228967615075
  0
LINE
  8
_0-0_
  6
CONTINUOUS
 62
    7
 10
1004.9533600678315
 20
1108.6228736671242
 11
1004.9533600678315
 21
1100.6228967615075
  0
LINE
  8
_0-0_
  6
CONTINUOUS
 62
    7
 10
914.95337243982272
 20
1095.6228802655196
 11
914.95337243982272
 21
1087.6229033599029
  0
LINE
  8
_0-0_
  6
CONTINUOUS
 62
    7
 10
914.95337243982272
 20
1082.6228868639148
 11
914.95337243982272
 21
1074.6229099582981
  0
LINE
  8
_0-0_
  6
CONTINUOUS
 62
    7
 10
914.95337243982272
 20
1069.6228934623102
 11
914.95337243982272
 21
1061.6228546967377
  0
LINE
  8
_0-0_
  6
CONTINUOUS
 62
    7
 10
722.95336996542437
 20
1108.6228736671242
 11
904.95340130780187
 21
1108.6228736671242
  0
LINE
  8
_0-0_
  6
CONTINUOUS
 62
    7
 10
722.95336996542437
 20
1108.6228736671242
 11
722.95336996542437
 21
1058.6228942871094
  0
LINE
  8
_0-0_
  6
CONTINUOUS
 62
    7
 10
904.95340130780187
 20
1108.6228736671242
 11
904.95340130780187
 21
1058.6228942871094
  0
LINE
  8
_0-0_
  6
CONTINUOUS
 62
    7
 10
722.95336996542437
 20
1108.6228736671242
 11
725.95339223500844
 21
1103.622857171136
  0
LINE
  8
_0-0_
  6
CONTINUOUS
 62
    7
 10
904.95340130780187
 20
1108.6228736671242
 11
901.95337903821792
 21
1103.622857171136
  0
LINE
  8
_0-0_
  6
CONTINUOUS
 62
    7
 10
725.95339223500844
 20
1103.622857171136
 11
901.95337903821792
 21
1103.622857171136
  0
LINE
  8
_0-0_
  6
CONTINUOUS
 62
    7
 10
725.95339223500844
 20
1103.622857171136
 11
901.95337903821792
 21
1103.622857171136
  0
LINE
  8
_0-0_
  6
CONTINUOUS
 62
    7
 10
725.95339223500844
 20
1103.622857171136
 11
901.95337903821792
 21
1103.622857171136
  0
LINE
  8
_0-0_
  6
CONTINUOUS
 62
    7
 10
558.9533794506176
 20
1113.6228901631123
 11
562.70339182260886
 21
1098.6229025351035
  0
LINE
  8
_0-0_
  6
CONTINUOUS
 62
    7
 10
608.95338976061021
 20
1113.6228901631123
 11
605.20340831859698
 21
1098.6229025351035
  0
LINE
  8
_0-0_
  6
CONTINUOUS
 62
    7
 10
573.45341491699219
 20
1098.6229025351035
 11
562.70339182260886
 21
1098.6229025351035
  0
LINE
  8
_0-0_
  6
CONTINUOUS
 62
    7
 10
594.45338522421343
 20
1098.6229025351035
 11
605.20340831859698
 21
1098.6229025351035
  0
LINE
  8
_0-0_
  6
CONTINUOUS
 62
    7
 10
1068.9533608926311
 20
1113.6228901631123
 11
1065.2034103805954
 21
1098.6229025351035
  0
LINE
  8
_0-0_
  6
CONTINUOUS
 62
    7
 10
1018.9533815126161
 20
1113.6228901631123
 11
1022.7033938846073
 21
1098.6229025351035
  0
LINE
  8
_0-0_
  6
CONTINUOUS
 62
    7
 10
1033.4533551190352
 20
1098.6229025351035
 11
1022.7033938846073
 21
1098.6229025351035
  0
LINE
  8
_0-0_
  6
CONTINUOUS
 62
    7
 10
1054.4533872862119
 20
1098.6229025351035
 11
1065.2034103805954
 21
1098.6229025351035
  0
LINE
  8
_0-0_
  6
CONTINUOUS
 62
    7
 10
554.95339099780927
 20
1087.6229033599029
 11
712.95339883340375
 21
1087.6229033599029
  0
LINE
  8
_0-0_
  6
CONTINUOUS
 62
    7
 10
554.95339099780927
 20
1095.6228802655196
 11
712.95339883340375
 21
1095.6228802655196
  0
LINE
  8
_0-0_
  6
CONTINUOUS
 62
    7
 10
554.95339099780927
 20
1082.6228868639148
 11
712.95339883340375
 21
1082.6228868639148
  0
LINE
  8
_0-0_
  6
CONTINUOUS
 62
    7
 10
554.95339099780927
 20
1074.6229099582981
 11
712.95339883340375
 21
1074.6229099582981
  0
LINE
  8
_0-0_
  6
CONTINUOUS
 62
    7
 10
554.95339099780927
 20
1069.6228934623102
 11
712.95339883340375
 21
1069.6228934623102
  0
LINE
  8
_0-0_
  6
CONTINUOUS
 62
    7
 10
554.95339099780927
 20
1061.6228546967377
 11
712.95339883340375
 21
1061.6228546967377
  0
LINE
  8
_0-0_
  6
CONTINUOUS
 62
    7
 10
554.95339099780927
 20
1095.6228802655196
 11
554.95339099780927
 21
1087.6229033599029
  0
LINE
  8
_0-0_
  6
CONTINUOUS
 62
    7
 10
554.95339099780927
 20
1082.6228868639148
 11
554.95339099780927
 21
1074.6229099582981
  0
LINE
  8
_0-0_
  6
CONTINUOUS
 62
    7
 10
914.95337243982272
 20
1095.6228802655196
 11
1072.9534112053948
 21
1095.6228802655196
  0
LINE
  8
_0-0_
  6
CONTINUOUS
 62
    7
 10
914.95337243982272
 20
1087.6229033599029
 11
1072.9534112053948
 21
1087.6229033599029
  0
LINE
  8
_0-0_
  6
CONTINUOUS
 62
    7
 10
914.95337243982272
 20
1082.6228868639148
 11
1072.9534112053948
 21
1082.6228868639148
  0
LINE
  8
_0-0_
  6
CONTINUOUS
 62
    7
 10
914.95337243982272
 20
1074.6229099582981
 11
1072.9534112053948
 21
1074.6229099582981
  0
LINE
  8
_0-0_
  6
CONTINUOUS
 62
    7
 10
914.95337243982272
 20
1061.6228546967377
 11
1072.9534112053948
 21
1061.6228546967377
  0
LINE
  8
_0-0_
  6
CONTINUOUS
 62
    7
 10
914.95337243982272
 20
1069.6228934623102
 11
1072.9534112053948
 21
1069.6228934623102
  0
LINE
  8
_0-0_
  6
CONTINUOUS
 62
    7
 10
1072.9534112053948
 20
1095.6228802655196
 11
1072.9534112053948
 21
1087.6229033599029
  0
LINE
  8
_0-0_
  6
CONTINUOUS
 62
    7
 10
1072.9534112053948
 20
1082.6228868639148
 11
1072.9534112053948
 21
1074.6229099582981
  0
LINE
  8
_0-0_
  6
CONTINUOUS
 62
    7
 10
1072.9534112053948
 20
1069.6228934623102
 11
1072.9534112053948
 21
1061.6228546967377
  0
LINE
  8
_0-0_
  6
CONTINUOUS
 62
    7
 10
578.4534004830025
 20
1093.6228860391157
 11
578.4534004830025
 21
1061.6228546967377
  0
LINE
  8
_0-0_
  6
CONTINUOUS
 62
    7
 10
589.45339965820312
 20
1093.6228860391157
 11
589.45339965820312
 21
1061.6228546967377
  0
LINE
  8
_0-0_
  6
CONTINUOUS
 62
    7
 10
1038.4533716150233
 20
1093.6228860391157
 11
1038.4533716150233
 21
1061.6228546967377
  0
LINE
  8
_0-0_
  6
CONTINUOUS
 62
    7
 10
1049.4533707902237
 20
1093.6228860391157
 11
1049.4533707902237
 21
1061.6228546967377
  0
LINE
  8
_0-0_
  6
CONTINUOUS
 62
    7
 10
578.4534004830025
 20
1048.6228612951331
 11
578.4534004830025
 21
1035.1476597141575
  0
LINE
  8
_0-0_
  6
CONTINUOUS
 62
    7
 10
578.4534004830025
 20
1029.0936732936552
 11
578.4534004830025
 21
1013.6228695431272
  0
LINE
  8
_0-0_
  6
CONTINUOUS
 62
    7
 10
589.45339965820312
 20
1048.6228612951331
 11
589.45339965820312
 21
1034.2827956740919
  0
LINE
  8
_0-0_
  6
CONTINUOUS
 62
    7
 10
589.45339965820312
 20
1027.3640070734796
 11
589.45339965820312
 21
1013.6228695431272
  0
LINE
  8
_0-0_
  6
CONTINUOUS
 62
    7
 10
1038.4533716150233
 20
1048.6228612951331
 11
1038.4533716150233
 21
1035.1476597141575
  0
LINE
  8
_0-0_
  6
CONTINUOUS
 62
    7
 10
1038.4533716150233
 20
1028.2288711135452
 11
1038.4533716150233
 21
1013.6228695431272
  0
LINE
  8
_0-0_
  6
CONTINUOUS
 62
    7
 10
1049.4533707902237
 20
1048.6228612951331
 11
1049.4533707902237
 21
1036.0125237542229
  0
LINE
  8
_0-0_
  6
CONTINUOUS
 62
    7
 10
1049.4533707902237
 20
1029.0936732936552
 11
1049.4533707902237
 21
1013.6228695431272
  0
LINE
  8
_0-0_
  6
CONTINUOUS
 62
    7
 10
725.95339223500844
 20
1103.622857171136
 11
725.95339223500844
 21
1053.6228777911213
  0
LINE
  8
_0-0_
  6
CONTINUOUS
 62
    7
 10
901.95337903821792
 20
1103.622857171136
 11
901.95337903821792
 21
1053.6228777911213
  0
LINE
  8
_0-0_
  6
DASHED3
 62
    7
 10
725.95339223500844
 20
1053.6228777911213
 11
901.95337903821792
 21
1053.6228777911213
  0
LINE
  8
_0-0_
  6
DASHED2
 62
    7
 10
513.95338563661335
 20
1078.6228365511508
 11
529.95340130780187
 21
1068.62286541913
  0
LINE
  8
_0-0_
  6
DASHED2
 62
    7
 10
529.95340130780187
 20
1068.62286541913
 11
529.95340130780187
 21
1048.6228612951331
  0
LINE
  8
_0-0_
  6
DASHED2
 62
    7
 10
529.95340130780187
 20
1048.6228612951331
 11
513.95338563661335
 21
1038.6228901631125
  0
LINE
  8
_0-0_
  6
DASHED2
 62
    7
 10
1097.95343182538
 20
1068.62286541913
 11
1097.95343182538
 21
1048.6228612951331
  0
LINE
  8
_0-0_
  6
DASHED2
 62
    7
 10
1113.9533856366133
 20
1078.6228365511508
 11
1097.95343182538
 21
1068.62286541913
  0
LINE
  8
_0-0_
  6
DASHED2
 62
    7
 10
1097.95343182538
 20
1048.6228612951331
 11
1113.9533856366133
 21
1038.6228901631125
  0
LINE
  8
_0-0_
  6
CONTINUOUS
 62
    7
 10
1178.1379147091429
 20
1113.6228901631123
 11
1178.1379147091429
 21
1013.6228695431272
  0
LINE
  8
_0-0_
  6
CONTINUOUS
 62
    7
 10
1178.1379147091429
 20
1113.6228901631123
 11
1121.9225562843117
 21
1113.6228901631123
  0
LINE
  8
_0-0_
  6
CONTINUOUS
 62
    7
 10
1178.1379147091429
 20
1013.6228695431272
 11
1121.9225562843117
 21
1013.6228695431272
  0
LINE
  8
_0-0_
  6
CONTINUOUS
 62
    7
 10
1111.5443115234375
 20
1110.3897177206502
 11
1167.9788397711677
 21
1153.6652106207771
  0
LINE
  8
_0-0_
  6
CONTINUOUS
 62
    7
 10
1111.5443115234375
 20
1110.3897177206502
 11
1118.4157772579711
 21
1121.2077867662583
  0
LINE
  8
_0-0_
  6
CONTINUOUS
 62
    7
 10
513.95338563661335
 20
603.62287779112125
 11
1113.9533856366133
 21
603.62287779112125
  0
LINE
  8
_0-0_
  6
CONTINUOUS
 62
    7
 10
513.95338563661335
 20
673.62286129513313
 11
1113.9533856366133
 21
673.62286129513313
  0
LINE
  8
_0-0_
  6
CONTINUOUS
 62
    7
 10
583.95340007060281
 20
763.62284892314187
 11
583.95340007060281
 21
603.62287779112125
  0
LINE
  8
_0-0_
  6
CONTINUOUS
 62
    7
 10
513.95338563661335
 20
803.57726638381553
 11
583.95340007060281
 21
803.57726638381553
  0
LINE
  8
_0-0_
  6
CONTINUOUS
 62
    7
 10
513.95338563661335
 20
803.57726638381553
 11
513.95338563661335
 21
771.33975467166397
  0
LINE
  8
_0-0_
  6
CONTINUOUS
 62
    7
 10
583.95340007060281
 20
803.57726638381553
 11
583.95340007060281
 21
771.33975467166397
  0
LINE
  8
_0-0_
  6
CONTINUOUS
 62
    7
 10
583.95340007060281
 20
803.57726638381553
 11
1043.9534021326015
 21
803.57726638381553
  0
LINE
  8
_0-0_
  6
CONTINUOUS
 62
    7
 10
1043.9534021326015
 20
803.57726638381553
 11
1043.9534021326015
 21
771.33975467166397
  0
LINE
  8
_0-0_
  6
CONTINUOUS
 62
    7
 10
1043.9534021326015
 20
803.57726638381553
 11
1113.9533856366133
 21
803.57726638381553
  0
LINE
  8
_0-0_
  6
CONTINUOUS
 62
    7
 10
1113.9533856366133
 20
803.57726638381553
 11
1113.9533856366133
 21
771.33975467166397
  0
LINE
  8
_0-0_
  6
CONTINUOUS
 62
    7
 10
513.95338563661335
 20
840.11311711491771
 11
1113.9533856366133
 21
840.11311711491771
  0
LINE
  8
_0-0_
  6
CONTINUOUS
 62
    7
 10
513.95338563661335
 20
840.11311711491771
 11
513.95338563661335
 21
771.33975467166397
  0
LINE
  8
_0-0_
  6
CONTINUOUS
 62
    7
 10
1113.9533856366133
 20
840.11311711491771
 11
1113.9533856366133
 21
771.33975467166397
  0
LINE
  8
_0-0_
  6
CONTINUOUS
 62
    7
 10
1148.3535213985961
 20
763.62284892314187
 11
1148.3535213985961
 21
698.62288191511834
  0
LINE
  8
_0-0_
  6
CONTINUOUS
 62
    7
 10
1148.3535213985961
 20
763.62284892314187
 11
1121.9225562843117
 21
763.62284892314187
  0
LINE
  8
_0-0_
  6
CONTINUOUS
 62
    7
 10
1148.3535213985961
 20
698.62288191511834
 11
1121.9225562843117
 21
698.62288191511834
  0
LINE
  8
_0-0_
  6
CONTINUOUS
 62
    7
 10
1148.3535213985961
 20
698.62288191511834
 11
1148.3535213985961
 21
603.62287779112125
  0
LINE
  8
_0-0_
  6
CONTINUOUS
 62
    7
 10
1148.3535213985961
 20
603.62287779112125
 11
1121.9225562843117
 21
603.62287779112125
  0
LINE
  8
_0-0_
  6
CONTINUOUS
 62
    7
 10
1178.1379147091429
 20
763.62284892314187
 11
1178.1379147091429
 21
603.62287779112125
  0
LINE
  8
_0-0_
  6
CONTINUOUS
 62
    7
 10
1178.1379147091429
 20
763.62284892314187
 11
1121.9225562843117
 21
763.62284892314187
  0
LINE
  8
_0-0_
  6
CONTINUOUS
 62
    7
 10
1178.1379147091429
 20
603.62287779112125
 11
1121.9225562843117
 21
603.62287779112125
  0
LINE
  8
_0-0_
  6
CONTINUOUS
 62
    7
 10
1107.9534029574008
 20
763.62284892314187
 11
1107.9534029574008
 21
603.62287779112125
  0
LINE
  8
_0-0_
  6
CONTINUOUS
 62
    7
 10
513.95338563661335
 20
757.62286624392959
 11
513.95338563661335
 21
603.62287779112125
  0
LINE
  8
_0-0_
  6
CONTINUOUS
 62
    7
 10
519.95339924580344
 20
763.62284892314187
 11
513.95338563661335
 21
757.62286624392959
  0
LINE
  8
_0-0_
  6
CONTINUOUS
 62
    7
 10
1107.9534029574008
 20
763.62284892314187
 11
519.95339924580344
 21
763.62284892314187
  0
LINE
  8
_0-0_
  6
CONTINUOUS
 62
    7
 10
1113.9533856366133
 20
757.62286624392959
 11
1113.9533856366133
 21
603.62287779112125
  0
LINE
  8
_0-0_
  6
CONTINUOUS
 62
    7
 10
1107.9534029574008
 20
763.62284892314187
 11
1113.9533856366133
 21
757.62286624392959
  0
LINE
  8
_0-0_
  6
CONTINUOUS
 62
    7
 10
519.95339924580344
 20
757.62286624392959
 11
1107.9534029574008
 21
757.62286624392959
  0
LINE
  8
_0-0_
  6
CONTINUOUS
 62
    7
 10
722.95336996542437
 20
667.62287861592063
 11
904.95340130780187
 21
667.62287861592063
  0
LINE
  8
_0-0_
  6
CONTINUOUS
 62
    7
 10
722.95336996542437
 20
612.62288273991771
 11
904.95340130780187
 21
612.62288273991771
  0
LINE
  8
_0-0_
  6
CONTINUOUS
 62
    7
 10
904.95340130780187
 20
667.62287861592063
 11
904.95340130780187
 21
612.62288273991771
  0
LINE
  8
_0-0_
  6
CONTINUOUS
 62
    7
 10
901.95337903821792
 20
667.62287861592063
 11
901.95337903821792
 21
617.62289923590583
  0
LINE
  8
_0-0_
  6
CONTINUOUS
 62
    7
 10
725.95339223500844
 20
667.62287861592063
 11
725.95339223500844
 21
617.62289923590583
  0
LINE
  8
_0-0_
  6
CONTINUOUS
 62
    7
 10
725.95339223500844
 20
617.62289923590583
 11
722.95336996542437
 21
612.62288273991771
  0
LINE
  8
_0-0_
  6
CONTINUOUS
 62
    7
 10
901.95337903821792
 20
617.62289923590583
 11
904.95340130780187
 21
612.62288273991771
  0
LINE
  8
_0-0_
  6
CONTINUOUS
 62
    7
 10
712.95339883340375
 20
667.62287861592063
 11
712.95339883340375
 21
659.62283985034844
  0
LINE
  8
_0-0_
  6
CONTINUOUS
 62
    7
 10
712.95339883340375
 20
653.62285717113605
 11
712.95339883340375
 21
645.6228802655196
  0
LINE
  8
_0-0_
  6
CONTINUOUS
 62
    7
 10
712.95339883340375
 20
639.62289758630709
 11
712.95339883340375
 21
631.62285882073479
  0
LINE
  8
_0-0_
  6
CONTINUOUS
 62
    7
 10
712.95339883340375
 20
625.6228761415224
 11
712.95339883340375
 21
617.62289923590583
  0
LINE
  8
_0-0_
  6
CONTINUOUS
 62
    7
 10
914.95337243982272
 20
667.62287861592063
 11
914.95337243982272
 21
659.62283985034844
  0
LINE
  8
_0-0_
  6
CONTINUOUS
 62
    7
 10
914.95337243982272
 20
653.62285717113605
 11
914.95337243982272
 21
645.6228802655196
  0
LINE
  8
_0-0_
  6
CONTINUOUS
 62
    7
 10
914.95337243982272
 20
639.62289758630709
 11
914.95337243982272
 21
631.62285882073479
  0
LINE
  8
_0-0_
  6
CONTINUOUS
 62
    7
 10
914.95337243982272
 20
625.6228761415224
 11
914.95337243982272
 21
617.62289923590583
  0
LINE
  8
_0-0_
  6
CONTINUOUS
 62
    7
 10
722.95336996542437
 20
667.62287861592063
 11
904.95340130780187
 21
667.62287861592063
  0
LINE
  8
_0-0_
  6
CONTINUOUS
 62
    7
 10
725.95339223500844
 20
617.62289923590583
 11
901.95337903821792
 21
617.62289923590583
  0
LINE
  8
_0-0_
  6
CONTINUOUS
 62
    7
 10
725.95339223500844
 20
617.62289923590583
 11
901.95337903821792
 21
617.62289923590583
  0
LINE
  8
_0-0_
  6
CONTINUOUS
 62
    7
 10
622.9533802754172
 20
667.62287861592063
 11
622.9533802754172
 21
659.62283985034844
  0
LINE
  8
_0-0_
  6
CONTINUOUS
 62
    7
 10
1004.9533600678315
 20
667.62287861592063
 11
1004.9533600678315
 21
659.62283985034844
  0
LINE
  8
_0-0_
  6
CONTINUOUS
 62
    7
 10
622.9533802754172
 20
667.62287861592063
 11
712.95339883340375
 21
667.62287861592063
  0
LINE
  8
_0-0_
  6
CONTINUOUS
 62
    7
 10
914.95337243982272
 20
659.62283985034844
 11
1004.9533600678315
 21
659.62283985034844
  0
LINE
  8
_0-0_
  6
CONTINUOUS
 62
    7
 10
914.95337243982272
 20
667.62287861592063
 11
1004.9533600678315
 21
667.62287861592063
  0
LINE
  8
_0-0_
  6
CONTINUOUS
 62
    7
 10
622.9533802754172
 20
659.62283985034844
 11
712.95339883340375
 21
659.62283985034844
  0
LINE
  8
_0-0_
  6
CONTINUOUS
 62
    7
 10
553.95339388460729
 20
659.62283985034844
 11
613.95337532662052
 21
659.62283985034844
  0
LINE
  8
_0-0_
  6
CONTINUOUS
 62
    7
 10
613.95337532662052
 20
699.6228480983425
 11
613.95337532662052
 21
659.62283985034844
  0
LINE
  8
_0-0_
  6
CONTINUOUS
 62
    7
 10
1013.953365016628
 20
659.62283985034844
 11
1073.9533773886192
 21
659.62283985034844
  0
LINE
  8
_0-0_
  6
CONTINUOUS
 62
    7
 10
1013.953365016628
 20
699.6228480983425
 11
1013.953365016628
 21
659.62283985034844
  0
LINE
  8
_0-0_
  6
CONTINUOUS
 62
    7
 10
553.95339388460729
 20
653.62285717113605
 11
712.95339883340375
 21
653.62285717113605
  0
LINE
  8
_0-0_
  6
CONTINUOUS
 62
    7
 10
553.95339388460729
 20
645.6228802655196
 11
712.95339883340375
 21
645.6228802655196
  0
LINE
  8
_0-0_
  6
CONTINUOUS
 62
    7
 10
553.95339388460729
 20
639.62289758630709
 11
712.95339883340375
 21
639.62289758630709
  0
LINE
  8
_0-0_
  6
CONTINUOUS
 62
    7
 10
553.95339388460729
 20
631.62285882073479
 11
712.95339883340375
 21
631.62285882073479
  0
LINE
  8
_0-0_
  6
CONTINUOUS
 62
    7
 10
553.95339388460729
 20
625.6228761415224
 11
712.95339883340375
 21
625.6228761415224
  0
LINE
  8
_0-0_
  6
CONTINUOUS
 62
    7
 10
553.95339388460729
 20
617.62289923590583
 11
712.95339883340375
 21
617.62289923590583
  0
LINE
  8
_0-0_
  6
CONTINUOUS
 62
    7
 10
553.95339388460729
 20
699.6228480983425
 11
553.95339388460729
 21
659.62283985034844
  0
LINE
  8
_0-0_
  6
CONTINUOUS
 62
    7
 10
553.95339388460729
 20
653.62285717113605
 11
553.95339388460729
 21
645.6228802655196
  0
LINE
  8
_0-0_
  6
CONTINUOUS
 62
    7
 10
553.95339388460729
 20
639.62289758630709
 11
553.95339388460729
 21
631.62285882073479
  0
LINE
  8
_0-0_
  6
CONTINUOUS
 62
    7
 10
553.95339388460729
 20
625.6228761415224
 11
553.95339388460729
 21
617.62289923590583
  0
LINE
  8
_0-0_
  6
CONTINUOUS
 62
    7
 10
1073.9533773886192
 20
699.6228480983425
 11
1073.9533773886192
 21
659.62283985034844
  0
LINE
  8
_0-0_
  6
CONTINUOUS
 62
    7
 10
1073.9533773886192
 20
653.62285717113605
 11
1073.9533773886192
 21
645.6228802655196
  0
LINE
  8
_0-0_
  6
CONTINUOUS
 62
    7
 10
1073.9533773886192
 20
639.62289758630709
 11
1073.9533773886192
 21
631.62285882073479
  0
LINE
  8
_0-0_
  6
CONTINUOUS
 62
    7
 10
1073.9533773886192
 20
625.6228761415224
 11
1073.9533773886192
 21
617.62289923590583
  0
LINE
  8
_0-0_
  6
CONTINUOUS
 62
    7
 10
914.95337243982272
 20
653.62285717113605
 11
1073.9533773886192
 21
653.62285717113605
  0
LINE
  8
_0-0_
  6
CONTINUOUS
 62
    7
 10
914.95337243982272
 20
645.6228802655196
 11
1073.9533773886192
 21
645.6228802655196
  0
LINE
  8
_0-0_
  6
CONTINUOUS
 62
    7
 10
914.95337243982272
 20
639.62289758630709
 11
1073.9533773886192
 21
639.62289758630709
  0
LINE
  8
_0-0_
  6
CONTINUOUS
 62
    7
 10
914.95337243982272
 20
631.62285882073479
 11
1073.9533773886192
 21
631.62285882073479
  0
LINE
  8
_0-0_
  6
CONTINUOUS
 62
    7
 10
914.95337243982272
 20
625.6228761415224
 11
1073.9533773886192
 21
625.6228761415224
  0
LINE
  8
_0-0_
  6
CONTINUOUS
 62
    7
 10
914.95337243982272
 20
617.62289923590583
 11
1073.9533773886192
 21
617.62289923590583
  0
LINE
  8
_0-0_
  6
CONTINUOUS
 62
    7
 10
914.95337243982272
 20
653.62285717113605
 11
1073.9533773886192
 21
653.62285717113605
  0
LINE
  8
_0-0_
  6
CONTINUOUS
 62
    7
 10
914.95337243982272
 20
653.62285717113605
 11
1073.9533773886192
 21
653.62285717113605
  0
LINE
  8
_0-0_
  6
CONTINUOUS
 62
    7
 10
553.95339388460729
 20
653.62285717113605
 11
712.95339883340375
 21
653.62285717113605
  0
LINE
  8
_0-0_
  6
CONTINUOUS
 62
    7
 10
553.95339388460729
 20
653.62285717113605
 11
712.95339883340375
 21
653.62285717113605
  0
LINE
  8
_0-0_
  6
CENTER2
 62
    7
 10
1043.9534021326015
 20
763.62284892314187
 11
1043.9534021326015
 21
698.62288191511834
  0
LINE
  8
_0-0_
  6
CENTER2
 62
    7
 10
1043.9534021326015
 20
698.62288191511834
 11
1113.9533856366133
 21
698.62288191511834
  0
LINE
  8
_0-0_
  6
DASHED2
 62
    7
 10
513.95338563661335
 20
673.62286129513313
 11
528.95337326462209
 21
678.62287779112125
  0
LINE
  8
_0-0_
  6
DASHED2
 62
    7
 10
513.95338563661335
 20
733.62287366712417
 11
528.95337326462209
 21
728.62285717113605
  0
LINE
  8
_0-0_
  6
DASHED2
 62
    7
 10
1098.9533980086042
 20
678.62287779112125
 11
1113.9533856366133
 21
673.62286129513313
  0
LINE
  8
_0-0_
  6
DASHED2
 62
    7
 10
1098.9533980086042
 20
728.62285717113605
 11
1098.9533980086042
 21
678.62287779112125
  0
LINE
  8
_0-0_
  6
DASHED2
 62
    7
 10
528.95337326462209
 20
728.62285717113605
 11
528.95337326462209
 21
678.62287779112125
  0
LINE
  8
_0-0_
  6
CONTINUOUS
 62
    7
 10
1339.2712220887879
 20
777.71188684411959
 11
1499.2711313608531
 21
777.71188684411959
  0
LINE
  8
_0-0_
  6
CONTINUOUS
 62
    7
 10
1495.2212837837837
 20
858.71063232421875
 11
1499.2711313608531
 21
777.71188684411959
  0
LINE
  8
_0-0_
  6
CONTINUOUS
 62
    7
 10
1490.4649955130915
 20
853.71061582823063
 11
1494.2774245803421
 21
777.462158203125
  0
LINE
  8
_0-0_
  6
CONTINUOUS
 62
    7
 10
1559.0517264701227
 20
777.462158203125
 11
1559.0517264701227
 21
877.71184560414906
  0
LINE
  8
_0-0_
  6
CONTINUOUS
 62
    7
 10
1559.0517264701227
 20
777.462158203125
 11
1508.8103076831717
 21
777.462158203125
  0
LINE
  8
_0-0_
  6
CONTINUOUS
 62
    7
 10
1559.0517264701227
 20
877.71184560414906
 11
1508.8103076831717
 21
877.71184560414906
  0
LINE
  8
_0-0_
  6
CONTINUOUS
 62
    7
 10
1339.2712220887879
 20
745.36123327306791
 11
1434.2711643528291
 21
745.36123327306791
  0
LINE
  8
_0-0_
  6
CONTINUOUS
 62
    7
 10
1339.2712220887879
 20
745.36123327306791
 11
1339.2712220887879
 21
770.86844366949958
  0
LINE
  8
_0-0_
  6
CONTINUOUS
 62
    7
 10
1434.2711643528291
 20
745.36123327306791
 11
1434.2711643528291
 21
770.86844366949958
  0
LINE
  8
_0-0_
  6
CONTINUOUS
 62
    7
 10
1434.2711643528291
 20
745.36123327306791
 11
1499.2711313608531
 21
745.36123327306791
  0
LINE
  8
_0-0_
  6
CONTINUOUS
 62
    7
 10
1499.2711313608531
 20
745.36123327306791
 11
1499.2711313608531
 21
770.86844366949958
  0
LINE
  8
_0-0_
  6
CONTINUOUS
 62
    7
 10
1339.2712220887879
 20
727.58348619615708
 11
1499.2711313608531
 21
727.58348619615708
  0
LINE
  8
_0-0_
  6
CONTINUOUS
 62
    7
 10
1339.2712220887879
 20
727.58348619615708
 11
1339.2712220887879
 21
770.86844366949958
  0
LINE
  8
_0-0_
  6
CONTINUOUS
 62
    7
 10
1499.2711313608531
 20
727.58348619615708
 11
1499.2711313608531
 21
770.86844366949958
  0
LINE
  8
_0-0_
  6
CONTINUOUS
 62
    7
 10
1339.2712220887879
 20
909.2257814149599
 11
1409.2712055927998
 21
909.2257814149599
  0
LINE
  8
_0-0_
  6
CONTINUOUS
 62
    7
 10
1339.2712220887879
 20
909.2257814149599
 11
1339.2712220887879
 21
884.4915111644849
  0
LINE
  8
_0-0_
  6
CONTINUOUS
 62
    7
 10
1409.2712055927998
 20
909.2257814149599
 11
1409.2712055927998
 21
884.4915111644849
  0
LINE
  8
_0-0_
  6
CONTINUOUS
 62
    7
 10
1409.2712055927998
 20
909.2257814149599
 11
1499.2711313608531
 21
909.2257814149599
  0
LINE
  8
_0-0_
  6
CONTINUOUS
 62
    7
 10
1499.2711313608531
 20
909.2257814149599
 11
1499.2711313608531
 21
884.4915111644849
  0
LINE
  8
_0-0_
  6
CONTINUOUS
 62
    7
 10
1499.2711313608531
 20
896.08573707374376
 11
1494.2774245803421
 21
896.08573707374376
  0
LINE
  8
_0-0_
  6
CONTINUOUS
 62
    7
 10
1499.2711313608531
 20
896.08573707374376
 11
1499.2711313608531
 21
882.94563087257188
  0
LINE
  8
_0-0_
  6
CONTINUOUS
 62
    7
 10
1494.2774245803421
 20
896.08573707374376
 11
1494.2774245803421
 21
882.94563087257188
  0
LINE
  8
_0-0_
  6
CONTINUOUS
 62
    7
 10
1283.1100529851142
 20
877.71184560414906
 11
1283.1100529851142
 21
812.71187859612553
  0
LINE
  8
_0-0_
  6
CONTINUOUS
 62
    7
 10
1283.1100529851142
 20
877.71184560414906
 11
1328.713830896326
 21
877.71184560414906
  0
LINE
  8
_0-0_
  6
CONTINUOUS
 62
    7
 10
1283.1100529851142
 20
812.71187859612553
 11
1328.713830896326
 21
812.71187859612553
  0
LINE
  8
_0-0_
  6
CONTINUOUS
 62
    7
 10
1283.1100529851142
 20
812.71187859612553
 11
1283.1100529851142
 21
777.71188684411959
  0
LINE
  8
_0-0_
  6
CONTINUOUS
 62
    7
 10
1283.1100529851142
 20
777.71188684411959
 11
1328.713830896326
 21
777.71188684411959
  0
LINE
  8
_0-0_
  6
CONTINUOUS
 62
    7
 10
1413.32488848712
 20
877.71184560414906
 11
1475.2462092219171
 21
877.71184560414906
  0
LINE
  8
_0-0_
  6
CONTINUOUS
 62
    7
 10
1344.9524404164908
 20
815.31315159153291
 11
1406.3616844383446
 21
874.88923768739437
  0
LINE
  8
_0-0_
  6
CONTINUOUS
 62
    7
 10
1341.9521088471283
 20
808.98976506413646
 11
1339.2712220887879
 21
777.71188684411959
  0
LINE
  8
_0-0_
  6
CONTINUOUS
 62
    7
 10
1339.2712220887879
 20
896.08573707374376
 11
1343.0241418786952
 21
896.08573707374376
  0
LINE
  8
_0-0_
  6
CONTINUOUS
 62
    7
 10
1339.2712220887879
 20
896.08573707374376
 11
1339.2712220887879
 21
884.4915111644849
  0
LINE
  8
_0-0_
  6
CONTINUOUS
 62
    7
 10
1343.0241418786952
 20
896.08573707374376
 11
1343.0241418786952
 21
884.4915111644849
  0
LINE
  8
_0-0_
  6
CONTINUOUS
 62
    7
 10
1415.3516680743246
 20
872.71189096811656
 11
1470.4899209512248
 21
872.71189096811656
  0
LINE
  8
_0-0_
  6
CONTINUOUS
 62
    7
 10
1349.7746713999156
 20
813.02513741158145
 11
1408.3885877454604
 21
869.88928305136199
  0
LINE
  8
_0-0_
  6
CONTINUOUS
 62
    7
 10
1346.7743398305533
 20
806.701750884185
 11
1344.2529280379013
 21
777.28486757020687
  0
LINE
  8
_0-0_
  6
CONTINUOUS
 62
    7
 10
1409.6757697028083
 20
819.32254275760147
 11
1409.6757697028083
 21
839.32248502164282
  0
LINE
  8
_0-0_
  6
CONTINUOUS
 62
    7
 10
1454.6757944467906
 20
814.32252626161312
 11
1414.6757861987965
 21
814.32252626161312
  0
LINE
  8
_0-0_
  6
CONTINUOUS
 62
    7
 10
1449.6757779508023
 20
839.32248502164282
 11
1419.6758026947846
 21
839.32248502164282
  0
LINE
  8
_0-0_
  6
CONTINUOUS
 62
    7
 10
1454.6757944467906
 20
834.32246852565459
 11
1454.6757944467906
 21
824.32249739363385
  0
LINE
  8
_0-0_
  6
CONTINUOUS
 62
    7
 10
1454.6757944467906
 20
844.32250151763105
 11
1414.6757861987965
 21
844.32250151763105
  0
LINE
  8
_0-0_
  6
CONTINUOUS
 62
    7
 10
1459.675810942779
 20
839.32248502164282
 11
1459.675810942779
 21
819.32254275760147
  0
LINE
  8
_0-0_
  6
CONTINUOUS
 62
    7
 10
1414.6757861987965
 20
824.32249739363385
 11
1414.6757861987965
 21
834.32246852565459
  0
LINE
  8
_0-0_
  6
CONTINUOUS
 62
    7
 10
1419.6758026947846
 20
819.32248089764573
 11
1449.6757779508023
 21
819.32248089764573
  0
LINE
  8
_0-0_
  6
CONTINUOUS
 62
    7
 10
1362.1936760979731
 20
825.07341539537595
 11
1355.0129724451015
 21
825.07341539537595
  0
LINE
  8
_0-0_
  6
CONTINUOUS
 62
    7
 10
1373.4742101720863
 20
836.01718387088272
 11
1366.2935065192146
 21
836.01718387088272
  0
LINE
  8
_0-0_
  6
CONTINUOUS
 62
    7
 10
1385.9267429661106
 20
848.09793833139781
 11
1378.7460393132392
 21
848.09793833139781
  0
LINE
  8
_0-0_
  6
CONTINUOUS
 62
    7
 10
1397.3537614152237
 20
859.18386098500844
 11
1390.1730577623523
 21
859.18386098500844
  0
LINE
  8
_0-0_
  6
CONTINUOUS
 62
    7
 10
1362.1936760979731
 20
832.03971244193417
 11
1362.1936760979731
 21
825.07341539537595
  0
LINE
  8
_0-0_
  6
CONTINUOUS
 62
    7
 10
1373.4742101720863
 20
842.98348091744083
 11
1373.4742101720863
 21
836.01718387088272
  0
LINE
  8
_0-0_
  6
CONTINUOUS
 62
    7
 10
1385.9267429661106
 20
855.06429723791166
 11
1385.9267429661106
 21
848.09793833139781
  0
LINE
  8
_0-0_
  6
CONTINUOUS
 62
    7
 10
1397.3537614152237
 20
866.1502198915224
 11
1397.3537614152237
 21
859.18386098500844
  0
LINE
  8
_0-0_
  6
CONTINUOUS
 62
    7
 10
1110.5709451211467
 20
759.47798445418073
 11
1167.0054733688767
 21
802.75347735430739
  0
LINE
  8
_0-0_
  6
CONTINUOUS
 62
    7
 10
1110.5709451211467
 20
759.47798445418073
 11
1117.44241085568
 21
770.29605349978897
  0
LINE
  8
_0-0_
  6
CONTINUOUS
 62
    7
 10
1492.2875135267104
 20
873.05131654481625
 11
1547.3328527502113
 21
899.65660301414698
  0
LINE
  8
_0-0_
  6
CONTINUOUS
 62
    7
 10
1492.2875135267104
 20
873.05131654481625
 11
1500.5443329682221
 21
881.30813598632812
  0
LINE
  8
_0-0_
  6
CONTINUOUS
 62
    7
 10
1407.884676546664
 20
877.6384796967377
 11
1360.178773622255
 21
886.81268228066938
  0
LINE
  8
_0-0_
  6
CONTINUOUS
 62
    7
 10
1407.884676546664
 20
877.6384796967377
 11
1396.8755839579815
 21
883.14296413112334
  0
LINE
  8
_0-0_
  6
CONTINUOUS
 62
    7
 10
1342.6995008313979
 20
813.00156876847552
 11
1307.8926358609588
 21
819.40283698004646
  0
LINE
  8
_0-0_
  6
CONTINUOUS
 62
    7
 10
1342.6995008313979
 20
813.00156876847552
 11
1335.8981224266258
 21
816.20220287426105
  0
LINE
  8
_0-0_
  6
CONTINUOUS
 62
    7
 10
316.70762799237241
 20
344.44914946684969
 11
1716.7076383023648
 21
344.44914946684969
  0
LINE
  8
_0-0_
  6
CONTINUOUS
 62
    7
 10
1716.7076383023648
 20
344.44914946684969
 11
1716.7076383023648
 21
1344.4491082268794
  0
LINE
  8
_0-0_
  6
CONTINUOUS
 62
    7
 10
1716.7076383023648
 20
1344.4491082268794
 11
316.70762799237241
 21
1344.4491082268794
  0
LINE
  8
_0-0_
  6
CONTINUOUS
 62
    7
 10
316.70762799237241
 20
1344.4491082268794
 11
316.70762799237241
 21
344.44914946684969
  0
LINE
  8
_0-0_
  6
CONTINUOUS
 62
    7
 10
316.70759706239437
 20
344.44914946684969
 11
1716.7076383023648
 21
344.44914946684969
  0
LINE
  8
_0-0_
  6
CONTINUOUS
 62
    7
 10
316.70759706239437
 20
394.44915977684229
 11
1716.7076383023648
 21
394.44915977684229
  0
LINE
  8
_0-0_
  6
CONTINUOUS
 62
    7
 10
1363.694398622255
 20
394.44915977684229
 11
1363.694398622255
 21
344.44914946684969
  0
LINE
  8
_0-0_
  6
CONTINUOUS
 62
    7
 10
1271.0963547165329
 20
394.44915977684229
 11
1271.0963547165329
 21
344.44914946684969
  0
LINE
  8
_0-0_
  6
CONTINUOUS
 62
    7
 10
1159.6649235905827
 20
394.44915977684229
 11
1159.6649235905827
 21
344.44914946684969
  0
LINE
  8
_0-0_
  6
CONTINUOUS
 62
    7
 10
1059.2196350097656
 20
394.44915977684229
 11
1059.2196350097656
 21
344.44914946684969
  0
LINE
  8
_0-0_
  6
CONTINUOUS
 62
    7
 10
982.3162041741449
 20
394.44915977684229
 11
982.3162041741449
 21
344.44914946684969
  0
LINE
  8
_0-0_
  6
CONTINUOUS
 62
    7
 10
885.00987532332135
 20
394.44915977684229
 11
885.00987532332135
 21
344.44914946684969
  0
LINE
  8
_0-0_
  6
CONTINUOUS
 62
    7
 10
803.39809768264354
 20
394.44915977684229
 11
803.39809768264354
 21
344.44914946684969
  0
LINE
  8
_0-0_
  6
CONTINUOUS
 62
    7
 10
406.32535202438771
 20
394.44915977684229
 11
406.32535202438771
 21
344.44914946684969
  0
LINE
  8
_0-0_
  6
DASHED3
 62
    7
 10
1420.0364462362754
 20
858.86058085673562
 11
1426.4226206186656
 21
848.86054786475938
  0
LINE
  8
_0-0_
  6
DASHED3
 62
    7
 10
1438.444608121305
 20
848.86054786475938
 11
1426.4226206186656
 21
848.86054786475938
  0
LINE
  8
_0-0_
  6
DASHED3
 62
    7
 10
1444.8086366395692
 20
858.86058085673562
 11
1438.4225859770904
 21
848.86054786475938
  0
LINE
  8
_0-0_
  6
DASHED3
 62
    7
 10
1452.091038059544
 20
858.86058085673562
 11
1397.0204599741344
 21
858.86058085673562
  0
LINE
  8
_0-0_
  6
DASHED3
 62
    7
 10
1457.8913986618459
 20
877.71184560414906
 11
1452.091038059544
 21
858.86058085673562
  0
LINE
  8
_0-0_
  6
DASHED3
 62
    7
 10
1428.4224292652029
 20
848.86054786475938
 11
1428.4224292652029
 21
777.71188684411959
  0
LINE
  8
_0-0_
  6
DASHED3
 62
    7
 10
1436.4225298907309
 20
848.86054786475938
 11
1436.4225298907309
 21
777.71188684411959
  0
ARC
  8
_0-0_
  6
CONTINUOUS
 62
    7
 10
573.45341491699219
 20
1093.6228860391157
 40
5.0000000644374545
 50
0
 51
90
  0
ARC
  8
_0-0_
  6
CONTINUOUS
 62
    7
 10
594.45338522421343
 20
1093.6228860391157
 40
5.0000000644374545
 50
90
 51
180
  0
ARC
  8
_0-0_
  6
CONTINUOUS
 62
    7
 10
1033.4533551190352
 20
1093.6228860391157
 40
5.0000000644374545
 50
0
 51
90
  0
ARC
  8
_0-0_
  6
CONTINUOUS
 62
    7
 10
1054.4533872862119
 20
1093.6228860391157
 40
5.0000000644374545
 50
90
 51
180
  0
CIRCLE
  8
_0-0_
  6
CONTINUOUS
 62
    7
 10
583.95340007060281
 20
698.62288191511834
 40
10.000000128874909
  0
CIRCLE
  8
_0-0_
  6
CONTINUOUS
 62
    7
 10
583.95340007060281
 20
698.62288191511834
 40
15.000000193312362
  0
CIRCLE
  8
_0-0_
  6
CONTINUOUS
 62
    7
 10
583.95340007060281
 20
698.62288191511834
 40
20.000000257749818
  0
ARC
  8
_0-0_
  6
CONTINUOUS
 62
    7
 10
583.95340007060281
 20
699.6228480983425
 40
30.000000386624723
 50
90
 51
180
  0
ARC
  8
_0-0_
  6
CONTINUOUS
 62
    7
 10
583.95340007060281
 20
699.6228480983425
 40
30.000000386624723
 50
0
 51
90
  0
CIRCLE
  8
_0-0_
  6
CONTINUOUS
 62
    7
 10
1043.9534021326015
 20
698.62288191511834
 40
10.000000128874909
  0
CIRCLE
  8
_0-0_
  6
CONTINUOUS
 62
    7
 10
1043.9534021326015
 20
698.62288191511834
 40
15.000000193312362
  0
CIRCLE
  8
_0-0_
  6
CONTINUOUS
 62
    7
 10
1043.9534021326015
 20
698.62288191511834
 40
20.000000257749818
  0
ARC
  8
_0-0_
  6
CONTINUOUS
 62
    7
 10
1043.9534021326015
 20
699.6228480983425
 40
30.000000386624723
 50
90
 51
180
  0
ARC
  8
_0-0_
  6
CONTINUOUS
 62
    7
 10
1043.9534021326015
 20
699.6228480983425
 40
30.000000386624723
 50
0
 51
90
  0
ARC
  8
_0-0_
  6
CONTINUOUS
 62
    7
 10
1475.2462092219171
 20
857.71184148015209
 40
20.000000257749818
 50
2.8623962402343754
 51
90
  0
ARC
  8
_0-0_
  6
CONTINUOUS
 62
    7
 10
1470.4899209512248
 20
852.71188684411959
 40
20.000000257749818
 50
2.8623962402343754
 51
90
  0
ARC
  8
_0-0_
  6
CONTINUOUS
 62
    7
 10
1413.32488848712
 20
867.71187447212833
 40
10.000000128874909
 50
90
 51
134.13194274902344
  0
ARC
  8
_0-0_
  6
CONTINUOUS
 62
    7
 10
1351.9156444652663
 20
808.13572651631137
 40
10.000000128874909
 50
134.13194274902344
 51
175.10090637207031
  0
ARC
  8
_0-0_
  6
CONTINUOUS
 62
    7
 10
1415.3516680743246
 20
862.71191983609594
 40
10.000000128874909
 50
90
 51
134.13191223144531
  0
ARC
  8
_0-0_
  6
CONTINUOUS
 62
    7
 10
1356.7378754486908
 20
805.84777419631553
 40
10.000000128874909
 50
134.13191223144531
 51
175.10092163085935
  0
ARC
  8
_0-0_
  6
CONTINUOUS
 62
    7
 10
1414.6757861987965
 20
839.32248502164282
 40
5.0000000644374545
 50
90
 51
180
  0
ARC
  8
_0-0_
  6
CONTINUOUS
 62
    7
 10
1419.6758026947846
 20
834.32246852565459
 40
5.0000000644374545
 50
90
 51
180
  0
ARC
  8
_0-0_
  6
CONTINUOUS
 62
    7
 10
1414.6757861987965
 20
819.32254275760147
 40
5.0000000644374545
 50
180
 51
270
  0
ARC
  8
_0-0_
  6
CONTINUOUS
 62
    7
 10
1454.6757944467906
 20
819.32254275760147
 40
5.0000000644374545
 50
270
 51
0
  0
ARC
  8
_0-0_
  6
CONTINUOUS
 62
    7
 10
1449.6757779508023
 20
824.32249739363385
 40
5.0000000644374545
 50
270
 51
0
  0
ARC
  8
_0-0_
  6
CONTINUOUS
 62
    7
 10
1449.6757779508023
 20
834.32246852565459
 40
5.0000000644374545
 50
0
 51
90
  0
ARC
  8
_0-0_
  6
CONTINUOUS
 62
    7
 10
1454.6757944467906
 20
839.32248502164282
 40
5.0000000644374545
 50
0
 51
90
  0
ARC
  8
_0-0_
  6
CONTINUOUS
 62
    7
 10
1419.6758026947846
 20
824.32249739363385
 40
5.0000000644374545
 50
180
 51
270
  0
TEXT
  8
_0-0_
 62
    7
 10
1369.9047845098171
 20
885.01577089284058
 40
15
 41
0.7999999999999999
 50
-10.885526904795888
  1
R10
  0
TEXT
  8
_0-0_
 62
    7
 10
541.70339285360797
 20
975.97459122941302
 40
15
 41
0.7999999999999999
 50
0
  1
70
  0
TEXT
  8
_0-0_
 62
    7
 10
802.45338563661323
 20
975.97459122941302
 40
15
 41
0.7999999999999999
 50
0
  1
460
  0
TEXT
  8
_0-0_
 62
    7
 10
1071.7033938846073
 20
975.97459122941302
 40
15
 41
0.7999999999999999
 50
0
  1
70
  0
TEXT
  8
_0-0_
 62
    7
 10
802.45338563661323
 20
947.05506195893167
 40
15
 41
0.7999999999999999
 50
0
  1
600
  0
TEXT
  8
_0-0_
 62
    7
 10
802.45338563661323
 20
1156.1652188687713
 40
15
 41
0.7999999999999999
 50
0
  1
182
  0
TEXT
  8
_0-0_
 62
    7
 10
1175.637845103874
 20
1052.1228798531197
 40
15
 41
0.7999999999999999
 50
90.000002504478161
  1
100
  0
TEXT
  8
_0-0_
 62
    7
 10
541.70339285360797
 20
806.07727463180959
 40
15
 41
0.7999999999999999
 50
0
  1
70
  0
TEXT
  8
_0-0_
 62
    7
 10
802.45338563661323
 20
806.07727463180959
 40
15
 41
0.7999999999999999
 50
0
  1
460
  0
TEXT
  8
_0-0_
 62
    7
 10
1071.7033938846073
 20
806.07727463180959
 40
15
 41
0.7999999999999999
 50
0
  1
70
  0
TEXT
  8
_0-0_
 62
    7
 10
802.45338563661323
 20
842.61312536291166
 40
15
 41
0.7999999999999999
 50
0
  1
600
  0
TEXT
  8
_0-0_
 62
    7
 10
1145.8535134675094
 20
723.87286541913011
 40
15
 41
0.7999999999999999
 50
90.000002504478161
  1
65
  0
TEXT
  8
_0-0_
 62
    7
 10
1145.8535134675094
 20
643.8728798531198
 40
15
 41
0.7999999999999999
 50
90.000002504478161
  1
95
  0
TEXT
  8
_0-0_
 62
    7
 10
1175.637845103874
 20
672.12286335713156
 40
15
 41
0.7999999999999999
 50
90.000002504478161
  1
160
  0
TEXT
  8
_0-0_
 62
    7
 10
1556.5518424447207
 20
816.0870328336149
 40
15
 41
0.7999999999999999
 50
90.000002504478303
  1
100
  0
TEXT
  8
_0-0_
 62
    7
 10
1379.5211932208085
 20
747.86124152106208
 40
15
 41
0.7999999999999999
 50
0
  1
95
  0
TEXT
  8
_0-0_
 62
    7
 10
1459.5211478568413
 20
747.86124152106208
 40
15
 41
0.7999999999999999
 50
0
  1
65
  0
TEXT
  8
_0-0_
 62
    7
 10
1409.1002378721496
 20
728.35642634211365
 40
15
 41
0.7999999999999999
 50
0
  1
160
  0
TEXT
  8
_0-0_
 62
    7
 10
1367.021213840794
 20
911.72578966295407
 40
15
 41
0.7999999999999999
 50
0
  1
70
  0
TEXT
  8
_0-0_
 62
    7
 10
1447.0212303367821
 20
911.72578966295407
 40
15
 41
0.7999999999999999
 50
0
  1
90
  0
TEXT
  8
_0-0_
 62
    7
 10
1503.3996870711044
 20
894.539794921875
 40
15
 41
0.7999999999999999
 50
0
  1
5
  0
TEXT
  8
_0-0_
 62
    7
 10
1280.6100450540278
 20
837.9618621001373
 40
15
 41
0.7999999999999999
 50
90.000002504478061
  1
65
  0
TEXT
  8
_0-0_
 62
    7
 10
1280.6100450540278
 20
787.96185179014469
 40
15
 41
0.7999999999999999
 50
90.000002504478061
  1
35
  0
TEXT
  8
_0-0_
 62
    7
 10
1131.7288797865981
 20
1127.259154936849
 40
15
 41
0.7999999999999999
 50
37.481735410144829
  1
R6
  0
TEXT
  8
_0-0_
 62
    7
 10
1130.7554662499761
 20
776.34743339694387
 40
15
 41
0.7999999999999999
 50
37.481926655441427
  1
R6
  0
TEXT
  8
_0-0_
 62
    7
 10
1522.4210922456673
 20
888.14396353202835
 40
15
 41
0.7999999999999999
 50
25.796063796912758
  1
R20
  0
TEXT
  8
_0-0_
 62
    7
 10
1312.6026703839725
 20
819.5741856613688
 40
15
 41
0.7999999999999999
 50
-10.885526904795899
  1
R10
  0
TEXT
  8
_0-0_
 62
    7
 10
1412.3475003629119
 20
354.96224893106
 40
20
 41
0.8
 50
0
  1
岩城ブロック工業株式会社
  0
TEXT
  8
_0-0_
 62
    7
 10
1173.7900200921135
 20
356.53169786607896
 40
20
 41
0.8
 50
0
  1
参考重量
  0
TEXT
  8
_0-0_
 62
    7
 10
336.21349613086591
 20
357.60629808580546
 40
20
 41
0.8
 50
0
  1
名　称
  0
TEXT
  8
_0-0_
 62
    7
 10
989.44711963550458
 20
357.60629808580546
 40
20
 41
0.8
 50
0
  1
図　番
  0
TEXT
  8
_0-0_
 62
    7
 10
814.1203547297298
 20
357.60629808580546
 40
20
 41
0.8
 50
0
  1
分　類
  0
TEXT
  8
_0-0_
 62
    7
 10
449.32754929001271
 20
357.60629808580546
 40
20
 41
0.8
 50
0
  1
パーキングブロック　ＮＳＰ-100Ａ
  0
TEXT
  8
_0-0_
 62
    7
 10
1280.4282944137988
 20
356.19001440099765
 40
20
 41
0.8
 50
0
  1
18.5ｋｇ
  0
TEXT
  8
_0-0_
 62
    7
 10
516.17796964903141
 20
1167.0127332532729
 40
25
 41
0.8
 50
0
  1
正　面
  0
TEXT
  8
_0-0_
 62
    7
 10
507.27966246733808
 20
851.1228901631124
 40
25
 41
0.8
 50
0
  1
上　部
  0
TEXT
  8
_0-0_
 62
    7
 10
1319.2499917520061
 20
679.83050784549209
 40
25
 41
0.8
 50
0
  1
側　面
  0
TEXT
  8
_0-0_
 62
    7
 10
1331.9541395032729
 20
895.47301421294355
 40
15
 41
0.7999999999999999
 50
0
  1
3
  0
POINT
  8
_0-0_
 62
    7
 10
513.95338563661335
 20
973.47458298141896
  0
POINT
  8
_0-0_
 62
    7
 10
583.95340007060281
 20
973.47458298141896
  0
POINT
  8
_0-0_
 62
    7
 10
1043.9534021326015
 20
973.47458298141896
  0
POINT
  8
_0-0_
 62
    7
 10
1113.9533856366133
 20
973.47458298141896
  0
POINT
  8
_0-0_
 62
    7
 10
513.95338563661335
 20
944.55511557089324
  0
POINT
  8
_0-0_
 62
    7
 10
1113.9533856366133
 20
944.55511557089324
  0
POINT
  8
_0-0_
 62
    7
 10
722.95336996542437
 20
1153.6652106207771
  0
POINT
  8
_0-0_
 62
    7
 10
904.95340130780187
 20
1153.6652106207771
  0
POINT
  8
_0-0_
 62
    7
 10
1178.1379147091429
 20
1113.6228901631123
  0
POINT
  8
_0-0_
 62
    7
 10
1178.1379147091429
 20
1013.6228695431272
  0
POINT
  8
_0-0_
 62
    7
 10
513.95338563661335
 20
803.57726638381553
  0
POINT
  8
_0-0_
 62
    7
 10
583.95340007060281
 20
803.57726638381553
  0
POINT
  8
_0-0_
 62
    7
 10
1043.9534021326015
 20
803.57726638381553
  0
POINT
  8
_0-0_
 62
    7
 10
1113.9533856366133
 20
803.57726638381553
  0
POINT
  8
_0-0_
 62
    7
 10
513.95338563661335
 20
840.11311711491771
  0
POINT
  8
_0-0_
 62
    7
 10
1113.9533856366133
 20
840.11311711491771
  0
POINT
  8
_0-0_
 62
    7
 10
1148.3535213985961
 20
763.62284892314187
  0
POINT
  8
_0-0_
 62
    7
 10
1148.3535213985961
 20
698.62288191511834
  0
POINT
  8
_0-0_
 62
    7
 10
1148.3535213985961
 20
603.62287779112125
  0
POINT
  8
_0-0_
 62
    7
 10
1178.1379147091429
 20
763.62284892314187
  0
POINT
  8
_0-0_
 62
    7
 10
1178.1379147091429
 20
603.62287779112125
  0
POINT
  8
_0-0_
 62
    7
 10
1559.0517264701227
 20
777.462158203125
  0
POINT
  8
_0-0_
 62
    7
 10
1559.0517264701227
 20
877.71184560414906
  0
POINT
  8
_0-0_
 62
    7
 10
1339.2712220887879
 20
745.36123327306791
  0
POINT
  8
_0-0_
 62
    7
 10
1434.2711643528291
 20
745.36123327306791
  0
POINT
  8
_0-0_
 62
    7
 10
1499.2711313608531
 20
745.36123327306791
  0
POINT
  8
_0-0_
 62
    7
 10
1339.2712220887879
 20
727.58348619615708
  0
POINT
  8
_0-0_
 62
    7
 10
1499.2711313608531
 20
727.58348619615708
  0
POINT
  8
_0-0_
 62
    7
 10
1339.2712220887879
 20
909.2257814149599
  0
POINT
  8
_0-0_
 62
    7
 10
1409.2712055927998
 20
909.2257814149599
  0
POINT
  8
_0-0_
 62
    7
 10
1499.2711313608531
 20
909.2257814149599
  0
POINT
  8
_0-0_
 62
    7
 10
1499.2711313608531
 20
896.08573707374376
  0
POINT
  8
_0-0_
 62
    7
 10
1494.2774245803421
 20
896.08573707374376
  0
POINT
  8
_0-0_
 62
    7
 10
1283.1100529851142
 20
877.71184560414906
  0
POINT
  8
_0-0_
 62
    7
 10
1283.1100529851142
 20
812.71187859612553
  0
POINT
  8
_0-0_
 62
    7
 10
1283.1100529851142
 20
777.71188684411959
  0
POINT
  8
_0-0_
 62
    7
 10
1339.2712220887879
 20
896.08573707374376
  0
POINT
  8
_0-0_
 62
    7
 10
1343.0241418786952
 20
896.08573707374376
  0
ENDSEC
  0
EOF
