  0
SECTION
  2
HEADER
  9
$ACADVER
  1
AC1009
  9
$INSBASE
 10
0
 20
0
 30
0
  9
$EXTMIN
 10
0
 20
0
  9
$EXTMAX
 10
4200
 20
2970
  9
$LIMMIN
 10
0
 20
0
  9
$LIMMAX
 10
4200
 20
2970
  9
$LTSCALE
 40
10
  0
ENDSEC
  0
SECTION
  2
TABLES
  0
TABLE
  2
LTYPE
 70
     9
  0
LTYPE
  2
CONTINUOUS
 70
    64
  3
実線
 72
    65
 73
     0
 40
0.0
  0
LTYPE
  2
DASHED1
 70
    64
  3
--  --  --  --  --  --  --  --  
 72
    65
 73
     2
 40
2.5
 49
1.25
 49
-1.25
  0
LTYPE
  2
DASHED2
 70
    64
  3
----    ----    ----    ----    
 72
    65
 73
     2
 40
5.0
 49
2.5
 49
-2.5
  0
LTYPE
  2
DASHED3
 70
    64
  3
------  ------  ------  ------  
 72
    65
 73
     2
 40
5.0
 49
3.75
 49
-1.25
  0
LTYPE
  2
CENTER1
 70
    64
  3
----- - ----- - ----- - ----- - 
 72
    65
 73
     4
 40
10.0
 49
6.25
 49
-1.25
 49
1.25
 49
-1.25
  0
LTYPE
  2
CENTER2
 70
    64
  3
----------  --  ----------  --  
 72
    65
 73
     4
 40
20.0
 49
12.5
 49
-2.5
 49
2.5
 49
-2.5
  0
LTYPE
  2
PHANTOM1
 70
    64
  3
--- - - --- - - --- - - --- - - 
 72
    65
 73
     6
 40
10.0
 49
3.25
 49
-1.25
 49
1.25
 49
-1.25
 49
1.25
 49
-1.25
  0
LTYPE
  2
PHANTOM2
 70
    64
  3
--------  -  -  --------  -  -  
 72
    65
 73
     6
 40
20.0
 49
10.0
 49
-2.5
 49
1.25
 49
-2.5
 49
1.25
 49
-2.5
  0
LTYPE
  2
DOT
 70
    64
  3
-   -   -   -   -   -   -   -   
 72
    65
 73
     2
 40
2.5
 49
0.625
 49
-1.875
  0
LTYPE
  2
DUMMY
 70
    64
  3
ダミー
 72
    65
 73
     0
 40
0.0
  0
LTYPE
  2
RAND1
 70
    64
  3
ランダム線1
 72
    65
 73
     4
 40
10.0
 49
1.0
 49
-2.0
 49
3.0
 49
-4.0
  0
LTYPE
  2
RAND2
 70
    64
  3
ランダム線2
 72
    65
 73
     4
 40
14.0
 49
2.0
 49
-3.0
 49
4.0
 49
-5.0
  0
LTYPE
  2
RAND3
 70
    64
  3
ランダム線3
 72
    65
 73
     4
 40
18.0
 49
3.0
 49
-4.0
 49
5.0
 49
-6.0
  0
LTYPE
  2
RAND4
 70
    64
  3
ランダム線4
 72
    65
 73
     4
 40
22.0
 49
4.0
 49
-5.0
 49
6.0
 49
-7.0
  0
LTYPE
  2
RAND5
 70
    64
  3
ランダム線5
 72
    65
 73
     4
 40
26.0
 49
5.0
 49
-6.0
 49
7.0
 49
-8.0
  0
LTYPE
  2
LONG1
 70
    64
  3
----------  --  ----------  --  
 72
    65
 73
     4
 40
40.0
 49
32.5
 49
-2.5
 49
2.5
 49
-2.5
  0
LTYPE
  2
LONG2
 70
    64
  3
--------  -  -  --------  -  -  
 72
    65
 73
     6
 40
40.0
 49
30.0
 49
-2.5
 49
1.25
 49
-2.5
 49
1.25
 49
-2.5
  0
LTYPE
  2
LONG3
 70
    64
  3
+++++++++++++++..+++++++++++++++
 72
    65
 73
     2
 40
40.0
 49
37.5
 49
-2.5
  0
LTYPE
  2
LONG4
 70
    64
  3
+++++++++++++++..+++++++++++++++
 72
    65
 73
     2
 40
80.0
 49
75.0
 49
-5.0
  0
LTYPE
  2
LONG5
 70
    64
  3
----------  --  ----------  --  
 72
    65
 73
     4
 40
60.0
 49
37.5
 49
-7.5
 49
7.5
 49
-7.5
  0
LTYPE
  2
dashed
 70
   64
  3
-------   -------------   ------
 72
   65
 73
    2
 40
7.5
 49
6
 49
-1.5
  0
LTYPE
  2
dashed_spaced
 70
   64
  3
----        --------        ----
 72
   65
 73
    2
 40
12
 49
6
 49
-6
  0
LTYPE
  2
long_dashed_dotted
 70
   64
  3
------------- --- --------------
 72
   65
 73
    4
 40
15.25
 49
12
 49
-1.5
 49
0.25
 49
-1.5
  0
LTYPE
  2
long_dashed_double-dotted
 70
   64
  3
----------- --- --- ------------
 72
   65
 73
    6
 40
17
 49
12
 49
-1.5
 49
0.25
 49
-1.5
 49
0.25
 49
-1.5
  0
LTYPE
  2
long_dashed_triplicate-dotted
 70
   64
  3
--------- --- --- --- ----------
 72
   65
 73
    8
 40
18.75
 49
12
 49
-1.5
 49
0.25
 49
-1.5
 49
0.25
 49
-1.5
 49
0.25
 49
-1.5
  0
LTYPE
  2
dotted
 70
   64
  3
   -       -       -       -    
 72
   65
 73
    2
 40
1.75
 49
0.25
 49
-1.5
  0
LTYPE
  2
chain
 70
   64
  3
-------------- -- --------------
 72
   65
 73
    4
 40
18.5
 49
12
 49
-1.5
 49
3.5
 49
-1.5
  0
LTYPE
  2
chain_double_dash
 70
   64
  3
------------ -- -- -------------
 72
   65
 73
    6
 40
23.5
 49
12
 49
-1.5
 49
3.5
 49
-1.5
 49
3.5
 49
-1.5
  0
LTYPE
  2
dashed_dotted
 70
   64
  3
-----------     -     ----------
 72
   65
 73
    4
 40
9.25
 49
6
 49
-1.5
 49
0.25
 49
-1.5
  0
LTYPE
  2
double-dashed_dotted
 70
   64
  3
------   -----------   -   -----
 72
   65
 73
    6
 40
16.75
 49
6
 49
-1.5
 49
6
 49
-1.5
 49
0.25
 49
-1.5
  0
LTYPE
  2
dashed_double-dotted
 70
   64
  3
---------    -    -    ---------
 72
   65
 73
    6
 40
11
 49
6
 49
-1.5
 49
0.25
 49
-1.5
 49
0.25
 49
-1.5
  0
LTYPE
  2
double-dashed_double-dotted
 70
   64
  3
-----   ---------   -   -   ----
 72
   65
 73
    8
 40
18.5
 49
6
 49
-1.5
 49
6
 49
-1.5
 49
0.25
 49
-1.5
 49
0.25
 49
-1.5
  0
LTYPE
  2
dashed_triplicate-dotted
 70
   64
  3
-------    -    -    -    ------
 72
   65
 73
    8
 40
12.75
 49
6
 49
-1.5
 49
0.25
 49
-1.5
 49
0.25
 49
-1.5
 49
0.25
 49
-1.5
  0
LTYPE
  2
double-dashed_triplicate-dotted
 70
   64
  3
-----  ---------  -  -  -  -----
 72
   65
 73
   10
 40
20.25
 49
6
 49
-1.5
 49
6
 49
-1.5
 49
0.25
 49
-1.5
 49
0.25
 49
-1.5
 49
0.25
 49
-1.5
  0
LTYPE
  2
undefined
 70
   64
  3
--------------------------------
 72
   65
 73
    0
 40
0
  0
ENDTAB
  0
TABLE
  2
STYLE
  5
3
100
AcDbSymbolTable
 70
     1
  0
STYLE
  5
10
100
AcDbSymbolTableRecord
100
AcDbTextStyleTableRecord
  2
STANDARD
 70
     0
 40
0.0
 41
1.0
 50
0.0
 71
     0
 42
0.2
  3
txt
  4
bigfont.shx
  0
STYLE
  5
26
100
AcDbSymbolTableRecord
100
AcDbTextStyleTableRecord
  2
TATEGAKI
 70
    68
 40
0.0
 41
1.0
 50
0.0
 71
     0
 42
1.0
  3
txt
  4
bigfont.shx
  0
ENDTAB
  0
TABLE
  2
LAYER
 70
    2
  0
LAYER
  2
_0-0_通り芯
 70
   64
 62
    7
  6
CONTINUOUS
  0
LAYER
  2
ADD_LINE
 70
   64
 62
    7
  6
CONTINUOUS
  0
ENDTAB
  0
ENDSEC
  0
SECTION
  2
BLOCKS
  0
ENDSEC
  0
SECTION
  2
ENTITIES
  0
TEXT
  8
_0-0_通り芯
 62
    7
 10
2790.35436681799
 20
559.91227433488177
 40
50
 41
0.8
 50
0
  1
岩城ブロック工業株式会社
  0
TEXT
  8
_0-0_通り芯
 62
    7
 10
2020.0682950406463
 20
560.45231174778291
 40
40
 41
0.8
 50
0
  1
図　番
  0
TEXT
  8
_0-0_通り芯
 62
    7
 10
1619.9222230653504
 20
557.85394617029147
 40
40
 41
0.8
 50
0
  1
分　類
  0
TEXT
  8
_0-0_通り芯
 62
    7
 10
2322.2598398569467
 20
563.26990900812916
 40
40
 41
0.8
 50
0
  1
参考重量
  0
TEXT
  8
_0-0_通り芯
 62
    7
 10
769.00778858081708
 20
556.73786885029563
 40
40
 41
0.8
 50
0
  1
名　称
  0
TEXT
  8
_0-0_通り芯
 62
    7
 10
2534.5419278531463
 20
562.50284555796043
 40
40
 41
0.8
 50
0
  1
８９ｋｇ
  0
LINE
  8
_0-0_通り芯
  6
CONTINUOUS
 62
    7
 10
750.00012371991147
 20
541.89191251187708
 11
750.00012371991147
 21
2441.8918094119508
  0
LINE
  8
_0-0_通り芯
  6
CONTINUOUS
 62
    7
 10
750.00012371991147
 20
2441.8918094119508
 11
3450
 21
2441.8918094119508
  0
LINE
  8
_0-0_通り芯
  6
CONTINUOUS
 62
    7
 10
3450
 20
2441.8918094119508
 11
3450
 21
541.89191251187708
  0
LINE
  8
_0-0_通り芯
  6
CONTINUOUS
 62
    7
 10
3450
 20
541.89191251187708
 11
750.00012371991147
 21
541.89191251187708
  0
LINE
  8
_0-0_通り芯
  6
CONTINUOUS
 62
    7
 10
3450
 20
641.8919331318624
 11
750
 21
641.8919331318624
  0
LINE
  8
_0-0_通り芯
  6
CONTINUOUS
 62
    7
 10
900.00012371991124
 20
541.89191251187708
 11
900.00012371991124
 21
641.8919331318624
  0
LINE
  8
_0-0_通り芯
  6
CONTINUOUS
 62
    7
 10
1600.0000824799408
 20
541.89191251187708
 11
1600.0000824799408
 21
641.8919331318624
  0
LINE
  8
_0-0_通り芯
  6
CONTINUOUS
 62
    7
 10
1750.0000824799408
 20
541.89191251187708
 11
1750.0000824799408
 21
641.8919331318624
  0
LINE
  8
_0-0_通り芯
  6
CONTINUOUS
 62
    7
 10
2000.0000412399706
 20
541.89191251187708
 11
2000.0000412399706
 21
641.8919331318624
  0
LINE
  8
_0-0_通り芯
  6
CONTINUOUS
 62
    7
 10
2150.0001649598817
 20
541.89191251187708
 11
2150.0001649598817
 21
641.8919331318624
  0
LINE
  8
_0-0_通り芯
  6
CONTINUOUS
 62
    7
 10
2300.0001649598817
 20
541.89191251187708
 11
2300.0001649598817
 21
641.8919331318624
  0
LINE
  8
_0-0_通り芯
  6
CONTINUOUS
 62
    7
 10
2500.0000824799408
 20
541.89191251187708
 11
2500.0000824799408
 21
641.8919331318624
  0
LINE
  8
_0-0_通り芯
  6
CONTINUOUS
 62
    7
 10
2700
 20
541.89191251187708
 11
2700
 21
641.8919331318624
  0
TEXT
  8
_0-0_通り芯
 62
    7
 10
1010.1446999214793
 20
556.5915081952071
 40
40
 41
0.8
 50
0
  1
鉄筋コンクリート側溝蓋　530
  0
TEXT
  8
_0-0_通り芯
 62
    7
 10
1791.8646999049834
 20
1939.9418186497044
 40
50
 41
1
 50
0
  1
600
  0
TEXT
  8
_0-0_通り芯
 62
    7
 10
2454.7339626002959
 20
1939.9418186497044
 40
50
 41
1
 50
0
  1
120
  0
LINE
  8
_0-0_通り芯
  6
CONTINUOUS
 62
    7
 10
2094.8646339210304
 20
1640.1194804423565
 11
2094.8646339210304
 21
1601.2620255753802
  0
LINE
  8
_0-0_通り芯
  6
CONTINUOUS
 62
    7
 10
2094.8646339210304
 20
1538.2357623126059
 11
2094.8646339210304
 21
1525.9449314426731
  0
LINE
  8
_0-0_通り芯
  6
CONTINUOUS
 62
    7
 10
2094.8646339210304
 20
1655.4287059887038
 11
2094.8646339210304
 21
1538.2357623126059
  0
LINE
  8
_0-0_通り芯
  6
CONTINUOUS
 62
    7
 10
2094.8646339210304
 20
1655.4287059887038
 11
2114.1684042440879
 21
1665.0805911502323
  0
LINE
  8
_0-0_通り芯
  6
CONTINUOUS
 62
    7
 10
2094.8646339210304
 20
1525.9449314426731
 11
2114.8646999049834
 21
1515.3326086095863
  0
LINE
  8
_0-0_通り芯
  6
CONTINUOUS
 62
    7
 10
1514.8646999049831
 20
1939.9418186497044
 11
2114.8646999049834
 21
1939.9418186497044
  0
LINE
  8
_0-0_通り芯
  6
CONTINUOUS
 62
    7
 10
1514.8646999049831
 20
1939.9418186497044
 11
1514.8646999049831
 21
1874.8796205262879
  0
LINE
  8
_0-0_通り芯
  6
CONTINUOUS
 62
    7
 10
2114.8646999049834
 20
1939.9418186497044
 11
2114.8646999049834
 21
1874.8796205262879
  0
LINE
  8
_0-0_通り芯
  6
CONTINUOUS
 62
    7
 10
2417.73401208826
 20
1855.5405900285052
 11
2537.7339131123313
 21
1855.5405900285052
  0
LINE
  8
_0-0_通り芯
  6
CONTINUOUS
 62
    7
 10
2537.7339131123313
 20
1855.5405900285052
 11
2537.7339131123313
 21
1380.5406312684754
  0
LINE
  8
_0-0_通り芯
  6
CONTINUOUS
 62
    7
 10
2417.73401208826
 20
1939.9418186497044
 11
2537.7339131123313
 21
1939.9418186497044
  0
LINE
  8
_0-0_通り芯
  6
CONTINUOUS
 62
    7
 10
2417.73401208826
 20
1939.9418186497044
 11
2417.73401208826
 21
1874.8796205262879
  0
LINE
  8
_0-0_通り芯
  6
CONTINUOUS
 62
    7
 10
2537.7339131123313
 20
1939.9418186497044
 11
2537.7339131123313
 21
1874.8796205262879
  0
LINE
  8
_0-0_通り芯
  6
CONTINUOUS
 62
    7
 10
2114.8646999049834
 20
1515.3326086095863
 11
2114.8646999049834
 21
1330.5405900285052
  0
LINE
  8
_0-0_通り芯
  6
CONTINUOUS
 62
    7
 10
1514.8646999049831
 20
1850.5405735325169
 11
1514.8646999049831
 21
1330.5405900285052
  0
LINE
  8
_0-0_通り芯
  6
CONTINUOUS
 62
    7
 10
2114.8646999049834
 20
1850.5405735325169
 11
2114.8646999049834
 21
1665.42873898068
  0
LINE
  8
_0-0_通り芯
  6
CONTINUOUS
 62
    7
 10
1514.8646999049831
 20
1850.5405735325169
 11
2114.8646999049834
 21
1850.5405735325169
  0
LINE
  8
_0-0_通り芯
  6
CONTINUOUS
 62
    7
 10
1514.8646999049831
 20
1330.5405900285052
 11
2114.8646999049834
 21
1330.5405900285052
  0
LINE
  8
_0-0_通り芯
  6
CONTINUOUS
 62
    7
 10
2232.1588464685392
 20
1850.5405735325169
 11
2232.1588464685392
 21
1330.5405900285052
  0
LINE
  8
_0-0_通り芯
  6
CONTINUOUS
 62
    7
 10
2232.1588464685392
 20
1850.5405735325169
 11
2132.9033104149075
 21
1850.5405735325169
  0
LINE
  8
_0-0_通り芯
  6
CONTINUOUS
 62
    7
 10
2232.1588464685392
 20
1330.5405900285052
 11
2132.9033104149075
 21
1330.5405900285052
  0
LINE
  8
_0-0_通り芯
  6
CONTINUOUS
 62
    7
 10
2417.73401208826
 20
1335.5406065244933
 11
2537.7339131123313
 21
1335.5406065244933
  0
LINE
  8
_0-0_通り芯
  6
CONTINUOUS
 62
    7
 10
2417.73401208826
 20
1855.5405900285052
 11
2417.73401208826
 21
1335.5406065244933
  0
LINE
  8
_0-0_通り芯
  6
CONTINUOUS
 62
    7
 10
2537.7339131123313
 20
1440.0390212600296
 11
2537.7339131123313
 21
1335.5406065244933
  0
LINE
  8
_0-0_通り芯
  6
CONTINUOUS
 62
    7
 10
2630.4535736908788
 20
1855.5405900285052
 11
2630.4535736908788
 21
1335.5406065244933
  0
LINE
  8
_0-0_通り芯
  6
CONTINUOUS
 62
    7
 10
2630.4535736908788
 20
1855.5405900285052
 11
2546.4680439717063
 21
1855.5405900285052
  0
LINE
  8
_0-0_通り芯
  6
CONTINUOUS
 62
    7
 10
2630.4535736908788
 20
1335.5406065244933
 11
2546.4680439717063
 21
1335.5406065244933
  0
POINT
  8
_0-0_通り芯
 62
    7
 10
1514.8646999049831
 20
1939.9418186497044
  0
POINT
  8
_0-0_通り芯
 62
    7
 10
2114.8646999049834
 20
1939.9418186497044
  0
POINT
  8
_0-0_通り芯
 62
    7
 10
2417.73401208826
 20
1939.9418186497044
  0
POINT
  8
_0-0_通り芯
 62
    7
 10
2537.7339131123313
 20
1939.9418186497044
  0
POINT
  8
_0-0_通り芯
 62
    7
 10
2232.1588464685392
 20
1850.5405735325169
  0
POINT
  8
_0-0_通り芯
 62
    7
 10
2232.1588464685392
 20
1330.5405900285052
  0
POINT
  8
_0-0_通り芯
 62
    7
 10
2630.4535736908788
 20
1855.5405900285052
  0
POINT
  8
_0-0_通り芯
 62
    7
 10
2630.4535736908788
 20
1335.5406065244933
  0
TEXT
  8
_0-0_通り芯
 62
    7
 10
2232.158847473901
 20
1567.540581780511
 40
50
 41
1
 50
90.00000249999988
  1
530
  0
TEXT
  8
_0-0_通り芯
 62
    7
 10
2630.4535746962401
 20
1572.5405982764994
 40
50
 41
1
 50
90.000002499999994
  1
530
  0
ENDSEC
  0
EOF
