  0
SECTION
  2
HEADER
  9
$ACADVER
  1
AC1009
  9
$INSBASE
 10
0
 20
0
 30
0
  9
$EXTMIN
 10
0
 20
0
  9
$EXTMAX
 10
4200
 20
2970
  9
$LIMMIN
 10
0
 20
0
  9
$LIMMAX
 10
4200
 20
2970
  9
$LTSCALE
 40
10
  0
ENDSEC
  0
SECTION
  2
TABLES
  0
TABLE
  2
LTYPE
 70
     9
  0
LTYPE
  2
CONTINUOUS
 70
    64
  3
実線
 72
    65
 73
     0
 40
0.0
  0
LTYPE
  2
DASHED1
 70
    64
  3
--  --  --  --  --  --  --  --  
 72
    65
 73
     2
 40
2.5
 49
1.25
 49
-1.25
  0
LTYPE
  2
DASHED2
 70
    64
  3
----    ----    ----    ----    
 72
    65
 73
     2
 40
5.0
 49
2.5
 49
-2.5
  0
LTYPE
  2
DASHED3
 70
    64
  3
------  ------  ------  ------  
 72
    65
 73
     2
 40
5.0
 49
3.75
 49
-1.25
  0
LTYPE
  2
CENTER1
 70
    64
  3
----- - ----- - ----- - ----- - 
 72
    65
 73
     4
 40
10.0
 49
6.25
 49
-1.25
 49
1.25
 49
-1.25
  0
LTYPE
  2
CENTER2
 70
    64
  3
----------  --  ----------  --  
 72
    65
 73
     4
 40
20.0
 49
12.5
 49
-2.5
 49
2.5
 49
-2.5
  0
LTYPE
  2
PHANTOM1
 70
    64
  3
--- - - --- - - --- - - --- - - 
 72
    65
 73
     6
 40
10.0
 49
3.25
 49
-1.25
 49
1.25
 49
-1.25
 49
1.25
 49
-1.25
  0
LTYPE
  2
PHANTOM2
 70
    64
  3
--------  -  -  --------  -  -  
 72
    65
 73
     6
 40
20.0
 49
10.0
 49
-2.5
 49
1.25
 49
-2.5
 49
1.25
 49
-2.5
  0
LTYPE
  2
DOT
 70
    64
  3
-   -   -   -   -   -   -   -   
 72
    65
 73
     2
 40
2.5
 49
0.625
 49
-1.875
  0
LTYPE
  2
DUMMY
 70
    64
  3
ダミー
 72
    65
 73
     0
 40
0.0
  0
LTYPE
  2
RAND1
 70
    64
  3
ランダム線1
 72
    65
 73
     4
 40
10.0
 49
1.0
 49
-2.0
 49
3.0
 49
-4.0
  0
LTYPE
  2
RAND2
 70
    64
  3
ランダム線2
 72
    65
 73
     4
 40
14.0
 49
2.0
 49
-3.0
 49
4.0
 49
-5.0
  0
LTYPE
  2
RAND3
 70
    64
  3
ランダム線3
 72
    65
 73
     4
 40
18.0
 49
3.0
 49
-4.0
 49
5.0
 49
-6.0
  0
LTYPE
  2
RAND4
 70
    64
  3
ランダム線4
 72
    65
 73
     4
 40
22.0
 49
4.0
 49
-5.0
 49
6.0
 49
-7.0
  0
LTYPE
  2
RAND5
 70
    64
  3
ランダム線5
 72
    65
 73
     4
 40
26.0
 49
5.0
 49
-6.0
 49
7.0
 49
-8.0
  0
LTYPE
  2
LONG1
 70
    64
  3
----------  --  ----------  --  
 72
    65
 73
     4
 40
40.0
 49
32.5
 49
-2.5
 49
2.5
 49
-2.5
  0
LTYPE
  2
LONG2
 70
    64
  3
--------  -  -  --------  -  -  
 72
    65
 73
     6
 40
40.0
 49
30.0
 49
-2.5
 49
1.25
 49
-2.5
 49
1.25
 49
-2.5
  0
LTYPE
  2
LONG3
 70
    64
  3
+++++++++++++++..+++++++++++++++
 72
    65
 73
     2
 40
40.0
 49
37.5
 49
-2.5
  0
LTYPE
  2
LONG4
 70
    64
  3
+++++++++++++++..+++++++++++++++
 72
    65
 73
     2
 40
80.0
 49
75.0
 49
-5.0
  0
LTYPE
  2
LONG5
 70
    64
  3
----------  --  ----------  --  
 72
    65
 73
     4
 40
60.0
 49
37.5
 49
-7.5
 49
7.5
 49
-7.5
  0
LTYPE
  2
dashed
 70
   64
  3
-------   -------------   ------
 72
   65
 73
    2
 40
7.5
 49
6
 49
-1.5
  0
LTYPE
  2
dashed_spaced
 70
   64
  3
----        --------        ----
 72
   65
 73
    2
 40
12
 49
6
 49
-6
  0
LTYPE
  2
long_dashed_dotted
 70
   64
  3
------------- --- --------------
 72
   65
 73
    4
 40
15.25
 49
12
 49
-1.5
 49
0.25
 49
-1.5
  0
LTYPE
  2
long_dashed_double-dotted
 70
   64
  3
----------- --- --- ------------
 72
   65
 73
    6
 40
17
 49
12
 49
-1.5
 49
0.25
 49
-1.5
 49
0.25
 49
-1.5
  0
LTYPE
  2
long_dashed_triplicate-dotted
 70
   64
  3
--------- --- --- --- ----------
 72
   65
 73
    8
 40
18.75
 49
12
 49
-1.5
 49
0.25
 49
-1.5
 49
0.25
 49
-1.5
 49
0.25
 49
-1.5
  0
LTYPE
  2
dotted
 70
   64
  3
   -       -       -       -    
 72
   65
 73
    2
 40
1.75
 49
0.25
 49
-1.5
  0
LTYPE
  2
chain
 70
   64
  3
-------------- -- --------------
 72
   65
 73
    4
 40
18.5
 49
12
 49
-1.5
 49
3.5
 49
-1.5
  0
LTYPE
  2
chain_double_dash
 70
   64
  3
------------ -- -- -------------
 72
   65
 73
    6
 40
23.5
 49
12
 49
-1.5
 49
3.5
 49
-1.5
 49
3.5
 49
-1.5
  0
LTYPE
  2
dashed_dotted
 70
   64
  3
-----------     -     ----------
 72
   65
 73
    4
 40
9.25
 49
6
 49
-1.5
 49
0.25
 49
-1.5
  0
LTYPE
  2
double-dashed_dotted
 70
   64
  3
------   -----------   -   -----
 72
   65
 73
    6
 40
16.75
 49
6
 49
-1.5
 49
6
 49
-1.5
 49
0.25
 49
-1.5
  0
LTYPE
  2
dashed_double-dotted
 70
   64
  3
---------    -    -    ---------
 72
   65
 73
    6
 40
11
 49
6
 49
-1.5
 49
0.25
 49
-1.5
 49
0.25
 49
-1.5
  0
LTYPE
  2
double-dashed_double-dotted
 70
   64
  3
-----   ---------   -   -   ----
 72
   65
 73
    8
 40
18.5
 49
6
 49
-1.5
 49
6
 49
-1.5
 49
0.25
 49
-1.5
 49
0.25
 49
-1.5
  0
LTYPE
  2
dashed_triplicate-dotted
 70
   64
  3
-------    -    -    -    ------
 72
   65
 73
    8
 40
12.75
 49
6
 49
-1.5
 49
0.25
 49
-1.5
 49
0.25
 49
-1.5
 49
0.25
 49
-1.5
  0
LTYPE
  2
double-dashed_triplicate-dotted
 70
   64
  3
-----  ---------  -  -  -  -----
 72
   65
 73
   10
 40
20.25
 49
6
 49
-1.5
 49
6
 49
-1.5
 49
0.25
 49
-1.5
 49
0.25
 49
-1.5
 49
0.25
 49
-1.5
  0
LTYPE
  2
undefined
 70
   64
  3
--------------------------------
 72
   65
 73
    0
 40
0
  0
ENDTAB
  0
TABLE
  2
STYLE
  5
3
100
AcDbSymbolTable
 70
     1
  0
STYLE
  5
10
100
AcDbSymbolTableRecord
100
AcDbTextStyleTableRecord
  2
STANDARD
 70
     0
 40
0.0
 41
1.0
 50
0.0
 71
     0
 42
0.2
  3
txt
  4
bigfont.shx
  0
STYLE
  5
26
100
AcDbSymbolTableRecord
100
AcDbTextStyleTableRecord
  2
TATEGAKI
 70
    68
 40
0.0
 41
1.0
 50
0.0
 71
     0
 42
1.0
  3
txt
  4
bigfont.shx
  0
ENDTAB
  0
TABLE
  2
LAYER
 70
    2
  0
LAYER
  2
_0-0_通り芯
 70
   64
 62
    7
  6
CONTINUOUS
  0
LAYER
  2
ADD_LINE
 70
   64
 62
    7
  6
CONTINUOUS
  0
ENDTAB
  0
ENDSEC
  0
SECTION
  2
BLOCKS
  0
ENDSEC
  0
SECTION
  2
ENTITIES
  0
TEXT
  8
_0-0_通り芯
 62
    7
 10
2074.0995021510771
 20
561.92705309068833
 40
40
 41
0.8
 50
0
  1
図　番
  0
TEXT
  8
_0-0_通り芯
 62
    7
 10
2394.7072506466429
 20
562.20047409470021
 40
40
 41
0.8
 50
0
  1
参考重量
  0
TEXT
  8
_0-0_通り芯
 62
    7
 10
1584.773891139675
 20
563.96645210884708
 40
40
 41
0.8
 50
0
  1
分　類
  0
TEXT
  8
_0-0_通り芯
 62
    7
 10
2820.9913758973826
 20
562.20047409470021
 40
50
 41
0.8
 50
0
  1
岩城ブロック工業株式会社
  0
TEXT
  8
_0-0_通り芯
 62
    7
 10
2613.6799019478462
 20
562.20047409470021
 40
40
 41
0.8
 50
0
  1
７４kg
  0
LINE
  8
_0-0_通り芯
  6
CONTINUOUS
 62
    7
 10
750.00012371991147
 20
541.89191251187708
 11
750.00012371991147
 21
2441.8918094119508
  0
LINE
  8
_0-0_通り芯
  6
CONTINUOUS
 62
    7
 10
750.00012371991147
 20
2441.8918094119508
 11
3450
 21
2441.8918094119508
  0
LINE
  8
_0-0_通り芯
  6
CONTINUOUS
 62
    7
 10
3450
 20
2441.8918094119508
 11
3450
 21
541.89191251187708
  0
LINE
  8
_0-0_通り芯
  6
CONTINUOUS
 62
    7
 10
3450
 20
541.89191251187708
 11
750.00012371991147
 21
541.89191251187708
  0
LINE
  8
_0-0_通り芯
  6
CONTINUOUS
 62
    7
 10
3450
 20
641.8919331318624
 11
750
 21
641.8919331318624
  0
LINE
  8
_0-0_通り芯
  6
CONTINUOUS
 62
    7
 10
900.00012371991124
 20
541.89191251187708
 11
900.00012371991124
 21
641.8919331318624
  0
LINE
  8
_0-0_通り芯
  6
CONTINUOUS
 62
    7
 10
1569.0068837758658
 20
541.89191251187708
 11
1569.0068837758658
 21
641.8919331318624
  0
LINE
  8
_0-0_通り芯
  6
CONTINUOUS
 62
    7
 10
1719.0068837758658
 20
541.89191251187708
 11
1719.0068837758658
 21
641.8919331318624
  0
LINE
  8
_0-0_通り芯
  6
CONTINUOUS
 62
    7
 10
2220.0001484638938
 20
541.89191251187708
 11
2220.0001484638938
 21
641.8919331318624
  0
LINE
  8
_0-0_通り芯
  6
CONTINUOUS
 62
    7
 10
2370.0001484638938
 20
541.89191251187708
 11
2370.0001484638938
 21
641.8919331318624
  0
LINE
  8
_0-0_通り芯
  6
CONTINUOUS
 62
    7
 10
2570.0000659839525
 20
541.89191251187708
 11
2570.0000659839525
 21
641.8919331318624
  0
LINE
  8
_0-0_通り芯
  6
CONTINUOUS
 62
    7
 10
2769.9999835040121
 20
541.89191251187708
 11
2769.9999835040121
 21
641.8919331318624
  0
LINE
  8
_0-0_通り芯
  6
CONTINUOUS
 62
    7
 10
2049.0068590318838
 20
541.89191251187708
 11
2049.0068590318838
 21
641.8919331318624
  0
LINE
  8
_0-0_通り芯
  6
CONTINUOUS
 62
    7
 10
2081.0350392963337
 20
1430.0536040147213
 11
1481.0350392963337
 21
1430.0536040147213
  0
LINE
  8
_0-0_通り芯
  6
CONTINUOUS
 62
    7
 10
1481.0350392963337
 20
1430.0536040147217
 11
1481.0350392963337
 21
1860.0535380307688
  0
LINE
  8
_0-0_通り芯
  6
CONTINUOUS
 62
    7
 10
1481.0350392963337
 20
1860.0535380307688
 11
2081.0350392963337
 21
1860.0535380307688
  0
LINE
  8
_0-0_通り芯
  6
CONTINUOUS
 62
    7
 10
2081.0350392963337
 20
1570.0534473028338
 11
2056.0352042562154
 21
1580.0532328549875
  0
LINE
  8
_0-0_通り芯
  6
CONTINUOUS
 62
    7
 10
2081.0350392963337
 20
1570.0534473028338
 11
2081.0350392963337
 21
1430.0536040147213
  0
LINE
  8
_0-0_通り芯
  6
CONTINUOUS
 62
    7
 10
2081.0350392963337
 20
1860.0535380307688
 11
2081.0350392963337
 21
1720.053571022745
  0
LINE
  8
_0-0_通り芯
  6
CONTINUOUS
 62
    7
 10
2081.0857644599737
 20
1719.9407384636233
 11
2056.0761555468612
 21
1709.9069299358575
  0
LINE
  8
_0-0_通り芯
  6
CONTINUOUS
 62
    7
 10
2056.0350805363037
 20
1709.8904751876523
 11
2056.0350805363037
 21
1580.0533565748992
  0
LINE
  8
_0-0_通り芯
  6
CONTINUOUS
 62
    7
 10
2578.7631396472261
 20
1432.8859071473817
 11
2578.7631396472261
 21
1862.8858411634292
  0
LINE
  8
_0-0_通り芯
  6
CONTINUOUS
 62
    7
 10
2578.7631396472261
 20
1862.8858411634292
 11
2698.7630406712969
 21
1862.8858411634292
  0
LINE
  8
_0-0_通り芯
  6
CONTINUOUS
 62
    7
 10
2698.7630406712969
 20
1862.8858411634292
 11
2698.7630406712969
 21
1432.8859071473817
  0
LINE
  8
_0-0_通り芯
  6
CONTINUOUS
 62
    7
 10
2698.7630406712969
 20
1432.8859071473817
 11
2578.7631396472261
 21
1432.8859071473817
  0
LINE
  8
_0-0_通り芯
  6
CONTINUOUS
 62
    7
 10
2151.6177182354886
 20
1860.0535380307688
 11
2151.6177182354886
 21
1430.0536040147213
  0
POINT
  8
_0-0_通り芯
 62
    7
 10
2151.6177182354886
 20
1860.0535380307688
  0
POINT
  8
_0-0_通り芯
 62
    7
 10
2151.6177182354886
 20
1430.0536040147213
  0
LINE
  8
_0-0_通り芯
  6
CONTINUOUS
 62
    7
 10
2151.6177182354886
 20
1860.0535380307688
 11
2097.4904546884027
 21
1860.0535380307688
  0
LINE
  8
_0-0_通り芯
  6
CONTINUOUS
 62
    7
 10
2151.6177182354886
 20
1430.0536040147213
 11
2097.4904546884027
 21
1430.0536040147213
  0
TEXT
  8
_0-0_通り芯
 62
    7
 10
2151.6177182354886
 20
1622.053571022745
 40
50
 41
1
 50
90
  1
430
  0
LINE
  8
_0-0_通り芯
  6
CONTINUOUS
 62
    7
 10
1481.0350392963337
 20
1950.8421522842086
 11
2081.0350392963337
 21
1950.8421522842086
  0
POINT
  8
_0-0_通り芯
 62
    7
 10
1481.0350392963337
 20
1950.8421522842086
  0
POINT
  8
_0-0_通り芯
 62
    7
 10
2081.0350392963337
 20
1950.8421522842086
  0
LINE
  8
_0-0_通り芯
  6
CONTINUOUS
 62
    7
 10
1481.0350392963337
 20
1950.8421522842086
 11
1481.0350392963337
 21
1888.9824225161103
  0
LINE
  8
_0-0_通り芯
  6
CONTINUOUS
 62
    7
 10
2081.0350392963337
 20
1950.8421522842086
 11
2081.0350392963337
 21
1888.9824225161103
  0
LINE
  8
_0-0_通り芯
  6
CONTINUOUS
 62
    7
 10
2578.7631396472261
 20
1950.8421522842086
 11
2698.7630406712969
 21
1950.8421522842086
  0
POINT
  8
_0-0_通り芯
 62
    7
 10
2578.7631396472261
 20
1950.8421522842086
  0
POINT
  8
_0-0_通り芯
 62
    7
 10
2698.7630406712969
 20
1950.8421522842086
  0
LINE
  8
_0-0_通り芯
  6
CONTINUOUS
 62
    7
 10
2578.7631396472261
 20
1950.8421522842086
 11
2578.7631396472261
 21
1888.9824225161103
  0
LINE
  8
_0-0_通り芯
  6
CONTINUOUS
 62
    7
 10
2698.7630406712969
 20
1950.8421522842086
 11
2698.7630406712969
 21
1888.9824225161103
  0
LINE
  8
_0-0_通り芯
  6
CONTINUOUS
 62
    7
 10
2844.9621893862559
 20
1862.8858411634292
 11
2844.9621893862559
 21
1432.8859071473817
  0
POINT
  8
_0-0_通り芯
 62
    7
 10
2844.9621893862559
 20
1862.8858411634292
  0
POINT
  8
_0-0_通り芯
 62
    7
 10
2844.9621893862559
 20
1432.8859071473817
  0
LINE
  8
_0-0_通り芯
  6
CONTINUOUS
 62
    7
 10
2844.9621893862559
 20
1862.8858411634292
 11
2767.6375271761326
 21
1862.8858411634292
  0
LINE
  8
_0-0_通り芯
  6
CONTINUOUS
 62
    7
 10
2844.9621893862559
 20
1432.8859071473817
 11
2767.6375271761326
 21
1432.8859071473817
  0
TEXT
  8
_0-0_通り芯
 62
    7
 10
2844.9621893862559
 20
1624.8858741554054
 40
50
 41
1
 50
90
  1
430
  0
TEXT
  8
_0-0_通り芯
 62
    7
 10
1752.2662040081057
 20
1948.779647277765
 40
50
 41
1
 50
0
  1
600
  0
TEXT
  8
_0-0_通り芯
 62
    7
 10
2594.3180767269032
 20
1951.1855097712473
 40
50
 41
1
 50
0
  1
120
  0
TEXT
  8
_0-0_通り芯
 62
    7
 10
780.34128658963198
 20
562.39789436297497
 40
40
 41
0.8
 50
0
  1
名　称
  0
TEXT
  8
_0-0_通り芯
 62
    7
 10
933.78648706384638
 20
562.88136662663646
 40
40
 41
0.8
 50
0
  1
鉄筋コンクリート側溝蓋　４３０
  0
ENDSEC
  0
EOF
