  0
SECTION
  2
HEADER
  9
$ACADVER
  1
AC1009
  9
$INSBASE
 10
0
 20
0
 30
0
  9
$EXTMIN
 10
0
 20
0
  9
$EXTMAX
 10
594000
 20
420000
  9
$LIMMIN
 10
0
 20
0
  9
$LIMMAX
 10
594000
 20
420000
  9
$LTSCALE
 40
1000
  0
ENDSEC
  0
SECTION
  2
TABLES
  0
TABLE
  2
LTYPE
 70
     9
  0
LTYPE
  2
CONTINUOUS
 70
    64
  3
実線
 72
    65
 73
     0
 40
0.0
  0
LTYPE
  2
DASHED1
 70
    64
  3
--  --  --  --  --  --  --  --  
 72
    65
 73
     2
 40
2.5
 49
1.25
 49
-1.25
  0
LTYPE
  2
DASHED2
 70
    64
  3
----    ----    ----    ----    
 72
    65
 73
     2
 40
5.0
 49
2.5
 49
-2.5
  0
LTYPE
  2
DASHED3
 70
    64
  3
------  ------  ------  ------  
 72
    65
 73
     2
 40
5.0
 49
3.75
 49
-1.25
  0
LTYPE
  2
CENTER1
 70
    64
  3
----- - ----- - ----- - ----- - 
 72
    65
 73
     4
 40
10.0
 49
6.25
 49
-1.25
 49
1.25
 49
-1.25
  0
LTYPE
  2
CENTER2
 70
    64
  3
----------  --  ----------  --  
 72
    65
 73
     4
 40
20.0
 49
12.5
 49
-2.5
 49
2.5
 49
-2.5
  0
LTYPE
  2
PHANTOM1
 70
    64
  3
--- - - --- - - --- - - --- - - 
 72
    65
 73
     6
 40
10.0
 49
3.25
 49
-1.25
 49
1.25
 49
-1.25
 49
1.25
 49
-1.25
  0
LTYPE
  2
PHANTOM2
 70
    64
  3
--------  -  -  --------  -  -  
 72
    65
 73
     6
 40
20.0
 49
10.0
 49
-2.5
 49
1.25
 49
-2.5
 49
1.25
 49
-2.5
  0
LTYPE
  2
DOT
 70
    64
  3
-   -   -   -   -   -   -   -   
 72
    65
 73
     2
 40
2.5
 49
0.625
 49
-1.875
  0
LTYPE
  2
DUMMY
 70
    64
  3
ダミー
 72
    65
 73
     0
 40
0.0
  0
LTYPE
  2
RAND1
 70
    64
  3
ランダム線1
 72
    65
 73
     4
 40
10.0
 49
1.0
 49
-2.0
 49
3.0
 49
-4.0
  0
LTYPE
  2
RAND2
 70
    64
  3
ランダム線2
 72
    65
 73
     4
 40
14.0
 49
2.0
 49
-3.0
 49
4.0
 49
-5.0
  0
LTYPE
  2
RAND3
 70
    64
  3
ランダム線3
 72
    65
 73
     4
 40
18.0
 49
3.0
 49
-4.0
 49
5.0
 49
-6.0
  0
LTYPE
  2
RAND4
 70
    64
  3
ランダム線4
 72
    65
 73
     4
 40
22.0
 49
4.0
 49
-5.0
 49
6.0
 49
-7.0
  0
LTYPE
  2
RAND5
 70
    64
  3
ランダム線5
 72
    65
 73
     4
 40
26.0
 49
5.0
 49
-6.0
 49
7.0
 49
-8.0
  0
LTYPE
  2
LONG1
 70
    64
  3
----------  --  ----------  --  
 72
    65
 73
     4
 40
40.0
 49
32.5
 49
-2.5
 49
2.5
 49
-2.5
  0
LTYPE
  2
LONG2
 70
    64
  3
--------  -  -  --------  -  -  
 72
    65
 73
     6
 40
40.0
 49
30.0
 49
-2.5
 49
1.25
 49
-2.5
 49
1.25
 49
-2.5
  0
LTYPE
  2
LONG3
 70
    64
  3
+++++++++++++++..+++++++++++++++
 72
    65
 73
     2
 40
40.0
 49
37.5
 49
-2.5
  0
LTYPE
  2
LONG4
 70
    64
  3
+++++++++++++++..+++++++++++++++
 72
    65
 73
     2
 40
80.0
 49
75.0
 49
-5.0
  0
LTYPE
  2
LONG5
 70
    64
  3
----------  --  ----------  --  
 72
    65
 73
     4
 40
60.0
 49
37.5
 49
-7.5
 49
7.5
 49
-7.5
  0
LTYPE
  2
dashed
 70
   64
  3
-------   -------------   ------
 72
   65
 73
    2
 40
7.5
 49
6
 49
-1.5
  0
LTYPE
  2
dashed_spaced
 70
   64
  3
----        --------        ----
 72
   65
 73
    2
 40
12
 49
6
 49
-6
  0
LTYPE
  2
long_dashed_dotted
 70
   64
  3
------------- --- --------------
 72
   65
 73
    4
 40
15.25
 49
12
 49
-1.5
 49
0.25
 49
-1.5
  0
LTYPE
  2
long_dashed_double-dotted
 70
   64
  3
----------- --- --- ------------
 72
   65
 73
    6
 40
17
 49
12
 49
-1.5
 49
0.25
 49
-1.5
 49
0.25
 49
-1.5
  0
LTYPE
  2
long_dashed_triplicate-dotted
 70
   64
  3
--------- --- --- --- ----------
 72
   65
 73
    8
 40
18.75
 49
12
 49
-1.5
 49
0.25
 49
-1.5
 49
0.25
 49
-1.5
 49
0.25
 49
-1.5
  0
LTYPE
  2
dotted
 70
   64
  3
   -       -       -       -    
 72
   65
 73
    2
 40
1.75
 49
0.25
 49
-1.5
  0
LTYPE
  2
chain
 70
   64
  3
-------------- -- --------------
 72
   65
 73
    4
 40
18.5
 49
12
 49
-1.5
 49
3.5
 49
-1.5
  0
LTYPE
  2
chain_double_dash
 70
   64
  3
------------ -- -- -------------
 72
   65
 73
    6
 40
23.5
 49
12
 49
-1.5
 49
3.5
 49
-1.5
 49
3.5
 49
-1.5
  0
LTYPE
  2
dashed_dotted
 70
   64
  3
-----------     -     ----------
 72
   65
 73
    4
 40
9.25
 49
6
 49
-1.5
 49
0.25
 49
-1.5
  0
LTYPE
  2
double-dashed_dotted
 70
   64
  3
------   -----------   -   -----
 72
   65
 73
    6
 40
16.75
 49
6
 49
-1.5
 49
6
 49
-1.5
 49
0.25
 49
-1.5
  0
LTYPE
  2
dashed_double-dotted
 70
   64
  3
---------    -    -    ---------
 72
   65
 73
    6
 40
11
 49
6
 49
-1.5
 49
0.25
 49
-1.5
 49
0.25
 49
-1.5
  0
LTYPE
  2
double-dashed_double-dotted
 70
   64
  3
-----   ---------   -   -   ----
 72
   65
 73
    8
 40
18.5
 49
6
 49
-1.5
 49
6
 49
-1.5
 49
0.25
 49
-1.5
 49
0.25
 49
-1.5
  0
LTYPE
  2
dashed_triplicate-dotted
 70
   64
  3
-------    -    -    -    ------
 72
   65
 73
    8
 40
12.75
 49
6
 49
-1.5
 49
0.25
 49
-1.5
 49
0.25
 49
-1.5
 49
0.25
 49
-1.5
  0
LTYPE
  2
double-dashed_triplicate-dotted
 70
   64
  3
-----  ---------  -  -  -  -----
 72
   65
 73
   10
 40
20.25
 49
6
 49
-1.5
 49
6
 49
-1.5
 49
0.25
 49
-1.5
 49
0.25
 49
-1.5
 49
0.25
 49
-1.5
  0
LTYPE
  2
undefined
 70
   64
  3
--------------------------------
 72
   65
 73
    0
 40
0
  0
ENDTAB
  0
TABLE
  2
STYLE
  5
3
100
AcDbSymbolTable
 70
     1
  0
STYLE
  5
10
100
AcDbSymbolTableRecord
100
AcDbTextStyleTableRecord
  2
STANDARD
 70
     0
 40
0.0
 41
1.0
 50
0.0
 71
     0
 42
0.2
  3
txt
  4
bigfont.shx
  0
STYLE
  5
26
100
AcDbSymbolTableRecord
100
AcDbTextStyleTableRecord
  2
TATEGAKI
 70
    68
 40
0.0
 41
1.0
 50
0.0
 71
     0
 42
1.0
  3
txt
  4
bigfont.shx
  0
ENDTAB
  0
TABLE
  2
LAYER
 70
    4
  0
LAYER
  2
_0-0_通り芯
 70
   64
 62
    7
  6
CONTINUOUS
  0
LAYER
  2
_0-1_
 70
   64
 62
    7
  6
CONTINUOUS
  0
LAYER
  2
_0-7_ADD_LINE
 70
   64
 62
    7
  6
CONTINUOUS
  0
LAYER
  2
ADD_LINE
 70
   64
 62
    7
  6
CONTINUOUS
  0
ENDTAB
  0
ENDSEC
  0
SECTION
  2
BLOCKS
  0
ENDSEC
  0
SECTION
  2
ENTITIES
  0
TEXT
  8
_0-1_
 62
    7
 10
220146.28746281631
 20
201839.44138458138
 40
3500
 41
1
 50
0
  1
412
  0
TEXT
  8
_0-1_
 62
    7
 10
214896.74691652504
 20
193379.02157896874
 40
3500
 41
1
 50
0
  1
10
  0
TEXT
  8
_0-1_
 62
    7
 10
229145.8280091075
 20
193379.02157896874
 40
3500
 41
1
 50
0
  1
10
  0
TEXT
  8
_0-1_
 62
    7
 10
220869.09602315241
 20
193003.53476016389
 40
3500
 41
1
 50
0
  1
412
  0
TEXT
  8
_0-1_
 62
    7
 10
220146.28746281631
 20
165503.31862231321
 40
3500
 41
1
 50
0
  1
402
  0
TEXT
  8
_0-1_
 62
    7
 10
266548.57006618474
 20
176877.27949117409
 40
3500
 41
1
 50
90
  1
95
  0
TEXT
  8
_0-1_
 62
    7
 10
237231.9909072943
 20
186664.33552337534
 40
3500
 41
1
 50
0
  1
2%
  0
TEXT
  8
_0-1_
 62
    7
 10
208517.51003908107
 20
186480.2683383227
 40
3500
 41
1
 50
0
  1
2%
  0
TEXT
  8
_0-1_
 62
    7
 10
380913.52566844248
 20
186789.31858738582
 40
3500
 41
1
 50
90
  1
L＝499
  0
TEXT
  8
_0-1_
 62
    7
 10
332499.82009147207
 20
162964.31858738585
 40
3500
 41
1
 50
90
  1
10
  0
TEXT
  8
_0-1_
 62
    7
 10
328287.14818120311
 20
232257.46916527959
 40
3500
 41
1
 50
0
  1
412
  0
TEXT
  8
_0-1_
 62
    7
 10
159872.13769169807
 20
92150.36835968087
 40
4000
 41
1
 50
0
  1
製品名
  0
TEXT
  8
_0-1_
 62
    7
 10
193124.53503356825
 20
92279.253620695876
 40
4000
 41
1
 50
0
  1
流レール蓋
  0
TEXT
  8
_0-1_
 62
    7
 10
232305.65438212847
 20
92021.483098665864
 40
4000
 41
1
 50
0
  1
タイプ
  0
TEXT
  8
_0-1_
 62
    7
 10
285858.60910605162
 20
92708.289668708356
 40
4000
 41
1
 50
0
  1
重量
  0
TEXT
  8
_0-1_
 62
    7
 10
221379.79808812353
 20
184060.0820678577
 40
3500
 41
1
 50
90
  1
3
  0
TEXT
  8
_0-1_
 62
    7
 10
332519.1330819311
 20
214612.85648820209
 40
3500
 41
1
 50
90
  1
10
  0
TEXT
  8
_0-7_ADD_LINE
 62
    7
 10
330102.29543560924
 20
182597.86023790078
 40
3000
 41
1
 50
0
  1
110
  0
TEXT
  8
_0-7_ADD_LINE
 62
    7
 10
330052.98671197984
 20
173820.90743186808
 40
3500
 41
1
 50
0
  1
120
  0
TEXT
  8
_0-7_ADD_LINE
 62
    7
 10
356568.75284368818
 20
158590.675420838
 40
3500
 41
1
 50
0
  1
横スリット
  0
TEXT
  8
_0-7_ADD_LINE
 62
    7
 10
359065.00697742635
 20
152849.29091324008
 40
3500
 41
1
 50
0
  1
4箇所/1枚
  0
TEXT
  8
_0-7_ADD_LINE
 62
    7
 10
308932.96310537407
 20
208869.79159057874
 40
3500
 41
1
 50
0
  1
A
  0
TEXT
  8
_0-7_ADD_LINE
 62
    7
 10
354321.60552616458
 20
208811.38806675241
 40
3500
 41
1
 50
0
  1
A
  0
TEXT
  8
_0-1_
 62
    7
 10
258598.24762918855
 20
92021.483098665864
 40
4000
 41
1
 50
0
  1
集水
  0
TEXT
  8
_0-1_
 62
    7
 10
308603.57397428167
 20
92534.663982691345
 40
4000
 41
1
 50
0
  1
42㎏
  0
TEXT
  8
_0-1_
 62
    7
 10
347724.71185926604
 20
91569.134819532934
 40
5000
 41
1
 50
0
  1
岩城ブロック工業株式会社
  0
LINE
  8
_0-0_通り芯
  6
CONTINUOUS
 62
    7
 10
154214.28571428571
 20
279285.71428571426
 11
154214.28571428571
 21
89285.714285714275
  0
LINE
  8
_0-0_通り芯
  6
CONTINUOUS
 62
    7
 10
154214.28571428571
 20
89285.714285714275
 11
431214.2857142858
 21
89285.714285714275
  0
LINE
  8
_0-0_通り芯
  6
CONTINUOUS
 62
    7
 10
431214.2857142858
 20
89285.714285714275
 11
431214.2857142858
 21
279285.71428571426
  0
LINE
  8
_0-0_通り芯
  6
CONTINUOUS
 62
    7
 10
154214.28571428571
 20
279285.71428571426
 11
431214.2857142858
 21
279285.71428571426
  0
LINE
  8
_0-1_
  6
CONTINUOUS
 62
    7
 10
154214.28571428571
 20
99285.714285714275
 11
431214.2857142858
 21
99285.714285714275
  0
LINE
  8
_0-1_
  6
CONTINUOUS
 62
    7
 10
180257.48980890401
 20
99285.714285714275
 11
180257.48980890401
 21
89285.714285714275
  0
LINE
  8
_0-1_
  6
CONTINUOUS
 62
    7
 10
231569.93435050111
 20
99285.714285714275
 11
231569.93435050111
 21
89285.714285714275
  0
LINE
  8
_0-1_
  6
CONTINUOUS
 62
    7
 10
245779.53437740495
 20
99285.714285714275
 11
245779.53437740495
 21
89285.714285714275
  0
LINE
  8
_0-1_
  6
CONTINUOUS
 62
    7
 10
281040.39370342559
 20
99285.714285714275
 11
281040.39370342559
 21
89285.714285714275
  0
LINE
  8
_0-1_
  6
CONTINUOUS
 62
    7
 10
298144.54188395798
 20
99285.714285714275
 11
298144.54188395798
 21
89285.714285714275
  0
LINE
  8
_0-1_
  6
CONTINUOUS
 62
    7
 10
331037.13453882787
 20
99285.714285714275
 11
331037.13453882787
 21
89285.714285714275
  0
LINE
  8
_0-0_通り芯
  6
CONTINUOUS
 62
    7
 10
216358.07409925651
 20
184023.4354677918
 11
216358.07409925651
 21
175252.27949117409
  0
LINE
  8
_0-0_通り芯
  6
CONTINUOUS
 62
    7
 10
203796.28746281628
 20
175252.27949117409
 11
243996.28746281628
 21
175252.27949117409
  0
LINE
  8
_0-0_通り芯
  6
CONTINUOUS
 62
    7
 10
203796.28746281628
 20
184752.27949117409
 11
203796.28746281628
 21
175252.27949117409
  0
LINE
  8
_0-0_通り芯
  6
CONTINUOUS
 62
    7
 10
243996.28746281628
 20
184752.27949117409
 11
243996.28746281628
 21
175252.27949117409
  0
LINE
  8
_0-0_通り芯
  6
CONTINUOUS
 62
    7
 10
203796.28746281628
 20
184752.27949117409
 11
216638.45959001168
 21
184303.82095854697
  0
LINE
  8
_0-0_通り芯
  6
CONTINUOUS
 62
    7
 10
243996.28746281628
 20
184752.27949117409
 11
231154.11533562094
 21
184303.82095854697
  0
LINE
  8
_0-0_通り芯
  6
CONTINUOUS
 62
    7
 10
216638.45959001168
 20
184303.82095854697
 11
216938.45959001165
 21
184003.82095854697
  0
LINE
  8
_0-0_通り芯
  6
CONTINUOUS
 62
    7
 10
231154.11533562094
 20
184303.82095854697
 11
230854.11533562091
 21
184003.82095854697
  0
LINE
  8
_0-0_通り芯
  6
CONTINUOUS
 62
    7
 10
216638.45959001168
 20
184303.82095854697
 11
216358.07409925651
 21
184023.4354677918
  0
LINE
  8
_0-0_通り芯
  6
CONTINUOUS
 62
    7
 10
216938.45959001165
 20
184003.82095854697
 11
216905.03424303848
 21
183967.88481879351
  0
LINE
  8
_0-0_通り芯
  6
CONTINUOUS
 62
    7
 10
216905.03424303848
 20
183967.88481879351
 11
216848.21455004357
 21
183905.6558852896
  0
LINE
  8
_0-0_通り芯
  6
CONTINUOUS
 62
    7
 10
216848.21455004357
 20
183905.6558852896
 11
216793.64545588085
 21
183842.676752175
  0
LINE
  8
_0-0_通り芯
  6
CONTINUOUS
 62
    7
 10
216793.64545588085
 20
183842.676752175
 11
216742.7513901908
 21
183778.47260956952
  0
LINE
  8
_0-0_通り芯
  6
CONTINUOUS
 62
    7
 10
216742.7513901908
 20
183778.47260956952
 11
216696.95678261408
 21
183712.56864759294
  0
LINE
  8
_0-0_通り芯
  6
CONTINUOUS
 62
    7
 10
216696.95678261408
 20
183712.56864759294
 11
216657.6860627913
 21
183644.49005636503
  0
LINE
  8
_0-0_通り芯
  6
CONTINUOUS
 62
    7
 10
216657.6860627913
 20
183644.49005636503
 11
216638.45959001168
 21
183603.82095854697
  0
LINE
  8
_0-0_通り芯
  6
CONTINUOUS
 62
    7
 10
216638.45959001168
 20
183603.82095854697
 11
216612.29634334592
 21
183532.36443507471
  0
LINE
  8
_0-0_通り芯
  6
CONTINUOUS
 62
    7
 10
216612.29634334592
 20
183532.36443507471
 11
216584.94302963259
 21
183403.24495511557
  0
LINE
  8
_0-0_通り芯
  6
CONTINUOUS
 62
    7
 10
216584.94302963259
 20
183403.24495511557
 11
216576.51219678309
 21
183267.81798153519
  0
LINE
  8
_0-0_通り芯
  6
CONTINUOUS
 62
    7
 10
216576.51219678309
 20
183267.81798153519
 11
216582.87229875725
 21
183127.46069634691
  0
LINE
  8
_0-0_通り芯
  6
CONTINUOUS
 62
    7
 10
216582.87229875725
 20
183127.46069634691
 11
216599.89178951504
 21
182983.55028156406
  0
LINE
  8
_0-0_通り芯
  6
CONTINUOUS
 62
    7
 10
216599.89178951504
 20
182983.55028156406
 11
216623.43912301617
 21
182837.46391920015
  0
LINE
  8
_0-0_通り芯
  6
CONTINUOUS
 62
    7
 10
216623.43912301617
 20
182837.46391920015
 11
216638.45959001168
 21
182752.27949117409
  0
LINE
  8
_0-0_通り芯
  6
CONTINUOUS
 62
    7
 10
230854.11533562091
 20
184003.82095854697
 11
230887.54068259409
 21
183967.88481879351
  0
LINE
  8
_0-0_通り芯
  6
CONTINUOUS
 62
    7
 10
230887.54068259409
 20
183967.88481879351
 11
230944.36037558899
 21
183905.6558852896
  0
LINE
  8
_0-0_通り芯
  6
CONTINUOUS
 62
    7
 10
230944.36037558899
 20
183905.6558852896
 11
230998.92946975178
 21
183842.676752175
  0
LINE
  8
_0-0_通り芯
  6
CONTINUOUS
 62
    7
 10
230998.92946975178
 20
183842.676752175
 11
231049.82353544183
 21
183778.47260956952
  0
LINE
  8
_0-0_通り芯
  6
CONTINUOUS
 62
    7
 10
231049.82353544183
 20
183778.47260956952
 11
231095.61814301851
 21
183712.56864759294
  0
LINE
  8
_0-0_通り芯
  6
CONTINUOUS
 62
    7
 10
231095.61814301851
 20
183712.56864759294
 11
231134.88886284124
 21
183644.49005636503
  0
LINE
  8
_0-0_通り芯
  6
CONTINUOUS
 62
    7
 10
231134.88886284124
 20
183644.49005636503
 11
231154.11533562094
 21
183603.82095854697
  0
LINE
  8
_0-0_通り芯
  6
CONTINUOUS
 62
    7
 10
231154.11533562094
 20
183603.82095854697
 11
231180.27858228664
 21
183532.36443507471
  0
LINE
  8
_0-0_通り芯
  6
CONTINUOUS
 62
    7
 10
231180.27858228664
 20
183532.36443507471
 11
231207.63189599998
 21
183403.24495511557
  0
LINE
  8
_0-0_通り芯
  6
CONTINUOUS
 62
    7
 10
231207.63189599998
 20
183403.24495511557
 11
231216.06272884953
 21
183267.81798153519
  0
LINE
  8
_0-0_通り芯
  6
CONTINUOUS
 62
    7
 10
231216.06272884953
 20
183267.81798153519
 11
231209.70262687531
 21
183127.46069634691
  0
LINE
  8
_0-0_通り芯
  6
CONTINUOUS
 62
    7
 10
231209.70262687531
 20
183127.46069634691
 11
231192.68313611756
 21
182983.55028156406
  0
LINE
  8
_0-0_通り芯
  6
CONTINUOUS
 62
    7
 10
231192.68313611756
 20
182983.55028156406
 11
231169.13580261639
 21
182837.46391920015
  0
LINE
  8
_0-0_通り芯
  6
CONTINUOUS
 62
    7
 10
231169.13580261639
 20
182837.46391920015
 11
231154.11533562094
 21
182752.27949117409
  0
LINE
  8
_0-0_通り芯
  6
CONTINUOUS
 62
    7
 10
216623.43912301617
 20
182837.46391920015
 11
231169.13580261639
 21
182837.46391920015
  0
LINE
  8
_0-0_通り芯
  6
CONTINUOUS
 62
    7
 10
231154.11533562094
 20
182837.46391920015
 11
231154.11533562094
 21
175252.27949117409
  0
LINE
  8
_0-0_通り芯
  6
CONTINUOUS
 62
    7
 10
231434.11533562091
 20
182837.46391920015
 11
231434.11533562091
 21
175252.27949117409
  0
LINE
  8
_0-0_通り芯
  6
CONTINUOUS
 62
    7
 10
216638.45959001168
 20
182752.27949117409
 11
216638.45959001168
 21
175252.27949117409
  0
LINE
  8
_0-0_通り芯
  6
CONTINUOUS
 62
    7
 10
231434.11533562091
 20
182837.46391920015
 11
231434.11533562091
 21
184023.4354677918
  0
LINE
  8
_0-1_
  6
CONTINUOUS
 62
    7
 10
219138.45959001168
 20
179252.27949117409
 11
219138.45959001168
 21
175252.27949117409
  0
LINE
  8
_0-1_
  6
CONTINUOUS
 62
    7
 10
219138.45959001168
 20
179252.27949117409
 11
228654.11533562094
 21
179252.27949117409
  0
LINE
  8
_0-1_
  6
CONTINUOUS
 62
    7
 10
228654.11533562094
 20
179252.27949117409
 11
228654.11533562094
 21
175252.27949117409
  0
LINE
  8
_0-1_
  6
CONTINUOUS
 62
    7
 10
219138.45959001168
 20
179252.27949117409
 11
220138.45959001168
 21
178752.27949117409
  0
LINE
  8
_0-1_
  6
CONTINUOUS
 62
    7
 10
227654.11533562094
 20
178752.27949117409
 11
228654.11533562094
 21
179252.27949117409
  0
LINE
  8
_0-1_
  6
CONTINUOUS
 62
    7
 10
220138.45959001168
 20
178752.27949117409
 11
220138.45959001168
 21
175252.27949117409
  0
LINE
  8
_0-1_
  6
CONTINUOUS
 62
    7
 10
227654.11533562094
 20
178752.27949117409
 11
227654.11533562094
 21
175252.27949117409
  0
LINE
  8
_0-1_
  6
CONTINUOUS
 62
    7
 10
220138.45959001168
 20
178752.27949117409
 11
227654.11533562094
 21
178752.27949117409
  0
LINE
  8
_0-1_
  6
CONTINUOUS
 62
    7
 10
311437.14818120317
 20
215489.31858738585
 11
311437.14818120317
 21
165589.31858738585
  0
LINE
  8
_0-1_
  6
CONTINUOUS
 62
    7
 10
352637.14818120323
 20
215489.31858738585
 11
352637.14818120323
 21
165589.31858738585
  0
LINE
  8
_0-1_
  6
CONTINUOUS
 62
    7
 10
324999.14818120311
 20
215489.31858738585
 11
324999.14818120311
 21
165589.31858738585
  0
LINE
  8
_0-1_
  6
CONTINUOUS
 62
    7
 10
340075.14818120311
 20
215489.31858738585
 11
340075.14818120311
 21
165589.31858738585
  0
LINE
  8
_0-1_
  6
CONTINUOUS
 62
    7
 10
311437.14818120317
 20
215489.31858738585
 11
324999.14818120311
 21
215489.31858738585
  0
LINE
  8
_0-1_
  6
CONTINUOUS
 62
    7
 10
340075.14818120311
 20
215489.31858738585
 11
352637.14818120323
 21
215489.31858738585
  0
LINE
  8
_0-1_
  6
CONTINUOUS
 62
    7
 10
312437.14818120317
 20
214489.31858738585
 11
324999.14818120311
 21
214489.31858738585
  0
LINE
  8
_0-1_
  6
CONTINUOUS
 62
    7
 10
311437.14818120317
 20
165589.31858738585
 11
324999.14818120311
 21
165589.31858738585
  0
LINE
  8
_0-1_
  6
CONTINUOUS
 62
    7
 10
340075.14818120311
 20
165589.31858738585
 11
352637.14818120323
 21
165589.31858738585
  0
LINE
  8
_0-1_
  6
CONTINUOUS
 62
    7
 10
312437.14818120317
 20
166589.31858738585
 11
324999.14818120311
 21
166589.31858738585
  0
LINE
  8
_0-1_
  6
CONTINUOUS
 62
    7
 10
312437.14818120317
 20
214489.31858738585
 11
312437.14818120317
 21
166589.31858738585
  0
LINE
  8
_0-1_
  6
CONTINUOUS
 62
    7
 10
340075.14818120311
 20
166589.31858738585
 11
351637.14818120323
 21
166589.31858738585
  0
LINE
  8
_0-1_
  6
CONTINUOUS
 62
    7
 10
351637.14818120323
 20
214489.31858738585
 11
351637.14818120323
 21
166589.31858738585
  0
LINE
  8
_0-1_
  6
CONTINUOUS
 62
    7
 10
340075.14818120311
 20
214489.31858738585
 11
351637.14818120323
 21
214489.31858738585
  0
LINE
  8
_0-1_
  6
CONTINUOUS
 62
    7
 10
351637.14818120323
 20
214489.31858738585
 11
352637.14818120323
 21
215489.31858738585
  0
LINE
  8
_0-1_
  6
CONTINUOUS
 62
    7
 10
311437.14818120317
 20
215489.31858738585
 11
312437.14818120317
 21
214489.31858738585
  0
LINE
  8
_0-1_
  6
CONTINUOUS
 62
    7
 10
311437.14818120317
 20
165589.31858738585
 11
312437.14818120317
 21
166589.31858738585
  0
LINE
  8
_0-1_
  6
CONTINUOUS
 62
    7
 10
351637.14818120323
 20
166589.31858738585
 11
352637.14818120323
 21
165589.31858738585
  0
LINE
  8
_0-1_
  6
CONTINUOUS
 62
    7
 10
324999.14818120311
 20
214489.31858738585
 11
340075.14818120311
 21
214489.31858738585
  0
LINE
  8
_0-1_
  6
CONTINUOUS
 62
    7
 10
324999.14818120311
 20
214489.31858738585
 11
326228.53864544007
 21
209901.17091251275
  0
LINE
  8
_0-1_
  6
CONTINUOUS
 62
    7
 10
340075.14818120311
 20
214489.31858738585
 11
338845.75771696615
 21
209901.17091251275
  0
LINE
  8
_0-1_
  6
CONTINUOUS
 62
    7
 10
324999.14818120311
 20
166589.31858738585
 11
340075.14818120311
 21
166589.31858738585
  0
LINE
  8
_0-1_
  6
CONTINUOUS
 62
    7
 10
324999.14818120311
 20
166589.31858738585
 11
326228.53864544007
 21
171177.46626225891
  0
LINE
  8
_0-1_
  6
CONTINUOUS
 62
    7
 10
340075.14818120311
 20
166589.31858738585
 11
338845.75771696615
 21
171177.46626225891
  0
LINE
  8
_0-1_
  6
CONTINUOUS
 62
    7
 10
326228.53864544007
 20
209901.17091251275
 11
338845.75771696615
 21
209901.17091251275
  0
LINE
  8
_0-1_
  6
CONTINUOUS
 62
    7
 10
338845.75771696615
 20
209901.17091251275
 11
338845.75771696615
 21
171177.46626225891
  0
LINE
  8
_0-1_
  6
CONTINUOUS
 62
    7
 10
338845.75771696615
 20
171177.46626225891
 11
326228.53864544007
 21
171177.46626225891
  0
LINE
  8
_0-1_
  6
CONTINUOUS
 62
    7
 10
326228.53864544007
 20
171177.46626225891
 11
326228.53864544007
 21
209901.17091251275
  0
LINE
  8
_0-1_
  6
CONTINUOUS
 62
    7
 10
327587.33863222838
 20
214489.31858738585
 11
328816.72909646528
 21
209901.17091251275
  0
LINE
  8
_0-1_
  6
CONTINUOUS
 62
    7
 10
337486.95773017791
 20
214489.31858738585
 11
336257.56726594095
 21
209901.17091251275
  0
LINE
  8
_0-1_
  6
CONTINUOUS
 62
    7
 10
327587.33863222838
 20
166589.31858738585
 11
328816.72909646528
 21
171177.46626225891
  0
LINE
  8
_0-1_
  6
CONTINUOUS
 62
    7
 10
337486.95773017791
 20
166589.31858738585
 11
336257.56726594095
 21
171177.46626225891
  0
LINE
  8
_0-1_
  6
CONTINUOUS
 62
    7
 10
203786.16660877256
 20
201339.44138458138
 11
244006.40831686
 21
201339.44138458138
  0
POINT
  8
_0-1_
 62
    7
 10
203786.16660877256
 20
201339.44138458138
  0
POINT
  8
_0-1_
 62
    7
 10
244006.40831686
 20
201339.44138458138
  0
LINE
  8
_0-1_
  6
CONTINUOUS
 62
    7
 10
203786.16660877256
 20
201339.44138458138
 11
203786.16660877256
 21
192298.68593615678
  0
LINE
  8
_0-1_
  6
CONTINUOUS
 62
    7
 10
244006.40831686
 20
201339.44138458138
 11
244006.40831686
 21
192298.68593615678
  0
LINE
  8
_0-1_
  6
CONTINUOUS
 62
    7
 10
216638.45959001168
 20
192879.02157896874
 11
216905.03424303848
 21
192879.02157896874
  0
POINT
  8
_0-1_
 62
    7
 10
216638.45959001168
 20
192879.02157896874
  0
POINT
  8
_0-1_
 62
    7
 10
216905.03424303848
 20
192879.02157896874
  0
LINE
  8
_0-1_
  6
CONTINUOUS
 62
    7
 10
216638.45959001168
 20
192879.02157896874
 11
216638.45959001168
 21
188432.65319860348
  0
LINE
  8
_0-1_
  6
CONTINUOUS
 62
    7
 10
216905.03424303848
 20
192879.02157896874
 11
216905.03424303848
 21
188432.65319860348
  0
LINE
  8
_0-1_
  6
CONTINUOUS
 62
    7
 10
216905.03424303848
 20
192879.02157896874
 11
230887.54068259409
 21
192879.02157896874
  0
POINT
  8
_0-1_
 62
    7
 10
230887.54068259409
 20
192879.02157896874
  0
LINE
  8
_0-1_
  6
CONTINUOUS
 62
    7
 10
230887.54068259409
 20
192879.02157896874
 11
230887.54068259409
 21
188432.65319860348
  0
LINE
  8
_0-1_
  6
CONTINUOUS
 62
    7
 10
230887.54068259409
 20
192879.02157896874
 11
231154.11533562094
 21
192879.02157896874
  0
POINT
  8
_0-1_
 62
    7
 10
231154.11533562094
 20
192879.02157896874
  0
LINE
  8
_0-1_
  6
CONTINUOUS
 62
    7
 10
231154.11533562094
 20
192879.02157896874
 11
231154.11533562094
 21
188432.65319860348
  0
LINE
  8
_0-0_通り芯
  6
CONTINUOUS
 62
    7
 10
216938.45959001165
 20
184003.82095854697
 11
230854.11533562091
 21
184003.82095854697
  0
LINE
  8
_0-1_
  6
CONTINUOUS
 62
    7
 10
231434.11533562091
 20
184023.42200615801
 11
231154.11533562094
 21
184303.82095854697
  0
LINE
  8
_0-1_
  6
CONTINUOUS
 62
    7
 10
203796.28746281628
 20
165003.31862231321
 11
243996.28746281628
 21
165003.31862231321
  0
POINT
  8
_0-1_
 62
    7
 10
203796.28746281628
 20
165003.31862231321
  0
POINT
  8
_0-1_
 62
    7
 10
243996.28746281628
 20
165003.31862231321
  0
LINE
  8
_0-1_
  6
CONTINUOUS
 62
    7
 10
203796.28746281628
 20
165003.31862231321
 11
203796.28746281628
 21
172111.6573132308
  0
LINE
  8
_0-1_
  6
CONTINUOUS
 62
    7
 10
243996.28746281628
 20
165003.31862231321
 11
243996.28746281628
 21
172111.6573132308
  0
LINE
  8
_0-1_
  6
CONTINUOUS
 62
    7
 10
267048.57006618474
 20
184752.27949117409
 11
267048.57006618474
 21
175252.27949117409
  0
POINT
  8
_0-1_
 62
    7
 10
267048.57006618474
 20
184752.27949117409
  0
POINT
  8
_0-1_
 62
    7
 10
267048.57006618474
 20
175252.27949117409
  0
LINE
  8
_0-1_
  6
CONTINUOUS
 62
    7
 10
267048.57006618474
 20
184752.27949117409
 11
254159.7194717027
 21
184752.27949117409
  0
LINE
  8
_0-1_
  6
CONTINUOUS
 62
    7
 10
267048.57006618474
 20
175252.27949117409
 11
254159.7194717027
 21
175252.27949117409
  0
LINE
  8
_0-1_
  6
CONTINUOUS
 62
    7
 10
223424.76805409172
 20
184303.82095854697
 11
223424.76805409172
 21
183712.56864759294
  0
POINT
  8
_0-1_
 62
    7
 10
223424.76805409172
 20
184303.82095854697
  0
POINT
  8
_0-1_
 62
    7
 10
223424.76805409172
 20
183712.56864759294
  0
LINE
  8
_0-1_
  6
CONTINUOUS
 62
    7
 10
223424.76805409172
 20
184303.82095854697
 11
220175.01512642318
 21
184303.82095854697
  0
LINE
  8
_0-1_
  6
CONTINUOUS
 62
    7
 10
223424.76805409172
 20
183712.56864759294
 11
220175.01512642318
 21
183712.56864759294
  0
LINE
  8
_0-1_
  6
CONTINUOUS
 62
    7
 10
311437.14818120317
 20
231757.46916527959
 11
352637.14818120323
 21
231757.46916527959
  0
POINT
  8
_0-1_
 62
    7
 10
311437.14818120317
 20
231757.46916527959
  0
POINT
  8
_0-1_
 62
    7
 10
352637.14818120323
 20
231757.46916527959
  0
LINE
  8
_0-1_
  6
CONTINUOUS
 62
    7
 10
311437.14818120317
 20
231757.46916527959
 11
311437.14818120317
 21
221858.75612909603
  0
LINE
  8
_0-1_
  6
CONTINUOUS
 62
    7
 10
352637.14818120323
 20
231757.46916527959
 11
352637.14818120323
 21
221858.75612909603
  0
LINE
  8
_0-1_
  6
CONTINUOUS
 62
    7
 10
381413.52566844248
 20
215489.31858738585
 11
381413.52566844248
 21
165589.31858738585
  0
POINT
  8
_0-1_
 62
    7
 10
381413.52566844248
 20
215489.31858738585
  0
POINT
  8
_0-1_
 62
    7
 10
381413.52566844248
 20
165589.31858738585
  0
LINE
  8
_0-1_
  6
CONTINUOUS
 62
    7
 10
381413.52566844248
 20
215489.31858738585
 11
367825.29231877235
 21
215489.31858738585
  0
LINE
  8
_0-1_
  6
CONTINUOUS
 62
    7
 10
381413.52566844248
 20
165589.31858738585
 11
367825.29231877235
 21
165589.31858738585
  0
LINE
  8
_0-1_
  6
CONTINUOUS
 62
    7
 10
332999.82009147207
 20
215489.31858738585
 11
332999.82009147207
 21
214489.31858738585
  0
POINT
  8
_0-1_
 62
    7
 10
332999.82009147207
 20
215489.31858738585
  0
POINT
  8
_0-1_
 62
    7
 10
332999.82009147207
 20
214489.31858738585
  0
LINE
  8
_0-1_
  6
CONTINUOUS
 62
    7
 10
332999.82009147207
 20
215489.31858738585
 11
337769.20000890596
 21
215489.31858738585
  0
LINE
  8
_0-1_
  6
CONTINUOUS
 62
    7
 10
332999.82009147207
 20
214489.31858738585
 11
337769.20000890596
 21
214489.31858738585
  0
POINT
  8
_0-1_
 62
    7
 10
332999.82009147207
 20
166589.31858738585
  0
LINE
  8
_0-1_
  6
CONTINUOUS
 62
    7
 10
332999.82009147207
 20
166589.31858738585
 11
337769.20000890596
 21
166589.31858738585
  0
LINE
  8
_0-1_
  6
CONTINUOUS
 62
    7
 10
332999.82009147207
 20
166589.31858738585
 11
332999.82009147207
 21
165589.31858738585
  0
POINT
  8
_0-1_
 62
    7
 10
332999.82009147207
 20
165589.31858738585
  0
LINE
  8
_0-1_
  6
CONTINUOUS
 62
    7
 10
332999.82009147207
 20
165589.31858738585
 11
337769.20000890596
 21
165589.31858738585
  0
LINE
  8
_0-1_
  6
CONTINUOUS
 62
    7
 10
231321.38907615925
 20
185893.98026741427
 11
243427.48823176356
 21
186316.73456547136
  0
LINE
  8
_0-1_
  6
CONTINUOUS
 62
    7
 10
231321.38907615925
 20
185893.98026741427
 11
234190.30334404836
 21
186771.09538158245
  0
LINE
  8
_0-1_
  6
CONTINUOUS
 62
    7
 10
231321.38907615925
 20
185893.98026741427
 11
234244.49927051496
 21
185219.12710438267
  0
LINE
  8
_0-1_
  6
CONTINUOUS
 62
    7
 10
216541.47584674656
 20
185784.90341701268
 11
204722.26239739044
 21
186197.63944545141
  0
LINE
  8
_0-1_
  6
CONTINUOUS
 62
    7
 10
216541.47584674656
 20
185784.90341701268
 11
213618.36565239084
 21
185110.05025398108
  0
LINE
  8
_0-1_
  6
CONTINUOUS
 62
    7
 10
216541.47584674656
 20
185784.90341701268
 11
213672.56157885742
 21
186662.01853118089
  0
LINE
  8
_0-1_
  6
CONTINUOUS
 62
    7
 10
203768.71686042129
 20
183962.76073782903
 11
216340.62435090524
 21
183523.74005428224
  0
LINE
  8
_0-1_
  6
CONTINUOUS
 62
    7
 10
244023.85806521127
 20
183962.76073782903
 11
231451.56508397215
 21
183523.72659264848
  0
LINE
  8
_0-7_ADD_LINE
  6
CONTINUOUS
 62
    7
 10
326228.53864544007
 20
202157.17091251275
 11
338845.75771696615
 21
202157.17091251275
  0
LINE
  8
_0-7_ADD_LINE
  6
CONTINUOUS
 62
    7
 10
326228.53864544007
 20
194413.17091251275
 11
338845.75771696615
 21
194413.17091251275
  0
LINE
  8
_0-7_ADD_LINE
  6
CONTINUOUS
 62
    7
 10
326228.53864544007
 20
186669.17091251275
 11
338845.75771696615
 21
186669.17091251275
  0
LINE
  8
_0-7_ADD_LINE
  6
CONTINUOUS
 62
    7
 10
326228.53864544007
 20
178925.17091251275
 11
338845.75771696615
 21
178925.17091251275
  0
LINE
  8
_0-1_
  6
CONTINUOUS
 62
    7
 10
327503.97731118597
 20
202688.59395875738
 11
336887.50779344258
 21
202688.59395875738
  0
LINE
  8
_0-1_
  6
CONTINUOUS
 62
    7
 10
327503.97731118597
 20
201688.59395875738
 11
336887.50779344258
 21
201688.59395875738
  0
LINE
  8
_0-1_
  6
CONTINUOUS
 62
    7
 10
327503.97731118597
 20
202688.59395875738
 11
327433.56910856155
 21
202641.51603667947
  0
LINE
  8
_0-1_
  6
CONTINUOUS
 62
    7
 10
327433.56910856155
 20
202641.51603667947
 11
327315.82578893844
 21
202560.34720551065
  0
LINE
  8
_0-1_
  6
CONTINUOUS
 62
    7
 10
327315.82578893844
 20
202560.34720551065
 11
327208.22172814212
 21
202479.17837434181
  0
LINE
  8
_0-1_
  6
CONTINUOUS
 62
    7
 10
327208.22172814212
 20
202479.17837434181
 11
327117.17417859478
 21
202398.00954317299
  0
LINE
  8
_0-1_
  6
CONTINUOUS
 62
    7
 10
327117.17417859478
 20
202398.00954317299
 11
327049.10039271839
 21
202316.84071200414
  0
LINE
  8
_0-1_
  6
CONTINUOUS
 62
    7
 10
327049.10039271839
 20
202316.84071200414
 11
327010.41762293503
 21
202235.67188083532
  0
LINE
  8
_0-1_
  6
CONTINUOUS
 62
    7
 10
327010.41762293503
 20
202235.67188083532
 11
327003.97731118597
 21
202188.59395875738
  0
LINE
  8
_0-1_
  6
CONTINUOUS
 62
    7
 10
327003.97731118597
 20
202188.59395875738
 11
327010.41762293503
 21
202141.51603667947
  0
LINE
  8
_0-1_
  6
CONTINUOUS
 62
    7
 10
327010.41762293503
 20
202141.51603667947
 11
327049.10039271839
 21
202060.34720551065
  0
LINE
  8
_0-1_
  6
CONTINUOUS
 62
    7
 10
327049.10039271839
 20
202060.34720551065
 11
327117.17417859478
 21
201979.17837434181
  0
LINE
  8
_0-1_
  6
CONTINUOUS
 62
    7
 10
327117.17417859478
 20
201979.17837434181
 11
327208.22172814212
 21
201898.00954317299
  0
LINE
  8
_0-1_
  6
CONTINUOUS
 62
    7
 10
327208.22172814212
 20
201898.00954317299
 11
327315.82578893844
 21
201816.84071200414
  0
LINE
  8
_0-1_
  6
CONTINUOUS
 62
    7
 10
327315.82578893844
 20
201816.84071200414
 11
327433.56910856155
 21
201735.67188083532
  0
LINE
  8
_0-1_
  6
CONTINUOUS
 62
    7
 10
327433.56910856155
 20
201735.67188083532
 11
327503.97731118597
 21
201688.59395875738
  0
LINE
  8
_0-1_
  6
CONTINUOUS
 62
    7
 10
336887.50779344258
 20
202688.59395875738
 11
336957.91599606699
 21
202641.51603667947
  0
LINE
  8
_0-1_
  6
CONTINUOUS
 62
    7
 10
336957.91599606699
 20
202641.51603667947
 11
337075.65931569011
 21
202560.34720551065
  0
LINE
  8
_0-1_
  6
CONTINUOUS
 62
    7
 10
337075.65931569011
 20
202560.34720551065
 11
337183.26337648643
 21
202479.17837434181
  0
LINE
  8
_0-1_
  6
CONTINUOUS
 62
    7
 10
337183.26337648643
 20
202479.17837434181
 11
337274.31092603377
 21
202398.00954317299
  0
LINE
  8
_0-1_
  6
CONTINUOUS
 62
    7
 10
337274.31092603377
 20
202398.00954317299
 11
337342.38471191016
 21
202316.84071200414
  0
LINE
  8
_0-1_
  6
CONTINUOUS
 62
    7
 10
337342.38471191016
 20
202316.84071200414
 11
337381.06748169352
 21
202235.67188083532
  0
LINE
  8
_0-1_
  6
CONTINUOUS
 62
    7
 10
337381.06748169352
 20
202235.67188083532
 11
337387.50779344258
 21
202188.59395875738
  0
LINE
  8
_0-1_
  6
CONTINUOUS
 62
    7
 10
337387.50779344258
 20
202188.59395875738
 11
337381.06748169352
 21
202141.51603667947
  0
LINE
  8
_0-1_
  6
CONTINUOUS
 62
    7
 10
337381.06748169352
 20
202141.51603667947
 11
337342.38471191016
 21
202060.34720551065
  0
LINE
  8
_0-1_
  6
CONTINUOUS
 62
    7
 10
337342.38471191016
 20
202060.34720551065
 11
337274.31092603377
 21
201979.17837434181
  0
LINE
  8
_0-1_
  6
CONTINUOUS
 62
    7
 10
337274.31092603377
 20
201979.17837434181
 11
337183.26337648643
 21
201898.00954317299
  0
LINE
  8
_0-1_
  6
CONTINUOUS
 62
    7
 10
337183.26337648643
 20
201898.00954317299
 11
337075.65931569011
 21
201816.84071200414
  0
LINE
  8
_0-1_
  6
CONTINUOUS
 62
    7
 10
337075.65931569011
 20
201816.84071200414
 11
336957.91599606699
 21
201735.67188083532
  0
LINE
  8
_0-1_
  6
CONTINUOUS
 62
    7
 10
336957.91599606699
 20
201735.67188083532
 11
336887.50779344258
 21
201688.59395875738
  0
LINE
  8
_0-1_
  6
CONTINUOUS
 62
    7
 10
328003.97731118597
 20
202438.59395875738
 11
327968.77320987376
 21
202415.05499771849
  0
LINE
  8
_0-1_
  6
CONTINUOUS
 62
    7
 10
327968.77320987376
 20
202415.05499771849
 11
327909.90155006218
 21
202374.47058213403
  0
LINE
  8
_0-1_
  6
CONTINUOUS
 62
    7
 10
327909.90155006218
 20
202374.47058213403
 11
327856.09951966396
 21
202333.88616654961
  0
LINE
  8
_0-1_
  6
CONTINUOUS
 62
    7
 10
327856.09951966396
 20
202333.88616654961
 11
327810.57574489038
 21
202293.30175096518
  0
LINE
  8
_0-1_
  6
CONTINUOUS
 62
    7
 10
327810.57574489038
 20
202293.30175096518
 11
327776.53885195218
 21
202252.71733538076
  0
LINE
  8
_0-1_
  6
CONTINUOUS
 62
    7
 10
327776.53885195218
 20
202252.71733538076
 11
327757.19746706053
 21
202212.13291979634
  0
LINE
  8
_0-1_
  6
CONTINUOUS
 62
    7
 10
327757.19746706053
 20
202212.13291979634
 11
327753.97731118597
 21
202188.59395875738
  0
LINE
  8
_0-1_
  6
CONTINUOUS
 62
    7
 10
327753.97731118597
 20
202188.59395875738
 11
327757.19746706053
 21
202165.05499771849
  0
LINE
  8
_0-1_
  6
CONTINUOUS
 62
    7
 10
327757.19746706053
 20
202165.05499771849
 11
327776.53885195218
 21
202124.47058213403
  0
LINE
  8
_0-1_
  6
CONTINUOUS
 62
    7
 10
327776.53885195218
 20
202124.47058213403
 11
327810.57574489038
 21
202083.88616654961
  0
LINE
  8
_0-1_
  6
CONTINUOUS
 62
    7
 10
327810.57574489038
 20
202083.88616654961
 11
327856.09951966396
 21
202043.30175096518
  0
LINE
  8
_0-1_
  6
CONTINUOUS
 62
    7
 10
327856.09951966396
 20
202043.30175096518
 11
327909.90155006218
 21
202002.71733538076
  0
LINE
  8
_0-1_
  6
CONTINUOUS
 62
    7
 10
327909.90155006218
 20
202002.71733538076
 11
327968.77320987376
 21
201962.13291979634
  0
LINE
  8
_0-1_
  6
CONTINUOUS
 62
    7
 10
327968.77320987376
 20
201962.13291979634
 11
328003.97731118597
 21
201938.59395875738
  0
LINE
  8
_0-1_
  6
CONTINUOUS
 62
    7
 10
336387.50779344258
 20
202438.59395875738
 11
336422.71189475479
 21
202415.05499771849
  0
LINE
  8
_0-1_
  6
CONTINUOUS
 62
    7
 10
336422.71189475479
 20
202415.05499771849
 11
336481.58355456631
 21
202374.47058213403
  0
LINE
  8
_0-1_
  6
CONTINUOUS
 62
    7
 10
336481.58355456631
 20
202374.47058213403
 11
336535.38558496448
 21
202333.88616654961
  0
LINE
  8
_0-1_
  6
CONTINUOUS
 62
    7
 10
336535.38558496448
 20
202333.88616654961
 11
336580.90935973811
 21
202293.30175096518
  0
LINE
  8
_0-1_
  6
CONTINUOUS
 62
    7
 10
336580.90935973811
 20
202293.30175096518
 11
336614.94625267637
 21
202252.71733538076
  0
LINE
  8
_0-1_
  6
CONTINUOUS
 62
    7
 10
336614.94625267637
 20
202252.71733538076
 11
336634.28763756802
 21
202212.13291979634
  0
LINE
  8
_0-1_
  6
CONTINUOUS
 62
    7
 10
336634.28763756802
 20
202212.13291979634
 11
336637.50779344258
 21
202188.59395875738
  0
LINE
  8
_0-1_
  6
CONTINUOUS
 62
    7
 10
336637.50779344258
 20
202188.59395875738
 11
336634.28763756802
 21
202165.05499771849
  0
LINE
  8
_0-1_
  6
CONTINUOUS
 62
    7
 10
336634.28763756802
 20
202165.05499771849
 11
336614.94625267637
 21
202124.47058213403
  0
LINE
  8
_0-1_
  6
CONTINUOUS
 62
    7
 10
336614.94625267637
 20
202124.47058213403
 11
336580.90935973811
 21
202083.88616654961
  0
LINE
  8
_0-1_
  6
CONTINUOUS
 62
    7
 10
336580.90935973811
 20
202083.88616654961
 11
336535.38558496448
 21
202043.30175096518
  0
LINE
  8
_0-1_
  6
CONTINUOUS
 62
    7
 10
336535.38558496448
 20
202043.30175096518
 11
336481.58355456631
 21
202002.71733538076
  0
LINE
  8
_0-1_
  6
CONTINUOUS
 62
    7
 10
336481.58355456631
 20
202002.71733538076
 11
336422.71189475479
 21
201962.13291979634
  0
LINE
  8
_0-1_
  6
CONTINUOUS
 62
    7
 10
336422.71189475479
 20
201962.13291979634
 11
336387.50779344258
 21
201938.59395875738
  0
LINE
  8
_0-1_
  6
CONTINUOUS
 62
    7
 10
328003.97731118597
 20
201938.59395875738
 11
336387.50779344258
 21
201938.59395875738
  0
LINE
  8
_0-1_
  6
CONTINUOUS
 62
    7
 10
328003.97731118597
 20
202438.59395875738
 11
336387.50779344258
 21
202438.59395875738
  0
LINE
  8
_0-1_
  6
CONTINUOUS
 62
    7
 10
327724.29557981034
 20
194922.37498974829
 11
337107.82606206695
 21
194922.37498974829
  0
LINE
  8
_0-1_
  6
CONTINUOUS
 62
    7
 10
327724.29557981034
 20
193922.37498974829
 11
337107.82606206695
 21
193922.37498974829
  0
LINE
  8
_0-1_
  6
CONTINUOUS
 62
    7
 10
327724.29557981034
 20
194922.37498974829
 11
327653.88737718586
 21
194875.29706767033
  0
LINE
  8
_0-1_
  6
CONTINUOUS
 62
    7
 10
327653.88737718586
 20
194875.29706767033
 11
327536.14405756275
 21
194794.12823650151
  0
LINE
  8
_0-1_
  6
CONTINUOUS
 62
    7
 10
327536.14405756275
 20
194794.12823650151
 11
327428.53999676654
 21
194712.95940533266
  0
LINE
  8
_0-1_
  6
CONTINUOUS
 62
    7
 10
327428.53999676654
 20
194712.95940533266
 11
327337.49244721909
 21
194631.79057416384
  0
LINE
  8
_0-1_
  6
CONTINUOUS
 62
    7
 10
327337.49244721909
 20
194631.79057416384
 11
327269.41866134282
 21
194550.62174299499
  0
LINE
  8
_0-1_
  6
CONTINUOUS
 62
    7
 10
327269.41866134282
 20
194550.62174299499
 11
327230.73589155945
 21
194469.45291182617
  0
LINE
  8
_0-1_
  6
CONTINUOUS
 62
    7
 10
327230.73589155945
 20
194469.45291182617
 11
327224.29557981034
 21
194422.37498974829
  0
LINE
  8
_0-1_
  6
CONTINUOUS
 62
    7
 10
327224.29557981034
 20
194422.37498974829
 11
327230.73589155945
 21
194375.29706767033
  0
LINE
  8
_0-1_
  6
CONTINUOUS
 62
    7
 10
327230.73589155945
 20
194375.29706767033
 11
327269.41866134282
 21
194294.12823650151
  0
LINE
  8
_0-1_
  6
CONTINUOUS
 62
    7
 10
327269.41866134282
 20
194294.12823650151
 11
327337.49244721909
 21
194212.95940533266
  0
LINE
  8
_0-1_
  6
CONTINUOUS
 62
    7
 10
327337.49244721909
 20
194212.95940533266
 11
327428.53999676654
 21
194131.79057416384
  0
LINE
  8
_0-1_
  6
CONTINUOUS
 62
    7
 10
327428.53999676654
 20
194131.79057416384
 11
327536.14405756275
 21
194050.62174299499
  0
LINE
  8
_0-1_
  6
CONTINUOUS
 62
    7
 10
327536.14405756275
 20
194050.62174299499
 11
327653.88737718586
 21
193969.45291182617
  0
LINE
  8
_0-1_
  6
CONTINUOUS
 62
    7
 10
327653.88737718586
 20
193969.45291182617
 11
327724.29557981034
 21
193922.37498974829
  0
LINE
  8
_0-1_
  6
CONTINUOUS
 62
    7
 10
337107.82606206695
 20
194922.37498974829
 11
337178.23426469142
 21
194875.29706767033
  0
LINE
  8
_0-1_
  6
CONTINUOUS
 62
    7
 10
337178.23426469142
 20
194875.29706767033
 11
337295.97758431453
 21
194794.12823650151
  0
LINE
  8
_0-1_
  6
CONTINUOUS
 62
    7
 10
337295.97758431453
 20
194794.12823650151
 11
337403.58164511074
 21
194712.95940533266
  0
LINE
  8
_0-1_
  6
CONTINUOUS
 62
    7
 10
337403.58164511074
 20
194712.95940533266
 11
337494.62919465802
 21
194631.79057416384
  0
LINE
  8
_0-1_
  6
CONTINUOUS
 62
    7
 10
337494.62919465802
 20
194631.79057416384
 11
337562.70298053446
 21
194550.62174299502
  0
LINE
  8
_0-1_
  6
CONTINUOUS
 62
    7
 10
337562.70298053446
 20
194550.62174299502
 11
337601.38575031783
 21
194469.45291182617
  0
LINE
  8
_0-1_
  6
CONTINUOUS
 62
    7
 10
337601.38575031783
 20
194469.45291182617
 11
337607.82606206695
 21
194422.37498974829
  0
LINE
  8
_0-1_
  6
CONTINUOUS
 62
    7
 10
337607.82606206695
 20
194422.37498974829
 11
337601.38575031783
 21
194375.29706767033
  0
LINE
  8
_0-1_
  6
CONTINUOUS
 62
    7
 10
337601.38575031783
 20
194375.29706767033
 11
337562.70298053446
 21
194294.12823650151
  0
LINE
  8
_0-1_
  6
CONTINUOUS
 62
    7
 10
337562.70298053446
 20
194294.12823650151
 11
337494.62919465802
 21
194212.95940533266
  0
LINE
  8
_0-1_
  6
CONTINUOUS
 62
    7
 10
337494.62919465802
 20
194212.95940533266
 11
337403.58164511074
 21
194131.79057416384
  0
LINE
  8
_0-1_
  6
CONTINUOUS
 62
    7
 10
337403.58164511074
 20
194131.79057416384
 11
337295.97758431453
 21
194050.62174299502
  0
LINE
  8
_0-1_
  6
CONTINUOUS
 62
    7
 10
337295.97758431453
 20
194050.62174299502
 11
337178.23426469142
 21
193969.45291182617
  0
LINE
  8
_0-1_
  6
CONTINUOUS
 62
    7
 10
337178.23426469142
 20
193969.45291182617
 11
337107.82606206695
 21
193922.37498974829
  0
LINE
  8
_0-1_
  6
CONTINUOUS
 62
    7
 10
328224.29557981034
 20
194672.37498974829
 11
328189.09147849813
 21
194648.83602870931
  0
LINE
  8
_0-1_
  6
CONTINUOUS
 62
    7
 10
328189.09147849813
 20
194648.83602870931
 11
328130.21981868654
 21
194608.25161312488
  0
LINE
  8
_0-1_
  6
CONTINUOUS
 62
    7
 10
328130.21981868654
 20
194608.25161312488
 11
328076.41778828844
 21
194567.66719754046
  0
LINE
  8
_0-1_
  6
CONTINUOUS
 62
    7
 10
328076.41778828844
 20
194567.66719754046
 11
328030.89401351474
 21
194527.08278195604
  0
LINE
  8
_0-1_
  6
CONTINUOUS
 62
    7
 10
328030.89401351474
 20
194527.08278195604
 11
327996.85712057661
 21
194486.49836637161
  0
LINE
  8
_0-1_
  6
CONTINUOUS
 62
    7
 10
327996.85712057661
 20
194486.49836637161
 11
327977.51573568489
 21
194445.91395078719
  0
LINE
  8
_0-1_
  6
CONTINUOUS
 62
    7
 10
327977.51573568489
 20
194445.91395078719
 11
327974.29557981034
 21
194422.37498974829
  0
LINE
  8
_0-1_
  6
CONTINUOUS
 62
    7
 10
327974.29557981034
 20
194422.37498974829
 11
327977.51573568489
 21
194398.83602870931
  0
LINE
  8
_0-1_
  6
CONTINUOUS
 62
    7
 10
327977.51573568489
 20
194398.83602870931
 11
327996.85712057661
 21
194358.25161312488
  0
LINE
  8
_0-1_
  6
CONTINUOUS
 62
    7
 10
327996.85712057661
 20
194358.25161312488
 11
328030.89401351474
 21
194317.66719754046
  0
LINE
  8
_0-1_
  6
CONTINUOUS
 62
    7
 10
328030.89401351474
 20
194317.66719754046
 11
328076.41778828844
 21
194277.08278195604
  0
LINE
  8
_0-1_
  6
CONTINUOUS
 62
    7
 10
328076.41778828844
 20
194277.08278195604
 11
328130.21981868654
 21
194236.49836637161
  0
LINE
  8
_0-1_
  6
CONTINUOUS
 62
    7
 10
328130.21981868654
 20
194236.49836637161
 11
328189.09147849813
 21
194195.91395078719
  0
LINE
  8
_0-1_
  6
CONTINUOUS
 62
    7
 10
328189.09147849813
 20
194195.91395078719
 11
328224.29557981034
 21
194172.37498974829
  0
LINE
  8
_0-1_
  6
CONTINUOUS
 62
    7
 10
336607.82606206695
 20
194672.37498974829
 11
336643.03016337921
 21
194648.83602870931
  0
LINE
  8
_0-1_
  6
CONTINUOUS
 62
    7
 10
336643.03016337921
 20
194648.83602870931
 11
336701.90182319074
 21
194608.25161312488
  0
LINE
  8
_0-1_
  6
CONTINUOUS
 62
    7
 10
336701.90182319074
 20
194608.25161312488
 11
336755.70385358884
 21
194567.66719754046
  0
LINE
  8
_0-1_
  6
CONTINUOUS
 62
    7
 10
336755.70385358884
 20
194567.66719754046
 11
336801.22762836254
 21
194527.08278195604
  0
LINE
  8
_0-1_
  6
CONTINUOUS
 62
    7
 10
336801.22762836254
 20
194527.08278195604
 11
336835.26452130068
 21
194486.49836637161
  0
LINE
  8
_0-1_
  6
CONTINUOUS
 62
    7
 10
336835.26452130068
 20
194486.49836637161
 11
336854.60590619239
 21
194445.91395078719
  0
LINE
  8
_0-1_
  6
CONTINUOUS
 62
    7
 10
336854.60590619239
 20
194445.91395078719
 11
336857.82606206695
 21
194422.37498974829
  0
LINE
  8
_0-1_
  6
CONTINUOUS
 62
    7
 10
336857.82606206695
 20
194422.37498974829
 11
336854.60590619239
 21
194398.83602870931
  0
LINE
  8
_0-1_
  6
CONTINUOUS
 62
    7
 10
336854.60590619239
 20
194398.83602870931
 11
336835.26452130068
 21
194358.25161312488
  0
LINE
  8
_0-1_
  6
CONTINUOUS
 62
    7
 10
336835.26452130068
 20
194358.25161312488
 11
336801.22762836254
 21
194317.66719754046
  0
LINE
  8
_0-1_
  6
CONTINUOUS
 62
    7
 10
336801.22762836254
 20
194317.66719754046
 11
336755.70385358884
 21
194277.08278195604
  0
LINE
  8
_0-1_
  6
CONTINUOUS
 62
    7
 10
336755.70385358884
 20
194277.08278195604
 11
336701.90182319074
 21
194236.49836637161
  0
LINE
  8
_0-1_
  6
CONTINUOUS
 62
    7
 10
336701.90182319074
 20
194236.49836637161
 11
336643.03016337921
 21
194195.91395078719
  0
LINE
  8
_0-1_
  6
CONTINUOUS
 62
    7
 10
336643.03016337921
 20
194195.91395078719
 11
336607.82606206695
 21
194172.37498974829
  0
LINE
  8
_0-1_
  6
CONTINUOUS
 62
    7
 10
328224.29557981034
 20
194172.37498974829
 11
336607.82606206695
 21
194172.37498974829
  0
LINE
  8
_0-1_
  6
CONTINUOUS
 62
    7
 10
328224.29557981034
 20
194672.37498974829
 11
336607.82606206695
 21
194672.37498974829
  0
LINE
  8
_0-1_
  6
CONTINUOUS
 62
    7
 10
327724.29557981034
 20
187156.15602073912
 11
337107.82606206695
 21
187156.15602073912
  0
LINE
  8
_0-1_
  6
CONTINUOUS
 62
    7
 10
327724.29557981034
 20
186156.15602073912
 11
337107.82606206695
 21
186156.15602073912
  0
LINE
  8
_0-1_
  6
CONTINUOUS
 62
    7
 10
327724.29557981034
 20
187156.15602073912
 11
327653.88737718586
 21
187109.07809866121
  0
LINE
  8
_0-1_
  6
CONTINUOUS
 62
    7
 10
327653.88737718586
 20
187109.07809866121
 11
327536.14405756275
 21
187027.90926749236
  0
LINE
  8
_0-1_
  6
CONTINUOUS
 62
    7
 10
327536.14405756275
 20
187027.90926749236
 11
327428.53999676654
 21
186946.74043632351
  0
LINE
  8
_0-1_
  6
CONTINUOUS
 62
    7
 10
327428.53999676654
 20
186946.74043632351
 11
327337.49244721909
 21
186865.57160515469
  0
LINE
  8
_0-1_
  6
CONTINUOUS
 62
    7
 10
327337.49244721909
 20
186865.57160515469
 11
327269.41866134282
 21
186784.40277398584
  0
LINE
  8
_0-1_
  6
CONTINUOUS
 62
    7
 10
327269.41866134282
 20
186784.40277398584
 11
327230.73589155945
 21
186703.23394281699
  0
LINE
  8
_0-1_
  6
CONTINUOUS
 62
    7
 10
327230.73589155945
 20
186703.23394281699
 11
327224.29557981034
 21
186656.15602073912
  0
LINE
  8
_0-1_
  6
CONTINUOUS
 62
    7
 10
327224.29557981034
 20
186656.15602073912
 11
327230.73589155945
 21
186609.07809866121
  0
LINE
  8
_0-1_
  6
CONTINUOUS
 62
    7
 10
327230.73589155945
 20
186609.07809866121
 11
327269.41866134282
 21
186527.90926749236
  0
LINE
  8
_0-1_
  6
CONTINUOUS
 62
    7
 10
327269.41866134282
 20
186527.90926749236
 11
327337.49244721909
 21
186446.74043632351
  0
LINE
  8
_0-1_
  6
CONTINUOUS
 62
    7
 10
327337.49244721909
 20
186446.74043632351
 11
327428.53999676654
 21
186365.57160515469
  0
LINE
  8
_0-1_
  6
CONTINUOUS
 62
    7
 10
327428.53999676654
 20
186365.57160515469
 11
327536.14405756275
 21
186284.40277398584
  0
LINE
  8
_0-1_
  6
CONTINUOUS
 62
    7
 10
327536.14405756275
 20
186284.40277398584
 11
327653.88737718586
 21
186203.23394281699
  0
LINE
  8
_0-1_
  6
CONTINUOUS
 62
    7
 10
327653.88737718586
 20
186203.23394281699
 11
327724.29557981034
 21
186156.15602073912
  0
LINE
  8
_0-1_
  6
CONTINUOUS
 62
    7
 10
337107.82606206695
 20
187156.15602073912
 11
337178.23426469142
 21
187109.07809866121
  0
LINE
  8
_0-1_
  6
CONTINUOUS
 62
    7
 10
337178.23426469142
 20
187109.07809866121
 11
337295.97758431453
 21
187027.90926749236
  0
LINE
  8
_0-1_
  6
CONTINUOUS
 62
    7
 10
337295.97758431453
 20
187027.90926749236
 11
337403.58164511074
 21
186946.74043632351
  0
LINE
  8
_0-1_
  6
CONTINUOUS
 62
    7
 10
337403.58164511074
 20
186946.74043632351
 11
337494.62919465802
 21
186865.57160515469
  0
LINE
  8
_0-1_
  6
CONTINUOUS
 62
    7
 10
337494.62919465802
 20
186865.57160515469
 11
337562.70298053446
 21
186784.40277398587
  0
LINE
  8
_0-1_
  6
CONTINUOUS
 62
    7
 10
337562.70298053446
 20
186784.40277398587
 11
337601.38575031783
 21
186703.23394281699
  0
LINE
  8
_0-1_
  6
CONTINUOUS
 62
    7
 10
337601.38575031783
 20
186703.23394281699
 11
337607.82606206695
 21
186656.15602073912
  0
LINE
  8
_0-1_
  6
CONTINUOUS
 62
    7
 10
337607.82606206695
 20
186656.15602073912
 11
337601.38575031783
 21
186609.07809866121
  0
LINE
  8
_0-1_
  6
CONTINUOUS
 62
    7
 10
337601.38575031783
 20
186609.07809866121
 11
337562.70298053446
 21
186527.90926749236
  0
LINE
  8
_0-1_
  6
CONTINUOUS
 62
    7
 10
337562.70298053446
 20
186527.90926749236
 11
337494.62919465802
 21
186446.74043632351
  0
LINE
  8
_0-1_
  6
CONTINUOUS
 62
    7
 10
337494.62919465802
 20
186446.74043632351
 11
337403.58164511074
 21
186365.57160515469
  0
LINE
  8
_0-1_
  6
CONTINUOUS
 62
    7
 10
337403.58164511074
 20
186365.57160515469
 11
337295.97758431453
 21
186284.40277398587
  0
LINE
  8
_0-1_
  6
CONTINUOUS
 62
    7
 10
337295.97758431453
 20
186284.40277398587
 11
337178.23426469142
 21
186203.23394281699
  0
LINE
  8
_0-1_
  6
CONTINUOUS
 62
    7
 10
337178.23426469142
 20
186203.23394281699
 11
337107.82606206695
 21
186156.15602073912
  0
LINE
  8
_0-1_
  6
CONTINUOUS
 62
    7
 10
328224.29557981034
 20
186906.15602073912
 11
328189.09147849807
 21
186882.61705970016
  0
LINE
  8
_0-1_
  6
CONTINUOUS
 62
    7
 10
328189.09147849807
 20
186882.61705970016
 11
328130.21981868654
 21
186842.03264411574
  0
LINE
  8
_0-1_
  6
CONTINUOUS
 62
    7
 10
328130.21981868654
 20
186842.03264411574
 11
328076.41778828844
 21
186801.44822853131
  0
LINE
  8
_0-1_
  6
CONTINUOUS
 62
    7
 10
328076.41778828844
 20
186801.44822853131
 11
328030.89401351474
 21
186760.86381294689
  0
LINE
  8
_0-1_
  6
CONTINUOUS
 62
    7
 10
328030.89401351474
 20
186760.86381294689
 11
327996.85712057661
 21
186720.27939736246
  0
LINE
  8
_0-1_
  6
CONTINUOUS
 62
    7
 10
327996.85712057661
 20
186720.27939736246
 11
327977.51573568489
 21
186679.6949817781
  0
LINE
  8
_0-1_
  6
CONTINUOUS
 62
    7
 10
327977.51573568489
 20
186679.6949817781
 11
327974.29557981034
 21
186656.15602073912
  0
LINE
  8
_0-1_
  6
CONTINUOUS
 62
    7
 10
327974.29557981034
 20
186656.15602073912
 11
327977.51573568489
 21
186632.61705970016
  0
LINE
  8
_0-1_
  6
CONTINUOUS
 62
    7
 10
327977.51573568489
 20
186632.61705970016
 11
327996.85712057661
 21
186592.03264411574
  0
LINE
  8
_0-1_
  6
CONTINUOUS
 62
    7
 10
327996.85712057661
 20
186592.03264411574
 11
328030.89401351474
 21
186551.44822853131
  0
LINE
  8
_0-1_
  6
CONTINUOUS
 62
    7
 10
328030.89401351474
 20
186551.44822853131
 11
328076.41778828844
 21
186510.86381294689
  0
LINE
  8
_0-1_
  6
CONTINUOUS
 62
    7
 10
328076.41778828844
 20
186510.86381294689
 11
328130.21981868654
 21
186470.27939736246
  0
LINE
  8
_0-1_
  6
CONTINUOUS
 62
    7
 10
328130.21981868654
 20
186470.27939736246
 11
328189.09147849807
 21
186429.6949817781
  0
LINE
  8
_0-1_
  6
CONTINUOUS
 62
    7
 10
328189.09147849807
 20
186429.6949817781
 11
328224.29557981034
 21
186406.15602073912
  0
LINE
  8
_0-1_
  6
CONTINUOUS
 62
    7
 10
336607.82606206695
 20
186906.15602073912
 11
336643.03016337915
 21
186882.61705970016
  0
LINE
  8
_0-1_
  6
CONTINUOUS
 62
    7
 10
336643.03016337915
 20
186882.61705970016
 11
336701.90182319074
 21
186842.03264411574
  0
LINE
  8
_0-1_
  6
CONTINUOUS
 62
    7
 10
336701.90182319074
 20
186842.03264411574
 11
336755.70385358884
 21
186801.44822853131
  0
LINE
  8
_0-1_
  6
CONTINUOUS
 62
    7
 10
336755.70385358884
 20
186801.44822853131
 11
336801.22762836254
 21
186760.86381294689
  0
LINE
  8
_0-1_
  6
CONTINUOUS
 62
    7
 10
336801.22762836254
 20
186760.86381294689
 11
336835.26452130068
 21
186720.27939736246
  0
LINE
  8
_0-1_
  6
CONTINUOUS
 62
    7
 10
336835.26452130068
 20
186720.27939736246
 11
336854.60590619239
 21
186679.6949817781
  0
LINE
  8
_0-1_
  6
CONTINUOUS
 62
    7
 10
336854.60590619239
 20
186679.6949817781
 11
336857.82606206695
 21
186656.15602073912
  0
LINE
  8
_0-1_
  6
CONTINUOUS
 62
    7
 10
336857.82606206695
 20
186656.15602073912
 11
336854.60590619239
 21
186632.61705970016
  0
LINE
  8
_0-1_
  6
CONTINUOUS
 62
    7
 10
336854.60590619239
 20
186632.61705970016
 11
336835.26452130068
 21
186592.03264411574
  0
LINE
  8
_0-1_
  6
CONTINUOUS
 62
    7
 10
336835.26452130068
 20
186592.03264411574
 11
336801.22762836254
 21
186551.44822853131
  0
LINE
  8
_0-1_
  6
CONTINUOUS
 62
    7
 10
336801.22762836254
 20
186551.44822853131
 11
336755.70385358884
 21
186510.86381294689
  0
LINE
  8
_0-1_
  6
CONTINUOUS
 62
    7
 10
336755.70385358884
 20
186510.86381294689
 11
336701.90182319074
 21
186470.27939736246
  0
LINE
  8
_0-1_
  6
CONTINUOUS
 62
    7
 10
336701.90182319074
 20
186470.27939736246
 11
336643.03016337915
 21
186429.6949817781
  0
LINE
  8
_0-1_
  6
CONTINUOUS
 62
    7
 10
336643.03016337915
 20
186429.6949817781
 11
336607.82606206695
 21
186406.15602073912
  0
LINE
  8
_0-1_
  6
CONTINUOUS
 62
    7
 10
328224.29557981034
 20
186406.15602073912
 11
336607.82606206695
 21
186406.15602073912
  0
LINE
  8
_0-1_
  6
CONTINUOUS
 62
    7
 10
328224.29557981034
 20
186906.15602073912
 11
336607.82606206695
 21
186906.15602073912
  0
LINE
  8
_0-1_
  6
CONTINUOUS
 62
    7
 10
327971.41360996198
 20
179384.70756257125
 11
337354.94409221859
 21
179384.70756257125
  0
LINE
  8
_0-1_
  6
CONTINUOUS
 62
    7
 10
327971.41360996198
 20
178384.70756257125
 11
337354.94409221859
 21
178384.70756257125
  0
LINE
  8
_0-1_
  6
CONTINUOUS
 62
    7
 10
327971.41360996198
 20
179384.70756257125
 11
327901.00540733756
 21
179337.62964049331
  0
LINE
  8
_0-1_
  6
CONTINUOUS
 62
    7
 10
327901.00540733756
 20
179337.62964049331
 11
327783.26208771445
 21
179256.46080932446
  0
LINE
  8
_0-1_
  6
CONTINUOUS
 62
    7
 10
327783.26208771445
 20
179256.46080932446
 11
327675.65802691813
 21
179175.29197815567
  0
LINE
  8
_0-1_
  6
CONTINUOUS
 62
    7
 10
327675.65802691813
 20
179175.29197815567
 11
327584.61047737079
 21
179094.12314698682
  0
LINE
  8
_0-1_
  6
CONTINUOUS
 62
    7
 10
327584.61047737079
 20
179094.12314698682
 11
327516.5366914944
 21
179012.95431581797
  0
LINE
  8
_0-1_
  6
CONTINUOUS
 62
    7
 10
327516.5366914944
 20
179012.95431581797
 11
327477.8539217111
 21
178931.78548464915
  0
LINE
  8
_0-1_
  6
CONTINUOUS
 62
    7
 10
327477.8539217111
 20
178931.78548464915
 11
327471.41360996198
 21
178884.70756257125
  0
LINE
  8
_0-1_
  6
CONTINUOUS
 62
    7
 10
327471.41360996198
 20
178884.70756257125
 11
327477.8539217111
 21
178837.62964049331
  0
LINE
  8
_0-1_
  6
CONTINUOUS
 62
    7
 10
327477.8539217111
 20
178837.62964049331
 11
327516.5366914944
 21
178756.46080932446
  0
LINE
  8
_0-1_
  6
CONTINUOUS
 62
    7
 10
327516.5366914944
 20
178756.46080932446
 11
327584.61047737079
 21
178675.29197815567
  0
LINE
  8
_0-1_
  6
CONTINUOUS
 62
    7
 10
327584.61047737079
 20
178675.29197815567
 11
327675.65802691813
 21
178594.12314698682
  0
LINE
  8
_0-1_
  6
CONTINUOUS
 62
    7
 10
327675.65802691813
 20
178594.12314698682
 11
327783.26208771445
 21
178512.95431581797
  0
LINE
  8
_0-1_
  6
CONTINUOUS
 62
    7
 10
327783.26208771445
 20
178512.95431581797
 11
327901.00540733756
 21
178431.78548464915
  0
LINE
  8
_0-1_
  6
CONTINUOUS
 62
    7
 10
327901.00540733756
 20
178431.78548464915
 11
327971.41360996198
 21
178384.70756257125
  0
LINE
  8
_0-1_
  6
CONTINUOUS
 62
    7
 10
337354.94409221859
 20
179384.70756257125
 11
337425.35229484306
 21
179337.62964049331
  0
LINE
  8
_0-1_
  6
CONTINUOUS
 62
    7
 10
337425.35229484306
 20
179337.62964049331
 11
337543.09561446618
 21
179256.46080932446
  0
LINE
  8
_0-1_
  6
CONTINUOUS
 62
    7
 10
337543.09561446618
 20
179256.46080932446
 11
337650.69967526244
 21
179175.29197815567
  0
LINE
  8
_0-1_
  6
CONTINUOUS
 62
    7
 10
337650.69967526244
 20
179175.29197815567
 11
337741.74722480978
 21
179094.12314698682
  0
LINE
  8
_0-1_
  6
CONTINUOUS
 62
    7
 10
337741.74722480978
 20
179094.12314698682
 11
337809.82101068617
 21
179012.95431581797
  0
LINE
  8
_0-1_
  6
CONTINUOUS
 62
    7
 10
337809.82101068617
 20
179012.95431581797
 11
337848.50378046953
 21
178931.78548464915
  0
LINE
  8
_0-1_
  6
CONTINUOUS
 62
    7
 10
337848.50378046953
 20
178931.78548464915
 11
337854.94409221859
 21
178884.70756257125
  0
LINE
  8
_0-1_
  6
CONTINUOUS
 62
    7
 10
337854.94409221859
 20
178884.70756257125
 11
337848.50378046953
 21
178837.62964049331
  0
LINE
  8
_0-1_
  6
CONTINUOUS
 62
    7
 10
337848.50378046953
 20
178837.62964049331
 11
337809.82101068617
 21
178756.46080932446
  0
LINE
  8
_0-1_
  6
CONTINUOUS
 62
    7
 10
337809.82101068617
 20
178756.46080932446
 11
337741.74722480978
 21
178675.29197815567
  0
LINE
  8
_0-1_
  6
CONTINUOUS
 62
    7
 10
337741.74722480978
 20
178675.29197815567
 11
337650.69967526244
 21
178594.12314698682
  0
LINE
  8
_0-1_
  6
CONTINUOUS
 62
    7
 10
337650.69967526244
 20
178594.12314698682
 11
337543.09561446618
 21
178512.95431581797
  0
LINE
  8
_0-1_
  6
CONTINUOUS
 62
    7
 10
337543.09561446618
 20
178512.95431581797
 11
337425.35229484306
 21
178431.78548464915
  0
LINE
  8
_0-1_
  6
CONTINUOUS
 62
    7
 10
337425.35229484306
 20
178431.78548464915
 11
337354.94409221859
 21
178384.70756257125
  0
LINE
  8
_0-1_
  6
CONTINUOUS
 62
    7
 10
328471.41360996198
 20
179134.70756257125
 11
328436.20950864977
 21
179111.16860153226
  0
LINE
  8
_0-1_
  6
CONTINUOUS
 62
    7
 10
328436.20950864977
 20
179111.16860153226
 11
328377.33784883819
 21
179070.58418594784
  0
LINE
  8
_0-1_
  6
CONTINUOUS
 62
    7
 10
328377.33784883819
 20
179070.58418594784
 11
328323.53581844008
 21
179029.99977036344
  0
LINE
  8
_0-1_
  6
CONTINUOUS
 62
    7
 10
328323.53581844008
 20
179029.99977036344
 11
328278.01204366644
 21
178989.41535477902
  0
LINE
  8
_0-1_
  6
CONTINUOUS
 62
    7
 10
328278.01204366644
 20
178989.41535477902
 11
328243.97515072819
 21
178948.83093919457
  0
LINE
  8
_0-1_
  6
CONTINUOUS
 62
    7
 10
328243.97515072819
 20
178948.83093919457
 11
328224.63376583654
 21
178908.2465236102
  0
LINE
  8
_0-1_
  6
CONTINUOUS
 62
    7
 10
328224.63376583654
 20
178908.2465236102
 11
328221.41360996198
 21
178884.70756257125
  0
LINE
  8
_0-1_
  6
CONTINUOUS
 62
    7
 10
328221.41360996198
 20
178884.70756257125
 11
328224.63376583654
 21
178861.16860153226
  0
LINE
  8
_0-1_
  6
CONTINUOUS
 62
    7
 10
328224.63376583654
 20
178861.16860153226
 11
328243.97515072819
 21
178820.58418594784
  0
LINE
  8
_0-1_
  6
CONTINUOUS
 62
    7
 10
328243.97515072819
 20
178820.58418594784
 11
328278.01204366644
 21
178779.99977036344
  0
LINE
  8
_0-1_
  6
CONTINUOUS
 62
    7
 10
328278.01204366644
 20
178779.99977036344
 11
328323.53581844008
 21
178739.41535477902
  0
LINE
  8
_0-1_
  6
CONTINUOUS
 62
    7
 10
328323.53581844008
 20
178739.41535477902
 11
328377.33784883819
 21
178698.83093919457
  0
LINE
  8
_0-1_
  6
CONTINUOUS
 62
    7
 10
328377.33784883819
 20
178698.83093919457
 11
328436.20950864977
 21
178658.2465236102
  0
LINE
  8
_0-1_
  6
CONTINUOUS
 62
    7
 10
328436.20950864977
 20
178658.2465236102
 11
328471.41360996198
 21
178634.70756257125
  0
LINE
  8
_0-1_
  6
CONTINUOUS
 62
    7
 10
336854.94409221859
 20
179134.70756257125
 11
336890.1481935308
 21
179111.16860153226
  0
LINE
  8
_0-1_
  6
CONTINUOUS
 62
    7
 10
336890.1481935308
 20
179111.16860153226
 11
336949.01985334227
 21
179070.58418594784
  0
LINE
  8
_0-1_
  6
CONTINUOUS
 62
    7
 10
336949.01985334227
 20
179070.58418594784
 11
337002.82188374054
 21
179029.99977036344
  0
LINE
  8
_0-1_
  6
CONTINUOUS
 62
    7
 10
337002.82188374054
 20
179029.99977036344
 11
337048.34565851418
 21
178989.41535477902
  0
LINE
  8
_0-1_
  6
CONTINUOUS
 62
    7
 10
337048.34565851418
 20
178989.41535477902
 11
337082.38255145238
 21
178948.83093919457
  0
LINE
  8
_0-1_
  6
CONTINUOUS
 62
    7
 10
337082.38255145238
 20
178948.83093919457
 11
337101.72393634397
 21
178908.2465236102
  0
LINE
  8
_0-1_
  6
CONTINUOUS
 62
    7
 10
337101.72393634397
 20
178908.2465236102
 11
337104.94409221859
 21
178884.70756257125
  0
LINE
  8
_0-1_
  6
CONTINUOUS
 62
    7
 10
337104.94409221859
 20
178884.70756257125
 11
337101.72393634397
 21
178861.16860153226
  0
LINE
  8
_0-1_
  6
CONTINUOUS
 62
    7
 10
337101.72393634397
 20
178861.16860153226
 11
337082.38255145238
 21
178820.58418594784
  0
LINE
  8
_0-1_
  6
CONTINUOUS
 62
    7
 10
337082.38255145238
 20
178820.58418594784
 11
337048.34565851418
 21
178779.99977036344
  0
LINE
  8
_0-1_
  6
CONTINUOUS
 62
    7
 10
337048.34565851418
 20
178779.99977036344
 11
337002.82188374054
 21
178739.41535477902
  0
LINE
  8
_0-1_
  6
CONTINUOUS
 62
    7
 10
337002.82188374054
 20
178739.41535477902
 11
336949.01985334227
 21
178698.83093919457
  0
LINE
  8
_0-1_
  6
CONTINUOUS
 62
    7
 10
336949.01985334227
 20
178698.83093919457
 11
336890.1481935308
 21
178658.2465236102
  0
LINE
  8
_0-1_
  6
CONTINUOUS
 62
    7
 10
336890.1481935308
 20
178658.2465236102
 11
336854.94409221859
 21
178634.70756257125
  0
LINE
  8
_0-1_
  6
CONTINUOUS
 62
    7
 10
328471.41360996198
 20
178634.70756257125
 11
336854.94409221859
 21
178634.70756257125
  0
LINE
  8
_0-1_
  6
CONTINUOUS
 62
    7
 10
328471.41360996198
 20
179134.70756257125
 11
336854.94409221859
 21
179134.70756257125
  0
LINE
  8
_0-7_ADD_LINE
  6
CONTINUOUS
 62
    7
 10
328278.01204366644
 20
182304.65087183009
 11
336890.1481935308
 21
182304.65087183009
  0
POINT
  8
_0-7_ADD_LINE
 62
    7
 10
328278.01204366644
 20
182304.65087183009
  0
POINT
  8
_0-7_ADD_LINE
 62
    7
 10
336890.1481935308
 20
182304.65087183009
  0
LINE
  8
_0-7_ADD_LINE
  6
CONTINUOUS
 62
    7
 10
328278.01204366644
 20
182304.65087183009
 11
328278.01204366644
 21
180023.78180827835
  0
LINE
  8
_0-7_ADD_LINE
  6
CONTINUOUS
 62
    7
 10
336890.1481935308
 20
182304.65087183009
 11
336890.1481935308
 21
180023.78180827835
  0
LINE
  8
_0-7_ADD_LINE
  6
CONTINUOUS
 62
    7
 10
327584.61047737079
 20
173417.12658971467
 11
337809.82101068617
 21
173417.12658971467
  0
POINT
  8
_0-7_ADD_LINE
 62
    7
 10
327584.61047737079
 20
173417.12658971467
  0
POINT
  8
_0-7_ADD_LINE
 62
    7
 10
337809.82101068617
 20
173417.12658971467
  0
LINE
  8
_0-7_ADD_LINE
  6
CONTINUOUS
 62
    7
 10
327584.61047737079
 20
173417.12658971467
 11
327584.61047737079
 21
176799.10485636038
  0
LINE
  8
_0-7_ADD_LINE
  6
CONTINUOUS
 62
    7
 10
337809.82101068617
 20
173417.12658971467
 11
337809.82101068617
 21
176799.10485636038
  0
LINE
  8
_0-7_ADD_LINE
  6
CONTINUOUS
 62
    7
 10
353112.12889176374
 20
208416.66911662946
 11
357516.56570413959
 21
208416.66911662946
  0
LINE
  8
_0-7_ADD_LINE
  6
CONTINUOUS
 62
    7
 10
357673.86701886728
 20
212191.90067009444
 11
357673.86701886728
 21
208416.66911662946
  0
LINE
  8
_0-7_ADD_LINE
  6
CONTINUOUS
 62
    7
 10
357673.86701886728
 20
212191.90067009444
 11
358450.32415417483
 21
209294.12319122723
  0
LINE
  8
_0-7_ADD_LINE
  6
CONTINUOUS
 62
    7
 10
357673.86701886728
 20
212191.90067009444
 11
356897.40988355968
 21
209294.12319122723
  0
LINE
  8
_0-7_ADD_LINE
  6
CONTINUOUS
 62
    7
 10
307101.49433390948
 20
212371.31992274497
 11
307101.49433390948
 21
208596.08836928001
  0
LINE
  8
_0-7_ADD_LINE
  6
CONTINUOUS
 62
    7
 10
307101.49433390948
 20
212371.31992274497
 11
307877.95146921702
 21
209473.54244387776
  0
LINE
  8
_0-7_ADD_LINE
  6
CONTINUOUS
 62
    7
 10
307101.49433390948
 20
212371.31992274497
 11
306325.03719860193
 21
209473.54244387776
  0
LINE
  8
_0-7_ADD_LINE
  6
CONTINUOUS
 62
    7
 10
307101.49433390948
 20
208596.08836928001
 11
311505.93114628526
 21
208596.08836928001
  0
LINE
  8
_0-7_ADD_LINE
  6
CONTINUOUS
 62
    7
 10
337146.04544690158
 20
178647.39530441089
 11
354842.44335376855
 21
157647.66978826202
  0
LINE
  8
_0-7_ADD_LINE
  6
CONTINUOUS
 62
    7
 10
337146.04544690158
 20
178647.39530441089
 11
339607.12181892054
 21
176931.84784336833
  0
LINE
  8
_0-7_ADD_LINE
  6
CONTINUOUS
 62
    7
 10
337146.04544690158
 20
178647.39530441089
 11
338419.62637520232
 21
175931.14943574063
  0
LINE
  8
_0-7_ADD_LINE
  6
CONTINUOUS
 62
    7
 10
354842.44335376855
 20
157647.66978826202
 11
375575.50181228691
 21
157647.66978826202
  0
ENDSEC
  0
EOF
