  0
SECTION
  2
HEADER
  9
$ACADVER
  1
AC1009
  9
$INSBASE
 10
0
 20
0
 30
0
  9
$EXTMIN
 10
0
 20
0
  9
$EXTMAX
 10
594000
 20
420000
  9
$LIMMIN
 10
0
 20
0
  9
$LIMMAX
 10
594000
 20
420000
  9
$LTSCALE
 40
1000
  0
ENDSEC
  0
SECTION
  2
TABLES
  0
TABLE
  2
LTYPE
 70
     9
  0
LTYPE
  2
CONTINUOUS
 70
    64
  3
実線
 72
    65
 73
     0
 40
0.0
  0
LTYPE
  2
DASHED1
 70
    64
  3
--  --  --  --  --  --  --  --  
 72
    65
 73
     2
 40
2.5
 49
1.25
 49
-1.25
  0
LTYPE
  2
DASHED2
 70
    64
  3
----    ----    ----    ----    
 72
    65
 73
     2
 40
5.0
 49
2.5
 49
-2.5
  0
LTYPE
  2
DASHED3
 70
    64
  3
------  ------  ------  ------  
 72
    65
 73
     2
 40
5.0
 49
3.75
 49
-1.25
  0
LTYPE
  2
CENTER1
 70
    64
  3
----- - ----- - ----- - ----- - 
 72
    65
 73
     4
 40
10.0
 49
6.25
 49
-1.25
 49
1.25
 49
-1.25
  0
LTYPE
  2
CENTER2
 70
    64
  3
----------  --  ----------  --  
 72
    65
 73
     4
 40
20.0
 49
12.5
 49
-2.5
 49
2.5
 49
-2.5
  0
LTYPE
  2
PHANTOM1
 70
    64
  3
--- - - --- - - --- - - --- - - 
 72
    65
 73
     6
 40
10.0
 49
3.25
 49
-1.25
 49
1.25
 49
-1.25
 49
1.25
 49
-1.25
  0
LTYPE
  2
PHANTOM2
 70
    64
  3
--------  -  -  --------  -  -  
 72
    65
 73
     6
 40
20.0
 49
10.0
 49
-2.5
 49
1.25
 49
-2.5
 49
1.25
 49
-2.5
  0
LTYPE
  2
DOT
 70
    64
  3
-   -   -   -   -   -   -   -   
 72
    65
 73
     2
 40
2.5
 49
0.625
 49
-1.875
  0
LTYPE
  2
DUMMY
 70
    64
  3
ダミー
 72
    65
 73
     0
 40
0.0
  0
LTYPE
  2
RAND1
 70
    64
  3
ランダム線1
 72
    65
 73
     4
 40
10.0
 49
1.0
 49
-2.0
 49
3.0
 49
-4.0
  0
LTYPE
  2
RAND2
 70
    64
  3
ランダム線2
 72
    65
 73
     4
 40
14.0
 49
2.0
 49
-3.0
 49
4.0
 49
-5.0
  0
LTYPE
  2
RAND3
 70
    64
  3
ランダム線3
 72
    65
 73
     4
 40
18.0
 49
3.0
 49
-4.0
 49
5.0
 49
-6.0
  0
LTYPE
  2
RAND4
 70
    64
  3
ランダム線4
 72
    65
 73
     4
 40
22.0
 49
4.0
 49
-5.0
 49
6.0
 49
-7.0
  0
LTYPE
  2
RAND5
 70
    64
  3
ランダム線5
 72
    65
 73
     4
 40
26.0
 49
5.0
 49
-6.0
 49
7.0
 49
-8.0
  0
LTYPE
  2
LONG1
 70
    64
  3
----------  --  ----------  --  
 72
    65
 73
     4
 40
40.0
 49
32.5
 49
-2.5
 49
2.5
 49
-2.5
  0
LTYPE
  2
LONG2
 70
    64
  3
--------  -  -  --------  -  -  
 72
    65
 73
     6
 40
40.0
 49
30.0
 49
-2.5
 49
1.25
 49
-2.5
 49
1.25
 49
-2.5
  0
LTYPE
  2
LONG3
 70
    64
  3
+++++++++++++++..+++++++++++++++
 72
    65
 73
     2
 40
40.0
 49
37.5
 49
-2.5
  0
LTYPE
  2
LONG4
 70
    64
  3
+++++++++++++++..+++++++++++++++
 72
    65
 73
     2
 40
80.0
 49
75.0
 49
-5.0
  0
LTYPE
  2
LONG5
 70
    64
  3
----------  --  ----------  --  
 72
    65
 73
     4
 40
60.0
 49
37.5
 49
-7.5
 49
7.5
 49
-7.5
  0
LTYPE
  2
dashed
 70
   64
  3
-------   -------------   ------
 72
   65
 73
    2
 40
7.5
 49
6
 49
-1.5
  0
LTYPE
  2
dashed_spaced
 70
   64
  3
----        --------        ----
 72
   65
 73
    2
 40
12
 49
6
 49
-6
  0
LTYPE
  2
long_dashed_dotted
 70
   64
  3
------------- --- --------------
 72
   65
 73
    4
 40
15.25
 49
12
 49
-1.5
 49
0.25
 49
-1.5
  0
LTYPE
  2
long_dashed_double-dotted
 70
   64
  3
----------- --- --- ------------
 72
   65
 73
    6
 40
17
 49
12
 49
-1.5
 49
0.25
 49
-1.5
 49
0.25
 49
-1.5
  0
LTYPE
  2
long_dashed_triplicate-dotted
 70
   64
  3
--------- --- --- --- ----------
 72
   65
 73
    8
 40
18.75
 49
12
 49
-1.5
 49
0.25
 49
-1.5
 49
0.25
 49
-1.5
 49
0.25
 49
-1.5
  0
LTYPE
  2
dotted
 70
   64
  3
   -       -       -       -    
 72
   65
 73
    2
 40
1.75
 49
0.25
 49
-1.5
  0
LTYPE
  2
chain
 70
   64
  3
-------------- -- --------------
 72
   65
 73
    4
 40
18.5
 49
12
 49
-1.5
 49
3.5
 49
-1.5
  0
LTYPE
  2
chain_double_dash
 70
   64
  3
------------ -- -- -------------
 72
   65
 73
    6
 40
23.5
 49
12
 49
-1.5
 49
3.5
 49
-1.5
 49
3.5
 49
-1.5
  0
LTYPE
  2
dashed_dotted
 70
   64
  3
-----------     -     ----------
 72
   65
 73
    4
 40
9.25
 49
6
 49
-1.5
 49
0.25
 49
-1.5
  0
LTYPE
  2
double-dashed_dotted
 70
   64
  3
------   -----------   -   -----
 72
   65
 73
    6
 40
16.75
 49
6
 49
-1.5
 49
6
 49
-1.5
 49
0.25
 49
-1.5
  0
LTYPE
  2
dashed_double-dotted
 70
   64
  3
---------    -    -    ---------
 72
   65
 73
    6
 40
11
 49
6
 49
-1.5
 49
0.25
 49
-1.5
 49
0.25
 49
-1.5
  0
LTYPE
  2
double-dashed_double-dotted
 70
   64
  3
-----   ---------   -   -   ----
 72
   65
 73
    8
 40
18.5
 49
6
 49
-1.5
 49
6
 49
-1.5
 49
0.25
 49
-1.5
 49
0.25
 49
-1.5
  0
LTYPE
  2
dashed_triplicate-dotted
 70
   64
  3
-------    -    -    -    ------
 72
   65
 73
    8
 40
12.75
 49
6
 49
-1.5
 49
0.25
 49
-1.5
 49
0.25
 49
-1.5
 49
0.25
 49
-1.5
  0
LTYPE
  2
double-dashed_triplicate-dotted
 70
   64
  3
-----  ---------  -  -  -  -----
 72
   65
 73
   10
 40
20.25
 49
6
 49
-1.5
 49
6
 49
-1.5
 49
0.25
 49
-1.5
 49
0.25
 49
-1.5
 49
0.25
 49
-1.5
  0
LTYPE
  2
undefined
 70
   64
  3
--------------------------------
 72
   65
 73
    0
 40
0
  0
ENDTAB
  0
TABLE
  2
STYLE
  5
3
100
AcDbSymbolTable
 70
     1
  0
STYLE
  5
10
100
AcDbSymbolTableRecord
100
AcDbTextStyleTableRecord
  2
STANDARD
 70
     0
 40
0.0
 41
1.0
 50
0.0
 71
     0
 42
0.2
  3
txt
  4
bigfont.shx
  0
STYLE
  5
26
100
AcDbSymbolTableRecord
100
AcDbTextStyleTableRecord
  2
TATEGAKI
 70
    68
 40
0.0
 41
1.0
 50
0.0
 71
     0
 42
1.0
  3
txt
  4
bigfont.shx
  0
ENDTAB
  0
TABLE
  2
LAYER
 70
    3
  0
LAYER
  2
_0-0_通り芯
 70
   64
 62
    7
  6
CONTINUOUS
  0
LAYER
  2
_0-1_
 70
   64
 62
    7
  6
CONTINUOUS
  0
LAYER
  2
ADD_LINE
 70
   64
 62
    7
  6
CONTINUOUS
  0
ENDTAB
  0
ENDSEC
  0
SECTION
  2
BLOCKS
  0
ENDSEC
  0
SECTION
  2
ENTITIES
  0
LINE
  8
_0-0_通り芯
  6
CONTINUOUS
 62
    7
 10
154214.28571428571
 20
279285.71428571426
 11
154214.28571428571
 21
89285.714285714275
  0
LINE
  8
_0-0_通り芯
  6
CONTINUOUS
 62
    7
 10
154214.28571428571
 20
89285.714285714275
 11
431214.2857142858
 21
89285.714285714275
  0
LINE
  8
_0-0_通り芯
  6
CONTINUOUS
 62
    7
 10
431214.2857142858
 20
89285.714285714275
 11
431214.2857142858
 21
279285.71428571426
  0
LINE
  8
_0-0_通り芯
  6
CONTINUOUS
 62
    7
 10
154214.28571428571
 20
279285.71428571426
 11
431214.2857142858
 21
279285.71428571426
  0
TEXT
  8
_0-1_
 62
    7
 10
220146.28746281631
 20
201839.44138458138
 40
3500
 41
1
 50
0
  1
412
  0
TEXT
  8
_0-1_
 62
    7
 10
214896.74691652504
 20
193379.02157896874
 40
3500
 41
1
 50
0
  1
10
  0
TEXT
  8
_0-1_
 62
    7
 10
229145.8280091075
 20
193379.02157896874
 40
3500
 41
1
 50
0
  1
10
  0
TEXT
  8
_0-1_
 62
    7
 10
220869.09602315241
 20
193003.53476016389
 40
3500
 41
1
 50
0
  1
412
  0
TEXT
  8
_0-1_
 62
    7
 10
220146.28746281631
 20
165503.31862231321
 40
3500
 41
1
 50
0
  1
402
  0
TEXT
  8
_0-1_
 62
    7
 10
266548.57006618474
 20
176877.27949117409
 40
3500
 41
1
 50
90
  1
95
  0
TEXT
  8
_0-1_
 62
    7
 10
237231.9909072943
 20
186664.33552337534
 40
3500
 41
1
 50
0
  1
2%
  0
TEXT
  8
_0-1_
 62
    7
 10
208517.51003908107
 20
186480.2683383227
 40
3500
 41
1
 50
0
  1
2%
  0
TEXT
  8
_0-1_
 62
    7
 10
380913.52566844248
 20
186789.31858738582
 40
3500
 41
1
 50
90
  1
L＝499
  0
TEXT
  8
_0-1_
 62
    7
 10
332499.82009147207
 20
162964.31858738585
 40
3500
 41
1
 50
90
  1
10
  0
TEXT
  8
_0-1_
 62
    7
 10
328287.14818120311
 20
232257.46916527959
 40
3500
 41
1
 50
0
  1
412
  0
LINE
  8
_0-1_
  6
CONTINUOUS
 62
    7
 10
154214.28571428571
 20
99285.714285714275
 11
431214.2857142858
 21
99285.714285714275
  0
LINE
  8
_0-1_
  6
CONTINUOUS
 62
    7
 10
180257.48980890401
 20
99285.714285714275
 11
180257.48980890401
 21
89285.714285714275
  0
LINE
  8
_0-1_
  6
CONTINUOUS
 62
    7
 10
231569.93435050111
 20
99285.714285714275
 11
231569.93435050111
 21
89285.714285714275
  0
LINE
  8
_0-1_
  6
CONTINUOUS
 62
    7
 10
245779.53437740495
 20
99285.714285714275
 11
245779.53437740495
 21
89285.714285714275
  0
LINE
  8
_0-1_
  6
CONTINUOUS
 62
    7
 10
281040.39370342559
 20
99285.714285714275
 11
281040.39370342559
 21
89285.714285714275
  0
LINE
  8
_0-1_
  6
CONTINUOUS
 62
    7
 10
298144.54188395798
 20
99285.714285714275
 11
298144.54188395798
 21
89285.714285714275
  0
LINE
  8
_0-1_
  6
CONTINUOUS
 62
    7
 10
331037.13453882787
 20
99285.714285714275
 11
331037.13453882787
 21
89285.714285714275
  0
TEXT
  8
_0-1_
 62
    7
 10
159872.13769169807
 20
92150.36835968087
 40
4000
 41
1
 50
0
  1
製品名
  0
TEXT
  8
_0-1_
 62
    7
 10
193124.53503356825
 20
92279.253620695876
 40
4000
 41
1
 50
0
  1
流レール蓋
  0
TEXT
  8
_0-1_
 62
    7
 10
232305.65438212847
 20
92021.483098665864
 40
4000
 41
1
 50
0
  1
タイプ
  0
TEXT
  8
_0-1_
 62
    7
 10
258598.24762918855
 20
92021.483098665864
 40
4000
 41
1
 50
0
  1
標準
  0
TEXT
  8
_0-1_
 62
    7
 10
285858.60910605162
 20
92708.289668708356
 40
4000
 41
1
 50
0
  1
重量
  0
TEXT
  8
_0-1_
 62
    7
 10
308603.57397428167
 20
92534.663982691345
 40
4000
 41
1
 50
0
  1
43㎏
  0
LINE
  8
_0-0_通り芯
  6
CONTINUOUS
 62
    7
 10
216358.07409925651
 20
184023.4354677918
 11
216358.07409925651
 21
175252.27949117409
  0
LINE
  8
_0-0_通り芯
  6
CONTINUOUS
 62
    7
 10
203796.28746281628
 20
175252.27949117409
 11
243996.28746281628
 21
175252.27949117409
  0
LINE
  8
_0-0_通り芯
  6
CONTINUOUS
 62
    7
 10
203796.28746281628
 20
184752.27949117409
 11
203796.28746281628
 21
175252.27949117409
  0
LINE
  8
_0-0_通り芯
  6
CONTINUOUS
 62
    7
 10
243996.28746281628
 20
184752.27949117409
 11
243996.28746281628
 21
175252.27949117409
  0
LINE
  8
_0-0_通り芯
  6
CONTINUOUS
 62
    7
 10
203796.28746281628
 20
184752.27949117409
 11
216638.45959001168
 21
184303.82095854697
  0
LINE
  8
_0-0_通り芯
  6
CONTINUOUS
 62
    7
 10
243996.28746281628
 20
184752.27949117409
 11
231154.11533562094
 21
184303.82095854697
  0
LINE
  8
_0-0_通り芯
  6
CONTINUOUS
 62
    7
 10
216638.45959001168
 20
184303.82095854697
 11
216938.45959001165
 21
184003.82095854697
  0
LINE
  8
_0-0_通り芯
  6
CONTINUOUS
 62
    7
 10
231154.11533562094
 20
184303.82095854697
 11
230854.11533562091
 21
184003.82095854697
  0
LINE
  8
_0-0_通り芯
  6
CONTINUOUS
 62
    7
 10
216638.45959001168
 20
184303.82095854697
 11
216358.07409925651
 21
184023.4354677918
  0
LINE
  8
_0-0_通り芯
  6
CONTINUOUS
 62
    7
 10
216938.45959001165
 20
184003.82095854697
 11
216905.03424303848
 21
183967.88481879351
  0
LINE
  8
_0-0_通り芯
  6
CONTINUOUS
 62
    7
 10
216905.03424303848
 20
183967.88481879351
 11
216848.21455004357
 21
183905.6558852896
  0
LINE
  8
_0-0_通り芯
  6
CONTINUOUS
 62
    7
 10
216848.21455004357
 20
183905.6558852896
 11
216793.64545588085
 21
183842.676752175
  0
LINE
  8
_0-0_通り芯
  6
CONTINUOUS
 62
    7
 10
216793.64545588085
 20
183842.676752175
 11
216742.7513901908
 21
183778.47260956952
  0
LINE
  8
_0-0_通り芯
  6
CONTINUOUS
 62
    7
 10
216742.7513901908
 20
183778.47260956952
 11
216696.95678261408
 21
183712.56864759294
  0
LINE
  8
_0-0_通り芯
  6
CONTINUOUS
 62
    7
 10
216696.95678261408
 20
183712.56864759294
 11
216657.6860627913
 21
183644.49005636503
  0
LINE
  8
_0-0_通り芯
  6
CONTINUOUS
 62
    7
 10
216657.6860627913
 20
183644.49005636503
 11
216638.45959001168
 21
183603.82095854697
  0
LINE
  8
_0-0_通り芯
  6
CONTINUOUS
 62
    7
 10
216638.45959001168
 20
183603.82095854697
 11
216612.29634334592
 21
183532.36443507471
  0
LINE
  8
_0-0_通り芯
  6
CONTINUOUS
 62
    7
 10
216612.29634334592
 20
183532.36443507471
 11
216584.94302963259
 21
183403.24495511557
  0
LINE
  8
_0-0_通り芯
  6
CONTINUOUS
 62
    7
 10
216584.94302963259
 20
183403.24495511557
 11
216576.51219678309
 21
183267.81798153519
  0
LINE
  8
_0-0_通り芯
  6
CONTINUOUS
 62
    7
 10
216576.51219678309
 20
183267.81798153519
 11
216582.87229875725
 21
183127.46069634691
  0
LINE
  8
_0-0_通り芯
  6
CONTINUOUS
 62
    7
 10
216582.87229875725
 20
183127.46069634691
 11
216599.89178951504
 21
182983.55028156406
  0
LINE
  8
_0-0_通り芯
  6
CONTINUOUS
 62
    7
 10
216599.89178951504
 20
182983.55028156406
 11
216623.43912301617
 21
182837.46391920015
  0
LINE
  8
_0-0_通り芯
  6
CONTINUOUS
 62
    7
 10
216623.43912301617
 20
182837.46391920015
 11
216638.45959001168
 21
182752.27949117409
  0
LINE
  8
_0-0_通り芯
  6
CONTINUOUS
 62
    7
 10
230854.11533562091
 20
184003.82095854697
 11
230887.54068259409
 21
183967.88481879351
  0
LINE
  8
_0-0_通り芯
  6
CONTINUOUS
 62
    7
 10
230887.54068259409
 20
183967.88481879351
 11
230944.36037558899
 21
183905.6558852896
  0
LINE
  8
_0-0_通り芯
  6
CONTINUOUS
 62
    7
 10
230944.36037558899
 20
183905.6558852896
 11
230998.92946975178
 21
183842.676752175
  0
LINE
  8
_0-0_通り芯
  6
CONTINUOUS
 62
    7
 10
230998.92946975178
 20
183842.676752175
 11
231049.82353544183
 21
183778.47260956952
  0
LINE
  8
_0-0_通り芯
  6
CONTINUOUS
 62
    7
 10
231049.82353544183
 20
183778.47260956952
 11
231095.61814301851
 21
183712.56864759294
  0
LINE
  8
_0-0_通り芯
  6
CONTINUOUS
 62
    7
 10
231095.61814301851
 20
183712.56864759294
 11
231134.88886284124
 21
183644.49005636503
  0
LINE
  8
_0-0_通り芯
  6
CONTINUOUS
 62
    7
 10
231134.88886284124
 20
183644.49005636503
 11
231154.11533562094
 21
183603.82095854697
  0
LINE
  8
_0-0_通り芯
  6
CONTINUOUS
 62
    7
 10
231154.11533562094
 20
183603.82095854697
 11
231180.27858228664
 21
183532.36443507471
  0
LINE
  8
_0-0_通り芯
  6
CONTINUOUS
 62
    7
 10
231180.27858228664
 20
183532.36443507471
 11
231207.63189599998
 21
183403.24495511557
  0
LINE
  8
_0-0_通り芯
  6
CONTINUOUS
 62
    7
 10
231207.63189599998
 20
183403.24495511557
 11
231216.06272884953
 21
183267.81798153519
  0
LINE
  8
_0-0_通り芯
  6
CONTINUOUS
 62
    7
 10
231216.06272884953
 20
183267.81798153519
 11
231209.70262687531
 21
183127.46069634691
  0
LINE
  8
_0-0_通り芯
  6
CONTINUOUS
 62
    7
 10
231209.70262687531
 20
183127.46069634691
 11
231192.68313611756
 21
182983.55028156406
  0
LINE
  8
_0-0_通り芯
  6
CONTINUOUS
 62
    7
 10
231192.68313611756
 20
182983.55028156406
 11
231169.13580261639
 21
182837.46391920015
  0
LINE
  8
_0-0_通り芯
  6
CONTINUOUS
 62
    7
 10
231169.13580261639
 20
182837.46391920015
 11
231154.11533562094
 21
182752.27949117409
  0
LINE
  8
_0-0_通り芯
  6
CONTINUOUS
 62
    7
 10
216623.43912301617
 20
182837.46391920015
 11
231169.13580261639
 21
182837.46391920015
  0
LINE
  8
_0-0_通り芯
  6
CONTINUOUS
 62
    7
 10
231154.11533562094
 20
182837.46391920015
 11
231154.11533562094
 21
175252.27949117409
  0
LINE
  8
_0-0_通り芯
  6
CONTINUOUS
 62
    7
 10
231434.11533562091
 20
182837.46391920015
 11
231434.11533562091
 21
175252.27949117409
  0
LINE
  8
_0-0_通り芯
  6
CONTINUOUS
 62
    7
 10
216638.45959001168
 20
182752.27949117409
 11
216638.45959001168
 21
175252.27949117409
  0
LINE
  8
_0-0_通り芯
  6
CONTINUOUS
 62
    7
 10
231434.11533562091
 20
182837.46391920015
 11
231434.11533562091
 21
184023.4354677918
  0
LINE
  8
_0-1_
  6
CONTINUOUS
 62
    7
 10
219138.45959001168
 20
179252.27949117409
 11
219138.45959001168
 21
175252.27949117409
  0
LINE
  8
_0-1_
  6
CONTINUOUS
 62
    7
 10
219138.45959001168
 20
179252.27949117409
 11
228654.11533562094
 21
179252.27949117409
  0
LINE
  8
_0-1_
  6
CONTINUOUS
 62
    7
 10
228654.11533562094
 20
179252.27949117409
 11
228654.11533562094
 21
175252.27949117409
  0
LINE
  8
_0-1_
  6
CONTINUOUS
 62
    7
 10
219138.45959001168
 20
179252.27949117409
 11
220138.45959001168
 21
178752.27949117409
  0
LINE
  8
_0-1_
  6
CONTINUOUS
 62
    7
 10
227654.11533562094
 20
178752.27949117409
 11
228654.11533562094
 21
179252.27949117409
  0
LINE
  8
_0-1_
  6
CONTINUOUS
 62
    7
 10
220138.45959001168
 20
178752.27949117409
 11
220138.45959001168
 21
175252.27949117409
  0
LINE
  8
_0-1_
  6
CONTINUOUS
 62
    7
 10
227654.11533562094
 20
178752.27949117409
 11
227654.11533562094
 21
175252.27949117409
  0
LINE
  8
_0-1_
  6
CONTINUOUS
 62
    7
 10
220138.45959001168
 20
178752.27949117409
 11
227654.11533562094
 21
178752.27949117409
  0
LINE
  8
_0-1_
  6
CONTINUOUS
 62
    7
 10
311437.14818120317
 20
215489.31858738585
 11
311437.14818120317
 21
165589.31858738585
  0
LINE
  8
_0-1_
  6
CONTINUOUS
 62
    7
 10
352637.14818120323
 20
215489.31858738585
 11
352637.14818120323
 21
165589.31858738585
  0
LINE
  8
_0-1_
  6
CONTINUOUS
 62
    7
 10
324999.14818120311
 20
215489.31858738585
 11
324999.14818120311
 21
165589.31858738585
  0
LINE
  8
_0-1_
  6
CONTINUOUS
 62
    7
 10
340075.14818120311
 20
215489.31858738585
 11
340075.14818120311
 21
165589.31858738585
  0
LINE
  8
_0-1_
  6
CONTINUOUS
 62
    7
 10
311437.14818120317
 20
215489.31858738585
 11
324999.14818120311
 21
215489.31858738585
  0
LINE
  8
_0-1_
  6
CONTINUOUS
 62
    7
 10
340075.14818120311
 20
215489.31858738585
 11
352637.14818120323
 21
215489.31858738585
  0
LINE
  8
_0-1_
  6
CONTINUOUS
 62
    7
 10
312437.14818120317
 20
214489.31858738585
 11
324999.14818120311
 21
214489.31858738585
  0
LINE
  8
_0-1_
  6
CONTINUOUS
 62
    7
 10
311437.14818120317
 20
165589.31858738585
 11
324999.14818120311
 21
165589.31858738585
  0
LINE
  8
_0-1_
  6
CONTINUOUS
 62
    7
 10
340075.14818120311
 20
165589.31858738585
 11
352637.14818120323
 21
165589.31858738585
  0
LINE
  8
_0-1_
  6
CONTINUOUS
 62
    7
 10
312437.14818120317
 20
166589.31858738585
 11
324999.14818120311
 21
166589.31858738585
  0
LINE
  8
_0-1_
  6
CONTINUOUS
 62
    7
 10
312437.14818120317
 20
214489.31858738585
 11
312437.14818120317
 21
166589.31858738585
  0
LINE
  8
_0-1_
  6
CONTINUOUS
 62
    7
 10
340075.14818120311
 20
166589.31858738585
 11
351637.14818120323
 21
166589.31858738585
  0
LINE
  8
_0-1_
  6
CONTINUOUS
 62
    7
 10
351637.14818120323
 20
214489.31858738585
 11
351637.14818120323
 21
166589.31858738585
  0
LINE
  8
_0-1_
  6
CONTINUOUS
 62
    7
 10
340075.14818120311
 20
214489.31858738585
 11
351637.14818120323
 21
214489.31858738585
  0
LINE
  8
_0-1_
  6
CONTINUOUS
 62
    7
 10
351637.14818120323
 20
214489.31858738585
 11
352637.14818120323
 21
215489.31858738585
  0
LINE
  8
_0-1_
  6
CONTINUOUS
 62
    7
 10
311437.14818120317
 20
215489.31858738585
 11
312437.14818120317
 21
214489.31858738585
  0
LINE
  8
_0-1_
  6
CONTINUOUS
 62
    7
 10
311437.14818120317
 20
165589.31858738585
 11
312437.14818120317
 21
166589.31858738585
  0
LINE
  8
_0-1_
  6
CONTINUOUS
 62
    7
 10
351637.14818120323
 20
166589.31858738585
 11
352637.14818120323
 21
165589.31858738585
  0
LINE
  8
_0-1_
  6
CONTINUOUS
 62
    7
 10
324999.14818120311
 20
214489.31858738585
 11
340075.14818120311
 21
214489.31858738585
  0
LINE
  8
_0-1_
  6
CONTINUOUS
 62
    7
 10
324999.14818120311
 20
214489.31858738585
 11
326228.53864544007
 21
209901.17091251275
  0
LINE
  8
_0-1_
  6
CONTINUOUS
 62
    7
 10
340075.14818120311
 20
214489.31858738585
 11
338845.75771696615
 21
209901.17091251275
  0
LINE
  8
_0-1_
  6
CONTINUOUS
 62
    7
 10
324999.14818120311
 20
166589.31858738585
 11
340075.14818120311
 21
166589.31858738585
  0
LINE
  8
_0-1_
  6
CONTINUOUS
 62
    7
 10
324999.14818120311
 20
166589.31858738585
 11
326228.53864544007
 21
171177.46626225891
  0
LINE
  8
_0-1_
  6
CONTINUOUS
 62
    7
 10
340075.14818120311
 20
166589.31858738585
 11
338845.75771696615
 21
171177.46626225891
  0
LINE
  8
_0-1_
  6
CONTINUOUS
 62
    7
 10
326228.53864544007
 20
209901.17091251275
 11
338845.75771696615
 21
209901.17091251275
  0
LINE
  8
_0-1_
  6
CONTINUOUS
 62
    7
 10
338845.75771696615
 20
209901.17091251275
 11
338845.75771696615
 21
171177.46626225891
  0
LINE
  8
_0-1_
  6
CONTINUOUS
 62
    7
 10
338845.75771696615
 20
171177.46626225891
 11
326228.53864544007
 21
171177.46626225891
  0
LINE
  8
_0-1_
  6
CONTINUOUS
 62
    7
 10
326228.53864544007
 20
171177.46626225891
 11
326228.53864544007
 21
209901.17091251275
  0
LINE
  8
_0-1_
  6
CONTINUOUS
 62
    7
 10
327587.33863222838
 20
214489.31858738585
 11
328816.72909646528
 21
209901.17091251275
  0
LINE
  8
_0-1_
  6
CONTINUOUS
 62
    7
 10
337486.95773017791
 20
214489.31858738585
 11
336257.56726594095
 21
209901.17091251275
  0
LINE
  8
_0-1_
  6
CONTINUOUS
 62
    7
 10
327587.33863222838
 20
166589.31858738585
 11
328816.72909646528
 21
171177.46626225891
  0
LINE
  8
_0-1_
  6
CONTINUOUS
 62
    7
 10
337486.95773017791
 20
166589.31858738585
 11
336257.56726594095
 21
171177.46626225891
  0
LINE
  8
_0-1_
  6
CONTINUOUS
 62
    7
 10
203786.16660877256
 20
201339.44138458138
 11
244006.40831686
 21
201339.44138458138
  0
POINT
  8
_0-1_
 62
    7
 10
203786.16660877256
 20
201339.44138458138
  0
POINT
  8
_0-1_
 62
    7
 10
244006.40831686
 20
201339.44138458138
  0
LINE
  8
_0-1_
  6
CONTINUOUS
 62
    7
 10
203786.16660877256
 20
201339.44138458138
 11
203786.16660877256
 21
192298.68593615678
  0
LINE
  8
_0-1_
  6
CONTINUOUS
 62
    7
 10
244006.40831686
 20
201339.44138458138
 11
244006.40831686
 21
192298.68593615678
  0
LINE
  8
_0-1_
  6
CONTINUOUS
 62
    7
 10
216638.45959001168
 20
192879.02157896874
 11
216905.03424303848
 21
192879.02157896874
  0
POINT
  8
_0-1_
 62
    7
 10
216638.45959001168
 20
192879.02157896874
  0
POINT
  8
_0-1_
 62
    7
 10
216905.03424303848
 20
192879.02157896874
  0
LINE
  8
_0-1_
  6
CONTINUOUS
 62
    7
 10
216638.45959001168
 20
192879.02157896874
 11
216638.45959001168
 21
188432.65319860348
  0
LINE
  8
_0-1_
  6
CONTINUOUS
 62
    7
 10
216905.03424303848
 20
192879.02157896874
 11
216905.03424303848
 21
188432.65319860348
  0
LINE
  8
_0-1_
  6
CONTINUOUS
 62
    7
 10
216905.03424303848
 20
192879.02157896874
 11
230887.54068259409
 21
192879.02157896874
  0
POINT
  8
_0-1_
 62
    7
 10
230887.54068259409
 20
192879.02157896874
  0
LINE
  8
_0-1_
  6
CONTINUOUS
 62
    7
 10
230887.54068259409
 20
192879.02157896874
 11
230887.54068259409
 21
188432.65319860348
  0
LINE
  8
_0-1_
  6
CONTINUOUS
 62
    7
 10
230887.54068259409
 20
192879.02157896874
 11
231154.11533562094
 21
192879.02157896874
  0
POINT
  8
_0-1_
 62
    7
 10
231154.11533562094
 20
192879.02157896874
  0
LINE
  8
_0-1_
  6
CONTINUOUS
 62
    7
 10
231154.11533562094
 20
192879.02157896874
 11
231154.11533562094
 21
188432.65319860348
  0
LINE
  8
_0-0_通り芯
  6
CONTINUOUS
 62
    7
 10
216938.45959001165
 20
184003.82095854697
 11
230854.11533562091
 21
184003.82095854697
  0
LINE
  8
_0-1_
  6
CONTINUOUS
 62
    7
 10
231434.11533562091
 20
184023.42200615801
 11
231154.11533562094
 21
184303.82095854697
  0
LINE
  8
_0-1_
  6
CONTINUOUS
 62
    7
 10
203796.28746281628
 20
165003.31862231321
 11
243996.28746281628
 21
165003.31862231321
  0
POINT
  8
_0-1_
 62
    7
 10
203796.28746281628
 20
165003.31862231321
  0
POINT
  8
_0-1_
 62
    7
 10
243996.28746281628
 20
165003.31862231321
  0
LINE
  8
_0-1_
  6
CONTINUOUS
 62
    7
 10
203796.28746281628
 20
165003.31862231321
 11
203796.28746281628
 21
172111.6573132308
  0
LINE
  8
_0-1_
  6
CONTINUOUS
 62
    7
 10
243996.28746281628
 20
165003.31862231321
 11
243996.28746281628
 21
172111.6573132308
  0
LINE
  8
_0-1_
  6
CONTINUOUS
 62
    7
 10
267048.57006618474
 20
184752.27949117409
 11
267048.57006618474
 21
175252.27949117409
  0
POINT
  8
_0-1_
 62
    7
 10
267048.57006618474
 20
184752.27949117409
  0
POINT
  8
_0-1_
 62
    7
 10
267048.57006618474
 20
175252.27949117409
  0
LINE
  8
_0-1_
  6
CONTINUOUS
 62
    7
 10
267048.57006618474
 20
184752.27949117409
 11
254159.7194717027
 21
184752.27949117409
  0
LINE
  8
_0-1_
  6
CONTINUOUS
 62
    7
 10
267048.57006618474
 20
175252.27949117409
 11
254159.7194717027
 21
175252.27949117409
  0
LINE
  8
_0-1_
  6
CONTINUOUS
 62
    7
 10
223424.76805409172
 20
184303.82095854697
 11
223424.76805409172
 21
183712.56864759294
  0
POINT
  8
_0-1_
 62
    7
 10
223424.76805409172
 20
184303.82095854697
  0
POINT
  8
_0-1_
 62
    7
 10
223424.76805409172
 20
183712.56864759294
  0
LINE
  8
_0-1_
  6
CONTINUOUS
 62
    7
 10
223424.76805409172
 20
184303.82095854697
 11
220175.01512642318
 21
184303.82095854697
  0
LINE
  8
_0-1_
  6
CONTINUOUS
 62
    7
 10
223424.76805409172
 20
183712.56864759294
 11
220175.01512642318
 21
183712.56864759294
  0
LINE
  8
_0-1_
  6
CONTINUOUS
 62
    7
 10
311437.14818120317
 20
231757.46916527959
 11
352637.14818120323
 21
231757.46916527959
  0
POINT
  8
_0-1_
 62
    7
 10
311437.14818120317
 20
231757.46916527959
  0
POINT
  8
_0-1_
 62
    7
 10
352637.14818120323
 20
231757.46916527959
  0
LINE
  8
_0-1_
  6
CONTINUOUS
 62
    7
 10
311437.14818120317
 20
231757.46916527959
 11
311437.14818120317
 21
221858.75612909603
  0
LINE
  8
_0-1_
  6
CONTINUOUS
 62
    7
 10
352637.14818120323
 20
231757.46916527959
 11
352637.14818120323
 21
221858.75612909603
  0
LINE
  8
_0-1_
  6
CONTINUOUS
 62
    7
 10
381413.52566844248
 20
215489.31858738585
 11
381413.52566844248
 21
165589.31858738585
  0
POINT
  8
_0-1_
 62
    7
 10
381413.52566844248
 20
215489.31858738585
  0
POINT
  8
_0-1_
 62
    7
 10
381413.52566844248
 20
165589.31858738585
  0
LINE
  8
_0-1_
  6
CONTINUOUS
 62
    7
 10
381413.52566844248
 20
215489.31858738585
 11
367825.29231877235
 21
215489.31858738585
  0
LINE
  8
_0-1_
  6
CONTINUOUS
 62
    7
 10
381413.52566844248
 20
165589.31858738585
 11
367825.29231877235
 21
165589.31858738585
  0
LINE
  8
_0-1_
  6
CONTINUOUS
 62
    7
 10
332999.82009147207
 20
215489.31858738585
 11
332999.82009147207
 21
214489.31858738585
  0
POINT
  8
_0-1_
 62
    7
 10
332999.82009147207
 20
215489.31858738585
  0
POINT
  8
_0-1_
 62
    7
 10
332999.82009147207
 20
214489.31858738585
  0
LINE
  8
_0-1_
  6
CONTINUOUS
 62
    7
 10
332999.82009147207
 20
215489.31858738585
 11
337769.20000890596
 21
215489.31858738585
  0
LINE
  8
_0-1_
  6
CONTINUOUS
 62
    7
 10
332999.82009147207
 20
214489.31858738585
 11
337769.20000890596
 21
214489.31858738585
  0
POINT
  8
_0-1_
 62
    7
 10
332999.82009147207
 20
166589.31858738585
  0
LINE
  8
_0-1_
  6
CONTINUOUS
 62
    7
 10
332999.82009147207
 20
166589.31858738585
 11
337769.20000890596
 21
166589.31858738585
  0
LINE
  8
_0-1_
  6
CONTINUOUS
 62
    7
 10
332999.82009147207
 20
166589.31858738585
 11
332999.82009147207
 21
165589.31858738585
  0
POINT
  8
_0-1_
 62
    7
 10
332999.82009147207
 20
165589.31858738585
  0
LINE
  8
_0-1_
  6
CONTINUOUS
 62
    7
 10
332999.82009147207
 20
165589.31858738585
 11
337769.20000890596
 21
165589.31858738585
  0
LINE
  8
_0-1_
  6
CONTINUOUS
 62
    7
 10
231321.38907615925
 20
185893.98026741427
 11
243427.48823176356
 21
186316.73456547136
  0
LINE
  8
_0-1_
  6
CONTINUOUS
 62
    7
 10
231321.38907615925
 20
185893.98026741427
 11
234190.30334404836
 21
186771.09538158245
  0
LINE
  8
_0-1_
  6
CONTINUOUS
 62
    7
 10
231321.38907615925
 20
185893.98026741427
 11
234244.49927051496
 21
185219.12710438267
  0
LINE
  8
_0-1_
  6
CONTINUOUS
 62
    7
 10
216541.47584674656
 20
185784.90341701268
 11
204722.26239739044
 21
186197.63944545141
  0
LINE
  8
_0-1_
  6
CONTINUOUS
 62
    7
 10
216541.47584674656
 20
185784.90341701268
 11
213618.36565239084
 21
185110.05025398108
  0
LINE
  8
_0-1_
  6
CONTINUOUS
 62
    7
 10
216541.47584674656
 20
185784.90341701268
 11
213672.56157885742
 21
186662.01853118089
  0
TEXT
  8
_0-1_
 62
    7
 10
221379.79808812353
 20
184060.0820678577
 40
3500
 41
1
 50
90
  1
3
  0
TEXT
  8
_0-1_
 62
    7
 10
332519.1330819311
 20
214612.85648820209
 40
3500
 41
1
 50
90
  1
10
  0
LINE
  8
_0-1_
  6
CONTINUOUS
 62
    7
 10
203768.71686042129
 20
183962.76073782903
 11
216340.62435090524
 21
183523.74005428224
  0
LINE
  8
_0-1_
  6
CONTINUOUS
 62
    7
 10
244023.85806521127
 20
183962.76073782903
 11
231451.56508397215
 21
183523.72659264848
  0
TEXT
  8
_0-1_
 62
    7
 10
347724.71185926604
 20
91569.134819532919
 40
5000
 41
1
 50
0
  1
岩城ブロック工業株式会社
  0
ENDSEC
  0
EOF
