  0
SECTION
  2
HEADER
  9
$ACADVER
  1
AC1009
  9
$INSBASE
 10
0
 20
0
 30
0
  9
$EXTMIN
 10
0
 20
0
  9
$EXTMAX
 10
8410
 20
5940
  9
$LIMMIN
 10
0
 20
0
  9
$LIMMAX
 10
8410
 20
5940
  9
$LTSCALE
 40
10
  0
ENDSEC
  0
SECTION
  2
TABLES
  0
TABLE
  2
LTYPE
 70
     9
  0
LTYPE
  2
CONTINUOUS
 70
    64
  3
実線
 72
    65
 73
     0
 40
0.0
  0
LTYPE
  2
DASHED1
 70
    64
  3
--  --  --  --  --  --  --  --  
 72
    65
 73
     2
 40
2.5
 49
1.25
 49
-1.25
  0
LTYPE
  2
DASHED2
 70
    64
  3
----    ----    ----    ----    
 72
    65
 73
     2
 40
5.0
 49
2.5
 49
-2.5
  0
LTYPE
  2
DASHED3
 70
    64
  3
------  ------  ------  ------  
 72
    65
 73
     2
 40
5.0
 49
3.75
 49
-1.25
  0
LTYPE
  2
CENTER1
 70
    64
  3
----- - ----- - ----- - ----- - 
 72
    65
 73
     4
 40
10.0
 49
6.25
 49
-1.25
 49
1.25
 49
-1.25
  0
LTYPE
  2
CENTER2
 70
    64
  3
----------  --  ----------  --  
 72
    65
 73
     4
 40
20.0
 49
12.5
 49
-2.5
 49
2.5
 49
-2.5
  0
LTYPE
  2
PHANTOM1
 70
    64
  3
--- - - --- - - --- - - --- - - 
 72
    65
 73
     6
 40
10.0
 49
3.25
 49
-1.25
 49
1.25
 49
-1.25
 49
1.25
 49
-1.25
  0
LTYPE
  2
PHANTOM2
 70
    64
  3
--------  -  -  --------  -  -  
 72
    65
 73
     6
 40
20.0
 49
10.0
 49
-2.5
 49
1.25
 49
-2.5
 49
1.25
 49
-2.5
  0
LTYPE
  2
DOT
 70
    64
  3
-   -   -   -   -   -   -   -   
 72
    65
 73
     2
 40
2.5
 49
0.625
 49
-1.875
  0
LTYPE
  2
DUMMY
 70
    64
  3
ダミー
 72
    65
 73
     0
 40
0.0
  0
LTYPE
  2
RAND1
 70
    64
  3
ランダム線1
 72
    65
 73
     4
 40
10.0
 49
1.0
 49
-2.0
 49
3.0
 49
-4.0
  0
LTYPE
  2
RAND2
 70
    64
  3
ランダム線2
 72
    65
 73
     4
 40
14.0
 49
2.0
 49
-3.0
 49
4.0
 49
-5.0
  0
LTYPE
  2
RAND3
 70
    64
  3
ランダム線3
 72
    65
 73
     4
 40
18.0
 49
3.0
 49
-4.0
 49
5.0
 49
-6.0
  0
LTYPE
  2
RAND4
 70
    64
  3
ランダム線4
 72
    65
 73
     4
 40
22.0
 49
4.0
 49
-5.0
 49
6.0
 49
-7.0
  0
LTYPE
  2
RAND5
 70
    64
  3
ランダム線5
 72
    65
 73
     4
 40
26.0
 49
5.0
 49
-6.0
 49
7.0
 49
-8.0
  0
LTYPE
  2
LONG1
 70
    64
  3
----------  --  ----------  --  
 72
    65
 73
     4
 40
40.0
 49
32.5
 49
-2.5
 49
2.5
 49
-2.5
  0
LTYPE
  2
LONG2
 70
    64
  3
--------  -  -  --------  -  -  
 72
    65
 73
     6
 40
40.0
 49
30.0
 49
-2.5
 49
1.25
 49
-2.5
 49
1.25
 49
-2.5
  0
LTYPE
  2
LONG3
 70
    64
  3
+++++++++++++++..+++++++++++++++
 72
    65
 73
     2
 40
40.0
 49
37.5
 49
-2.5
  0
LTYPE
  2
LONG4
 70
    64
  3
+++++++++++++++..+++++++++++++++
 72
    65
 73
     2
 40
80.0
 49
75.0
 49
-5.0
  0
LTYPE
  2
LONG5
 70
    64
  3
----------  --  ----------  --  
 72
    65
 73
     4
 40
60.0
 49
37.5
 49
-7.5
 49
7.5
 49
-7.5
  0
LTYPE
  2
dashed
 70
   64
  3
-------   -------------   ------
 72
   65
 73
    2
 40
7.5
 49
6
 49
-1.5
  0
LTYPE
  2
dashed_spaced
 70
   64
  3
----        --------        ----
 72
   65
 73
    2
 40
12
 49
6
 49
-6
  0
LTYPE
  2
long_dashed_dotted
 70
   64
  3
------------- --- --------------
 72
   65
 73
    4
 40
15.25
 49
12
 49
-1.5
 49
0.25
 49
-1.5
  0
LTYPE
  2
long_dashed_double-dotted
 70
   64
  3
----------- --- --- ------------
 72
   65
 73
    6
 40
17
 49
12
 49
-1.5
 49
0.25
 49
-1.5
 49
0.25
 49
-1.5
  0
LTYPE
  2
long_dashed_triplicate-dotted
 70
   64
  3
--------- --- --- --- ----------
 72
   65
 73
    8
 40
18.75
 49
12
 49
-1.5
 49
0.25
 49
-1.5
 49
0.25
 49
-1.5
 49
0.25
 49
-1.5
  0
LTYPE
  2
dotted
 70
   64
  3
   -       -       -       -    
 72
   65
 73
    2
 40
1.75
 49
0.25
 49
-1.5
  0
LTYPE
  2
chain
 70
   64
  3
-------------- -- --------------
 72
   65
 73
    4
 40
18.5
 49
12
 49
-1.5
 49
3.5
 49
-1.5
  0
LTYPE
  2
chain_double_dash
 70
   64
  3
------------ -- -- -------------
 72
   65
 73
    6
 40
23.5
 49
12
 49
-1.5
 49
3.5
 49
-1.5
 49
3.5
 49
-1.5
  0
LTYPE
  2
dashed_dotted
 70
   64
  3
-----------     -     ----------
 72
   65
 73
    4
 40
9.25
 49
6
 49
-1.5
 49
0.25
 49
-1.5
  0
LTYPE
  2
double-dashed_dotted
 70
   64
  3
------   -----------   -   -----
 72
   65
 73
    6
 40
16.75
 49
6
 49
-1.5
 49
6
 49
-1.5
 49
0.25
 49
-1.5
  0
LTYPE
  2
dashed_double-dotted
 70
   64
  3
---------    -    -    ---------
 72
   65
 73
    6
 40
11
 49
6
 49
-1.5
 49
0.25
 49
-1.5
 49
0.25
 49
-1.5
  0
LTYPE
  2
double-dashed_double-dotted
 70
   64
  3
-----   ---------   -   -   ----
 72
   65
 73
    8
 40
18.5
 49
6
 49
-1.5
 49
6
 49
-1.5
 49
0.25
 49
-1.5
 49
0.25
 49
-1.5
  0
LTYPE
  2
dashed_triplicate-dotted
 70
   64
  3
-------    -    -    -    ------
 72
   65
 73
    8
 40
12.75
 49
6
 49
-1.5
 49
0.25
 49
-1.5
 49
0.25
 49
-1.5
 49
0.25
 49
-1.5
  0
LTYPE
  2
double-dashed_triplicate-dotted
 70
   64
  3
-----  ---------  -  -  -  -----
 72
   65
 73
   10
 40
20.25
 49
6
 49
-1.5
 49
6
 49
-1.5
 49
0.25
 49
-1.5
 49
0.25
 49
-1.5
 49
0.25
 49
-1.5
  0
LTYPE
  2
undefined
 70
   64
  3
--------------------------------
 72
   65
 73
    0
 40
0
  0
ENDTAB
  0
TABLE
  2
STYLE
  5
3
100
AcDbSymbolTable
 70
     1
  0
STYLE
  5
10
100
AcDbSymbolTableRecord
100
AcDbTextStyleTableRecord
  2
STANDARD
 70
     0
 40
0.0
 41
1.0
 50
0.0
 71
     0
 42
0.2
  3
txt
  4
bigfont.shx
  0
STYLE
  5
26
100
AcDbSymbolTableRecord
100
AcDbTextStyleTableRecord
  2
TATEGAKI
 70
    68
 40
0.0
 41
1.0
 50
0.0
 71
     0
 42
1.0
  3
txt
  4
bigfont.shx
  0
ENDTAB
  0
TABLE
  2
LAYER
 70
    2
  0
LAYER
  2
_0-0_
 70
   64
 62
    7
  6
CONTINUOUS
  0
LAYER
  2
ADD_LINE
 70
   64
 62
    7
  6
CONTINUOUS
  0
ENDTAB
  0
ENDSEC
  0
SECTION
  2
BLOCKS
  0
ENDSEC
  0
SECTION
  2
ENTITIES
  0
TEXT
  8
_0-0_
 62
    7
 10
5421.4945224881467
 20
1448.9721933171454
 40
70
 41
1
 50
0
  1
岩城ブロック工業株式会社
  0
LINE
  8
_0-0_
  6
CONTINUOUS
 62
    7
 10
6404.9999587600287
 20
4499.9999829885128
 11
2005.0000412399704
 21
4499.9999829885128
  0
LINE
  8
_0-0_
  6
CONTINUOUS
 62
    7
 10
2005.0000412399704
 20
4499.9999829885128
 11
2005.0000412399704
 21
1440.0000170114872
  0
LINE
  8
_0-0_
  6
CONTINUOUS
 62
    7
 10
2005.0000412399704
 20
1440.0000170114872
 11
6404.9999587600287
 21
1440.0000170114872
  0
LINE
  8
_0-0_
  6
CONTINUOUS
 62
    7
 10
6404.9999587600287
 20
4499.9999829885128
 11
6404.9999587600287
 21
1440.0000170114872
  0
POINT
  8
_0-0_
 62
    7
 10
3051.5847077444528
 20
3985.8086585998535
  0
LINE
  8
_0-0_
  6
CONTINUOUS
 62
    7
 10
3051.5847077444528
 20
3835.8085331815232
 11
2949.0031474549151
 21
3835.8085331815232
  0
LINE
  8
_0-0_
  6
CONTINUOUS
 62
    7
 10
3051.5847077444528
 20
3335.8084919415523
 11
2949.0031474549151
 21
3335.8084919415523
  0
LINE
  8
_0-0_
  6
CONTINUOUS
 62
    7
 10
3154.2847077444526
 20
3185.8084919415523
 11
3051.5847077444528
 21
3185.8084919415523
  0
LINE
  8
_0-0_
  6
CONTINUOUS
 62
    7
 10
3051.5847077444528
 20
3985.8086585998535
 11
3154.2847077444526
 21
3985.8086585998535
  0
LINE
  8
_0-0_
  6
CONTINUOUS
 62
    7
 10
2920.8261850921608
 20
3185.8084919415523
 11
2920.8261850921608
 21
3985.8086569014349
  0
LINE
  8
_0-0_
  6
CONTINUOUS
 62
    7
 10
2120.8261747821693
 20
3985.8086569014349
 11
2120.8261747821693
 21
3185.8084919415523
  0
LINE
  8
_0-0_
  6
CONTINUOUS
 62
    7
 10
2270.8261767152926
 20
3335.8084919415523
 11
2770.8261541621832
 21
3335.8084919415523
  0
LINE
  8
_0-0_
  6
CONTINUOUS
 62
    7
 10
2770.8261541621832
 20
3335.8084919415523
 11
2770.8261541621832
 21
3835.8085331815232
  0
LINE
  8
_0-0_
  6
CONTINUOUS
 62
    7
 10
2770.8261541621832
 20
3835.8085331815232
 11
2270.8261767152926
 21
3835.8085331815232
  0
LINE
  8
_0-0_
  6
CONTINUOUS
 62
    7
 10
2270.8261767152926
 20
3835.8085331815232
 11
2270.8261767152926
 21
3335.8084919415523
  0
LINE
  8
_0-0_
  6
CONTINUOUS
 62
    7
 10
2120.8261747821693
 20
3185.8084919415523
 11
2920.8261850921608
 21
3185.8084919415523
  0
LINE
  8
_0-0_
  6
CONTINUOUS
 62
    7
 10
2222.826189628558
 20
3287.8085067879415
 11
2818.8262321057277
 21
3287.8085067879415
  0
LINE
  8
_0-0_
  6
CONTINUOUS
 62
    7
 10
2818.8262321057277
 20
3287.8085067879415
 11
2818.8262321057277
 21
3883.8086420550453
  0
LINE
  8
_0-0_
  6
CONTINUOUS
 62
    7
 10
2818.8262321057277
 20
3883.8086420550453
 11
2222.826189628558
 21
3883.8086420550453
  0
LINE
  8
_0-0_
  6
CONTINUOUS
 62
    7
 10
2222.826189628558
 20
3883.8086420550453
 11
2222.826189628558
 21
3287.8085067879415
  0
LINE
  8
_0-0_
  6
CONTINUOUS
 62
    7
 10
2905.8261974641528
 20
3200.8085414295165
 11
2905.8261974641528
 21
3970.8088548532924
  0
LINE
  8
_0-0_
  6
CONTINUOUS
 62
    7
 10
2135.8261778751666
 20
3970.8088548532924
 11
2135.8261778751666
 21
3200.8085414295165
  0
LINE
  8
_0-0_
  6
CONTINUOUS
 62
    7
 10
2135.8261778751666
 20
3200.8085414295165
 11
2905.8261974641528
 21
3200.8085414295165
  0
LINE
  8
_0-0_
  6
CONTINUOUS
 62
    7
 10
2905.8261974641528
 20
3200.8085414295165
 11
2920.8261850921608
 21
3185.8084919415523
  0
LINE
  8
_0-0_
  6
CONTINUOUS
 62
    7
 10
2135.8261778751666
 20
3200.8085414295165
 11
2120.8261747821693
 21
3185.8084919415523
  0
LINE
  8
_0-0_
  6
CONTINUOUS
 62
    7
 10
2920.8261850921608
 20
3985.8086569014349
 11
2120.8261747821693
 21
3985.8086569014349
  0
LINE
  8
_0-0_
  6
CONTINUOUS
 62
    7
 10
2905.8261974641528
 20
3970.8088548532924
 11
2135.8261778751666
 21
3970.8088548532924
  0
LINE
  8
_0-0_
  6
CONTINUOUS
 62
    7
 10
2135.8261778751666
 20
3970.8088548532924
 11
2120.8261747821693
 21
3985.8086569014349
  0
LINE
  8
_0-0_
  6
CONTINUOUS
 62
    7
 10
2905.8261974641528
 20
3970.8088548532924
 11
2920.8261850921608
 21
3985.8086569014349
  0
LINE
  8
_0-0_
  6
CONTINUOUS
 62
    7
 10
2120.8261747821693
 20
4105.2325180184107
 11
2270.8261767152926
 21
4105.2325180184107
  0
LINE
  8
_0-0_
  6
CONTINUOUS
 62
    7
 10
2120.8261747821693
 20
4105.2325180184107
 11
2120.8261747821693
 21
4002.5328670735207
  0
LINE
  8
_0-0_
  6
CONTINUOUS
 62
    7
 10
2770.8261541621832
 20
4105.2325180184107
 11
2920.8261850921608
 21
4105.2325180184107
  0
LINE
  8
_0-0_
  6
CONTINUOUS
 62
    7
 10
2920.8261850921608
 20
4105.2325180184107
 11
2920.8261850921608
 21
4002.5328670735207
  0
LINE
  8
_0-0_
  6
CONTINUOUS
 62
    7
 10
2120.8261747821693
 20
2816.0104193328102
 11
2920.8261850921608
 21
2816.0104193328102
  0
LINE
  8
_0-0_
  6
CONTINUOUS
 62
    7
 10
2120.8261747821693
 20
2816.0104193328102
 11
2135.8261778751666
 21
2831.0103451008645
  0
LINE
  8
_0-0_
  6
CONTINUOUS
 62
    7
 10
2920.8261850921608
 20
2816.0104193328102
 11
2905.8261974641528
 21
2831.0103451008645
  0
LINE
  8
_0-0_
  6
CONTINUOUS
 62
    7
 10
2135.8261778751666
 20
2831.0103451008645
 11
2905.8261974641528
 21
2831.0103451008645
  0
LINE
  8
_0-0_
  6
DASHED1
 62
    7
 10
2222.826189628558
 20
2831.0103451008645
 11
2222.826189628558
 21
2760.0103335536728
  0
LINE
  8
_0-0_
  6
DASHED1
 62
    7
 10
2818.8262321057277
 20
2831.0103451008645
 11
2818.8262321057277
 21
2760.0103335536728
  0
LINE
  8
_0-0_
  6
DASHED1
 62
    7
 10
2770.8261541621832
 20
2760.0103335536728
 11
2818.8262321057277
 21
2760.0103335536728
  0
LINE
  8
_0-0_
  6
CONTINUOUS
 62
    7
 10
2120.8261747821693
 20
2081.0104069608196
 11
2920.8261850921608
 21
2081.0104069608196
  0
LINE
  8
_0-0_
  6
DASHED1
 62
    7
 10
2770.8261541621832
 20
2760.0103335536728
 11
2770.8261541621832
 21
2081.0104069608196
  0
LINE
  8
_0-0_
  6
DASHED1
 62
    7
 10
2270.8261767152926
 20
2760.0103335536728
 11
2270.8261767152926
 21
2081.0104069608196
  0
LINE
  8
_0-0_
  6
CONTINUOUS
 62
    7
 10
2120.8261747821693
 20
2816.0104193328102
 11
2120.8261747821693
 21
2081.0104069608196
  0
LINE
  8
_0-0_
  6
CONTINUOUS
 62
    7
 10
2920.8261850921608
 20
2816.0104193328102
 11
2920.8261850921608
 21
2081.0104069608196
  0
LINE
  8
_0-0_
  6
CONTINUOUS
 62
    7
 10
2120.8261747821693
 20
1953.5442103335893
 11
2270.8261767152926
 21
1953.5442103335893
  0
LINE
  8
_0-0_
  6
CONTINUOUS
 62
    7
 10
2770.8261541621832
 20
1953.5442103335893
 11
2920.8261850921608
 21
1953.5442103335893
  0
LINE
  8
_0-0_
  6
CONTINUOUS
 62
    7
 10
2920.8261850921608
 20
1953.5442103335893
 11
2920.8261850921608
 21
2053.9780548226095
  0
LINE
  8
_0-0_
  6
CONTINUOUS
 62
    7
 10
2120.8261747821693
 20
1953.5442103335893
 11
2120.8261747821693
 21
2053.9780548226095
  0
POINT
  8
_0-0_
 62
    7
 10
2120.8261747821693
 20
4105.2325180184107
  0
POINT
  8
_0-0_
 62
    7
 10
2270.8261767152926
 20
4105.2325180184107
  0
POINT
  8
_0-0_
 62
    7
 10
2770.8261541621832
 20
4105.2325180184107
  0
POINT
  8
_0-0_
 62
    7
 10
2920.8261850921608
 20
4105.2325180184107
  0
POINT
  8
_0-0_
 62
    7
 10
2920.8261850921608
 20
1953.5442103335893
  0
POINT
  8
_0-0_
 62
    7
 10
2770.8261541621832
 20
1953.5442103335893
  0
POINT
  8
_0-0_
 62
    7
 10
2270.8261767152926
 20
1953.5442103335893
  0
POINT
  8
_0-0_
 62
    7
 10
2120.8261747821693
 20
1953.5442103335893
  0
LINE
  8
_0-0_
  6
DASHED1
 62
    7
 10
2222.826189628558
 20
2760.0103335536728
 11
2770.8261541621832
 21
2760.0103335536728
  0
LINE
  8
_0-0_
  6
CONTINUOUS
 62
    7
 10
3051.5847077444528
 20
3985.8086585998535
 11
3051.5847077444528
 21
3835.8085331815232
  0
POINT
  8
_0-0_
 62
    7
 10
3051.5847077444528
 20
3835.8085331815232
  0
LINE
  8
_0-0_
  6
CONTINUOUS
 62
    7
 10
3051.5847077444528
 20
3985.8086585998535
 11
2949.0031474549151
 21
3985.8086585998535
  0
POINT
  8
_0-0_
 62
    7
 10
3051.5847077444528
 20
3335.8084919415523
  0
LINE
  8
_0-0_
  6
CONTINUOUS
 62
    7
 10
3051.5847077444528
 20
3335.8084919415523
 11
3051.5847077444528
 21
3185.8084919415523
  0
POINT
  8
_0-0_
 62
    7
 10
3051.5847077444528
 20
3185.8084919415523
  0
LINE
  8
_0-0_
  6
CONTINUOUS
 62
    7
 10
3051.5847077444528
 20
3185.8084919415523
 11
2949.0031474549151
 21
3185.8084919415523
  0
LINE
  8
_0-0_
  6
CONTINUOUS
 62
    7
 10
3051.5847077444528
 20
2831.0103451008645
 11
3051.5847077444523
 21
2081.0104069608196
  0
POINT
  8
_0-0_
 62
    7
 10
3051.5847077444528
 20
2831.0103451008645
  0
POINT
  8
_0-0_
 62
    7
 10
3051.5847077444523
 20
2081.0104069608196
  0
LINE
  8
_0-0_
  6
CONTINUOUS
 62
    7
 10
3051.5847077444528
 20
2831.0103451008645
 11
2949.0031474549151
 21
2831.0103451008645
  0
LINE
  8
_0-0_
  6
CONTINUOUS
 62
    7
 10
3051.5847077444523
 20
2081.0104069608196
 11
2949.0031474549151
 21
2081.0104069608196
  0
TEXT
  8
_0-0_
 62
    7
 10
3019.0847077444528
 20
2436.0103760308421
 40
40
 41
1
 50
0
  1
H
  0
LINE
  8
_0-0_
  6
CONTINUOUS
 62
    7
 10
2120.8261747821693
 20
4207.9325180184105
 11
2920.8261850921608
 21
4207.9325180184105
  0
POINT
  8
_0-0_
 62
    7
 10
2120.8261747821693
 20
4207.9325180184105
  0
POINT
  8
_0-0_
 62
    7
 10
2920.8261850921608
 20
4207.9325180184105
  0
LINE
  8
_0-0_
  6
CONTINUOUS
 62
    7
 10
2120.8261747821693
 20
4207.9325180184105
 11
2120.8261747821693
 21
4105.2325180184107
  0
LINE
  8
_0-0_
  6
CONTINUOUS
 62
    7
 10
2920.8261850921608
 20
4207.9325180184105
 11
2920.8261850921608
 21
4105.2325180184107
  0
TEXT
  8
_0-0_
 62
    7
 10
2500.8261799371653
 20
4210.4325180184105
 40
39.999999999999858
 41
1.0000000000000036
 50
0
  1
B1
  0
LINE
  8
_0-0_
  6
CONTINUOUS
 62
    7
 10
2270.8261767152926
 20
4105.2325180184107
 11
2770.8261541621832
 21
4105.2325180184107
  0
POINT
  8
_0-0_
 62
    7
 10
2270.8261767152926
 20
4105.2325180184107
  0
POINT
  8
_0-0_
 62
    7
 10
2770.8261541621832
 20
4105.2325180184107
  0
LINE
  8
_0-0_
  6
CONTINUOUS
 62
    7
 10
2270.8261767152926
 20
4105.2325180184107
 11
2270.8261767152926
 21
4002.5328670735207
  0
LINE
  8
_0-0_
  6
CONTINUOUS
 62
    7
 10
2770.8261541621832
 20
4105.2325180184107
 11
2770.8261541621832
 21
4002.5328670735207
  0
TEXT
  8
_0-0_
 62
    7
 10
2510.8261654387384
 20
4107.7325180184107
 40
40
 41
1
 50
0
  1
B
  0
TEXT
  8
_0-0_
 62
    7
 10
2180.8261782617915
 20
4105.2325180184107
 40
40
 41
1
 50
0
  1
B2
  0
TEXT
  8
_0-0_
 62
    7
 10
2830.8261479761882
 20
4105.2325180184107
 40
40
 41
1
 50
0
  1
B2
  0
TEXT
  8
_0-0_
 62
    7
 10
3049.0847077444528
 20
3890.8085958906886
 40
40
 41
1
 50
90
  1
L2
  0
TEXT
  8
_0-0_
 62
    7
 10
3049.0847077444528
 20
3240.8084919415523
 40
40
 41
1
 50
90
  1
L2
  0
LINE
  8
_0-0_
  6
CONTINUOUS
 62
    7
 10
3051.5847077444528
 20
3835.8085331815232
 11
3051.5847077444528
 21
3335.8084919415523
  0
POINT
  8
_0-0_
 62
    7
 10
3051.5847077444528
 20
3835.8085331815232
  0
POINT
  8
_0-0_
 62
    7
 10
3051.5847077444528
 20
3335.8084919415523
  0
TEXT
  8
_0-0_
 62
    7
 10
3049.0847077444528
 20
3575.808512561538
 40
40
 41
1
 50
90
  1
L
  0
LINE
  8
_0-0_
  6
CONTINUOUS
 62
    7
 10
3154.2847077444526
 20
3985.8086569014349
 11
3154.2847077444526
 21
3185.8084919415523
  0
POINT
  8
_0-0_
 62
    7
 10
3154.2847077444526
 20
3985.8086569014349
  0
POINT
  8
_0-0_
 62
    7
 10
3154.2847077444526
 20
3185.8084919415523
  0
TEXT
  8
_0-0_
 62
    7
 10
3151.7847077444526
 20
3565.8085744214932
 40
40
 41
1
 50
90
  1
L1
  0
TEXT
  8
_0-0_
 62
    7
 10
2142.8261724881959
 20
1953.5442103335893
 40
40
 41
1
 50
0
  1
B2(L2)
  0
TEXT
  8
_0-0_
 62
    7
 10
2789.8098507646705
 20
1953.5442103335893
 40
40
 41
1
 50
0
  1
B2(L2)
  0
LINE
  8
_0-0_
  6
CONTINUOUS
 62
    7
 10
2270.8261767152926
 20
1953.5442103335893
 11
2770.8261541621832
 21
1953.5442103335893
  0
POINT
  8
_0-0_
 62
    7
 10
2270.8261767152926
 20
1953.5442103335893
  0
POINT
  8
_0-0_
 62
    7
 10
2770.8261541621832
 20
1953.5442103335893
  0
LINE
  8
_0-0_
  6
CONTINUOUS
 62
    7
 10
2270.8261767152926
 20
1953.5442103335893
 11
2270.8261767152926
 21
2053.9780548226095
  0
LINE
  8
_0-0_
  6
CONTINUOUS
 62
    7
 10
2770.8261541621832
 20
1953.5442103335893
 11
2770.8261541621832
 21
2053.9780548226095
  0
TEXT
  8
_0-0_
 62
    7
 10
2480.8261654387384
 20
1956.0442103335893
 40
40
 41
1
 50
0
  1
B(L)
  0
LINE
  8
ADD_LINE
  6
DOT
 62
    7
 10
5680.3233215948258
 20
4263.5323887528484
 11
5680.3233215948258
 21
3513.5324506128036
  0
LINE
  8
ADD_LINE
  6
DOT
 62
    7
 10
5347.3233215948267
 20
4263.5323887528484
 11
5347.3233215948267
 21
3513.532450612804
  0
TEXT
  8
_0-0_
 62
    7
 10
5488.6567005670613
 20
4196.8657908194673
 40
50
 41
1
 50
0
  1
L2
  0
TEXT
  8
_0-0_
 62
    7
 10
5834.1567005670622
 20
4196.8657908194673
 40
50
 41
1
 50
0
  1
H
  0
TEXT
  8
_0-0_
 62
    7
 10
3384.9901537712408
 20
4196.865749579496
 40
50
 41
1
 50
0
  1
呼び名
  0
LINE
  8
_0-0_
  6
CONTINUOUS
 62
    7
 10
3237.9901537712408
 20
3925.1991104061426
 11
6373.0706360479517
 21
3925.1991104061426
  0
TEXT
  8
_0-0_
 62
    7
 10
3284.9901537712408
 20
4027.6991104061426
 40
50
 41
1
 50
0
  1
４５０×４５０
  0
TEXT
  8
_0-0_
 62
    7
 10
4106.8232349908894
 20
4027.6991104061426
 40
50
 41
1
 50
0
  1
４５０
  0
TEXT
  8
_0-0_
 62
    7
 10
4439.8232325164918
 20
4027.6991104061426
 40
50
 41
1
 50
0
  1
７５０
  0
TEXT
  8
_0-0_
 62
    7
 10
4772.8232919020493
 20
4027.6991104061426
 40
50
 41
1
 50
0
  1
７５０
  0
TEXT
  8
_0-0_
 62
    7
 10
5105.8233215948267
 20
4027.6991104061426
 40
50
 41
1
 50
0
  1
１５０
  0
TEXT
  8
_0-0_
 62
    7
 10
5438.8233215948276
 20
4027.6991104061426
 40
50
 41
1
 50
0
  1
１５０
  0
TEXT
  8
_0-0_
 62
    7
 10
5771.8233215948276
 20
4112.6991104061426
 40
50
 41
1
 50
0
  1
５００
  0
TEXT
  8
_0-0_
 62
    7
 10
5871.8233215948276
 20
4027.6991104061426
 40
50
 41
1
 50
90
  1
～
  0
TEXT
  8
_0-0_
 62
    7
 10
5746.8233215948276
 20
3942.6991104061426
 40
50
 41
1
 50
0
  1
１３００
  0
TEXT
  8
_0-0_
 62
    7
 10
6118.1969788213892
 20
4112.6991104061426
 40
50
 41
1
 50
0
  1
４３３
  0
TEXT
  8
_0-0_
 62
    7
 10
6218.1969788213892
 20
4027.6991104061426
 40
50
 41
1
 50
90
  1
～
  0
TEXT
  8
_0-0_
 62
    7
 10
6093.1969788213892
 20
3942.6991104061426
 40
50
 41
1
 50
0
  1
１０３０
  0
LINE
  8
_0-0_
  6
CONTINUOUS
 62
    7
 10
3237.9901537712408
 20
3670.1991104061426
 11
6373.0706360479517
 21
3670.1991104061426
  0
TEXT
  8
_0-0_
 62
    7
 10
3284.9901537712408
 20
3772.6991104061426
 40
50
 41
1
 50
0
  1
５００×５００
  0
TEXT
  8
_0-0_
 62
    7
 10
3773.6567104646538
 20
3772.6991104061426
 40
50
 41
1
 50
0
  1
５００
  0
TEXT
  8
_0-0_
 62
    7
 10
4106.8232349908894
 20
3772.6991104061426
 40
50
 41
1
 50
0
  1
５００
  0
TEXT
  8
_0-0_
 62
    7
 10
4439.8232325164918
 20
3772.6991104061426
 40
50
 41
1
 50
0
  1
８００
  0
TEXT
  8
_0-0_
 62
    7
 10
4772.8232919020493
 20
3772.6991104061426
 40
50
 41
1
 50
0
  1
８００
  0
TEXT
  8
_0-0_
 62
    7
 10
5105.8233215948267
 20
3772.6991104061426
 40
50
 41
1
 50
0
  1
１５０
  0
TEXT
  8
_0-0_
 62
    7
 10
5438.8233215948276
 20
3772.6991104061426
 40
50
 41
1
 50
0
  1
１５０
  0
TEXT
  8
_0-0_
 62
    7
 10
5771.8233215948276
 20
3857.6991104061426
 40
50
 41
1
 50
0
  1
５００
  0
TEXT
  8
_0-0_
 62
    7
 10
5871.8233215948276
 20
3772.6991104061426
 40
50
 41
1
 50
90
  1
～
  0
TEXT
  8
_0-0_
 62
    7
 10
5746.8233215948276
 20
3687.6991104061426
 40
50
 41
1
 50
0
  1
１３００
  0
TEXT
  8
_0-0_
 62
    7
 10
6118.1969788213892
 20
3857.6991104061426
 40
50
 41
1
 50
0
  1
４６８
  0
TEXT
  8
_0-0_
 62
    7
 10
6218.1969788213892
 20
3772.6991104061426
 40
50
 41
1
 50
90
  1
～
  0
TEXT
  8
_0-0_
 62
    7
 10
6093.1969788213892
 20
3687.6991104061426
 40
50
 41
1
 50
0
  1
１２１７
  0
LINE
  8
_0-0_
  6
CONTINUOUS
 62
    7
 10
3237.9901537712408
 20
3415.1991104061426
 11
6373.0706360479517
 21
3415.1991104061426
  0
LINE
  8
_0-0_
  6
CONTINUOUS
 62
    7
 10
3237.9901537712408
 20
3160.1991104061426
 11
6373.0706360479517
 21
3160.1991104061426
  0
TEXT
  8
_0-0_
 62
    7
 10
3284.9901537712408
 20
3517.6991104061426
 40
50
 41
1
 50
0
  1
６００×６００
  0
TEXT
  8
_0-0_
 62
    7
 10
3773.6567104646538
 20
3517.6991104061426
 40
50
 41
1
 50
0
  1
６００
  0
TEXT
  8
_0-0_
 62
    7
 10
4106.8232349908894
 20
3517.6991104061426
 40
50
 41
1
 50
0
  1
６００
  0
TEXT
  8
_0-0_
 62
    7
 10
4439.8232325164918
 20
3517.6991104061426
 40
50
 41
1
 50
0
  1
９００
  0
TEXT
  8
_0-0_
 62
    7
 10
4772.8232919020493
 20
3517.6991104061426
 40
50
 41
1
 50
0
  1
９００
  0
TEXT
  8
_0-0_
 62
    7
 10
5105.8233215948267
 20
3517.6991104061426
 40
50
 41
1
 50
0
  1
１５０
  0
TEXT
  8
_0-0_
 62
    7
 10
5438.8233215948276
 20
3517.6991104061426
 40
50
 41
1
 50
0
  1
１５０
  0
TEXT
  8
_0-0_
 62
    7
 10
5771.8233215948276
 20
3602.6991104061426
 40
50
 41
1
 50
0
  1
５００
  0
TEXT
  8
_0-0_
 62
    7
 10
5871.8233215948276
 20
3517.6991104061426
 40
50
 41
1
 50
90
  1
～
  0
TEXT
  8
_0-0_
 62
    7
 10
5746.8233215948276
 20
3432.6991104061426
 40
50
 41
1
 50
0
  1
１３００
  0
TEXT
  8
_0-0_
 62
    7
 10
6118.1969788213892
 20
3602.6991104061426
 40
50
 41
1
 50
0
  1
５４０
  0
TEXT
  8
_0-0_
 62
    7
 10
6218.1969788213892
 20
3517.6991104061426
 40
50
 41
1
 50
90
  1
～
  0
TEXT
  8
_0-0_
 62
    7
 10
6093.1969788213892
 20
3432.6991104061426
 40
50
 41
1
 50
0
  1
１４０４
  0
TEXT
  8
_0-0_
 62
    7
 10
3773.6567104646538
 20
3262.6991104061426
 40
50
 41
1
 50
0
  1
７００
  0
TEXT
  8
_0-0_
 62
    7
 10
4106.8232349908894
 20
3262.6991104061426
 40
50
 41
1
 50
0
  1
７００
  0
TEXT
  8
_0-0_
 62
    7
 10
4414.8232325164918
 20
3262.6991104061426
 40
50
 41
1
 50
0
  1
１０００
  0
TEXT
  8
_0-0_
 62
    7
 10
4747.8232919020493
 20
3262.6991104061426
 40
50
 41
1
 50
0
  1
１０００
  0
TEXT
  8
_0-0_
 62
    7
 10
5105.8233215948267
 20
3262.6991104061426
 40
50
 41
1
 50
0
  1
１５０
  0
TEXT
  8
_0-0_
 62
    7
 10
5438.8233215948276
 20
3262.6991104061426
 40
50
 41
1
 50
0
  1
１５０
  0
TEXT
  8
_0-0_
 62
    7
 10
5771.8233215948276
 20
3347.6991104061426
 40
50
 41
1
 50
0
  1
７００
  0
TEXT
  8
_0-0_
 62
    7
 10
5871.8233215948276
 20
3262.6991104061426
 40
50
 41
1
 50
90
  1
～
  0
TEXT
  8
_0-0_
 62
    7
 10
5746.8233215948276
 20
3177.6991104061426
 40
50
 41
1
 50
0
  1
１３００
  0
TEXT
  8
_0-0_
 62
    7
 10
6118.1969788213892
 20
3347.6991104061426
 40
50
 41
1
 50
0
  1
８５７
  0
TEXT
  8
_0-0_
 62
    7
 10
6218.1969788213892
 20
3262.6991104061426
 40
50
 41
1
 50
90
  1
～
  0
TEXT
  8
_0-0_
 62
    7
 10
6093.1969788213892
 20
3177.6991104061426
 40
50
 41
1
 50
0
  1
１５９１
  0
TEXT
  8
_0-0_
 62
    7
 10
3773.6567104646538
 20
3007.6991104061426
 40
50
 41
1
 50
0
  1
８００
  0
TEXT
  8
_0-0_
 62
    7
 10
4106.8232349908894
 20
3007.6991104061426
 40
50
 41
1
 50
0
  1
８００
  0
TEXT
  8
_0-0_
 62
    7
 10
4414.8232325164918
 20
3007.6991104061426
 40
50
 41
1
 50
0
  1
１１００
  0
TEXT
  8
_0-0_
 62
    7
 10
4747.8232919020493
 20
3007.6991104061426
 40
50
 41
1
 50
0
  1
１１００
  0
TEXT
  8
_0-0_
 62
    7
 10
5105.8233215948267
 20
3007.6991104061426
 40
50
 41
1
 50
0
  1
１５０
  0
TEXT
  8
_0-0_
 62
    7
 10
5438.8233215948276
 20
3007.6991104061426
 40
50
 41
1
 50
0
  1
１５０
  0
TEXT
  8
_0-0_
 62
    7
 10
6093.1969788213892
 20
3092.6991104061426
 40
50
 41
1
 50
0
  1
１０９４
  0
TEXT
  8
_0-0_
 62
    7
 10
5771.8233215948276
 20
3092.6991104061426
 40
50
 41
1
 50
0
  1
８００
  0
TEXT
  8
_0-0_
 62
    7
 10
5871.8233215948276
 20
3007.6991104061426
 40
50
 41
1
 50
90
  1
～
  0
TEXT
  8
_0-0_
 62
    7
 10
6218.1969788213892
 20
3007.6991104061426
 40
50
 41
1
 50
90
  1
～
  0
TEXT
  8
_0-0_
 62
    7
 10
5746.8233215948276
 20
2922.6991104061426
 40
50
 41
1
 50
0
  1
１３００
  0
TEXT
  8
_0-0_
 62
    7
 10
6093.1969788213892
 20
2922.6991104061426
 40
50
 41
1
 50
0
  1
１７７８
  0
TEXT
  8
_0-0_
 62
    7
 10
3284.9901537712408
 20
2880.1991104061426
 40
50
 41
1
 50
0
  1
８００×８００
  0
TEXT
  8
_0-0_
 62
    7
 10
3284.9901537712408
 20
3262.6991104061426
 40
50
 41
1
 50
0
  1
７００×７００
  0
LINE
  8
_0-0_
  6
CONTINUOUS
 62
    7
 10
3237.9901537712408
 20
2650.1991104061426
 11
6373.0706360479517
 21
2650.1991104061426
  0
TEXT
  8
_0-0_
 62
    7
 10
3773.6567104646538
 20
2752.6991104061426
 40
50
 41
1
 50
0
  1
８００
  0
TEXT
  8
_0-0_
 62
    7
 10
4106.8232349908894
 20
2752.6991104061426
 40
50
 41
1
 50
0
  1
８００
  0
TEXT
  8
_0-0_
 62
    7
 10
4414.8232325164918
 20
2752.6991104061426
 40
50
 41
1
 50
0
  1
１２００
  0
TEXT
  8
_0-0_
 62
    7
 10
4747.8232919020493
 20
2752.6991104061426
 40
50
 41
1
 50
0
  1
１２００
  0
TEXT
  8
_0-0_
 62
    7
 10
5105.8233215948267
 20
2752.6991104061426
 40
50
 41
1
 50
0
  1
２００
  0
TEXT
  8
_0-0_
 62
    7
 10
5438.8233215948276
 20
2752.6991104061426
 40
50
 41
1
 50
0
  1
２００
  0
TEXT
  8
_0-0_
 62
    7
 10
5746.8233215948276
 20
2837.6991104061426
 40
50
 41
1
 50
0
  1
１０００
  0
TEXT
  8
_0-0_
 62
    7
 10
5871.8233215948276
 20
2752.6991104061426
 40
50
 41
1
 50
90
  1
～
  0
TEXT
  8
_0-0_
 62
    7
 10
6093.1969788213892
 20
2837.6991104061426
 40
50
 41
1
 50
0
  1
１９２０
  0
TEXT
  8
_0-0_
 62
    7
 10
6218.1969788213892
 20
2752.6991104061426
 40
50
 41
1
 50
90
  1
～
  0
TEXT
  8
_0-0_
 62
    7
 10
5746.8233215948276
 20
2667.6991104061426
 40
50
 41
1
 50
0
  1
１４５０
  0
TEXT
  8
_0-0_
 62
    7
 10
6093.1969788213892
 20
2667.6991104061426
 40
50
 41
1
 50
0
  1
２７８４
  0
LINE
  8
_0-0_
  6
CONTINUOUS
 62
    7
 10
3681.9901537712403
 20
2905.1991104061426
 11
6373.0706360479517
 21
2905.1991104061426
  0
LINE
  8
_0-0_
  6
CONTINUOUS
 62
    7
 10
3237.9901537712408
 20
2140.1991104061431
 11
6373.0706360479517
 21
2140.1991104061431
  0
TEXT
  8
_0-0_
 62
    7
 10
3284.9901537712408
 20
2370.1991104061431
 40
50
 41
1
 50
0
  1
９００×９００
  0
TEXT
  8
_0-0_
 62
    7
 10
3773.6567104646538
 20
2497.6991104061431
 40
50
 41
1
 50
0
  1
９００
  0
TEXT
  8
_0-0_
 62
    7
 10
4106.8232349908894
 20
2497.6991104061431
 40
50
 41
1
 50
0
  1
９００
  0
TEXT
  8
_0-0_
 62
    7
 10
4414.8232325164918
 20
2497.6991104061431
 40
50
 41
1
 50
0
  1
１２００
  0
TEXT
  8
_0-0_
 62
    7
 10
4747.8232919020493
 20
2497.6991104061431
 40
50
 41
1
 50
0
  1
１２００
  0
TEXT
  8
_0-0_
 62
    7
 10
5105.8233215948267
 20
2497.6991104061431
 40
50
 41
1
 50
0
  1
１５０
  0
TEXT
  8
_0-0_
 62
    7
 10
5438.8233215948276
 20
2497.6991104061431
 40
50
 41
1
 50
0
  1
１５０
  0
TEXT
  8
_0-0_
 62
    7
 10
5871.8233215948276
 20
2497.6991104061431
 40
50
 41
1
 50
90
  1
～
  0
TEXT
  8
_0-0_
 62
    7
 10
6218.1969788213892
 20
2497.6991104061431
 40
50
 41
1
 50
90
  1
～
  0
TEXT
  8
_0-0_
 62
    7
 10
5771.8233215948276
 20
2582.6991104061426
 40
50
 41
1
 50
0
  1
９００
  0
TEXT
  8
_0-0_
 62
    7
 10
6093.1969788213892
 20
2582.6991104061426
 40
50
 41
1
 50
0
  1
１３６１
  0
TEXT
  8
_0-0_
 62
    7
 10
5746.8233215948276
 20
2412.6991104061431
 40
50
 41
1
 50
0
  1
１３００
  0
TEXT
  8
_0-0_
 62
    7
 10
6093.1969788213892
 20
2412.6991104061431
 40
50
 41
1
 50
0
  1
１９６６
  0
TEXT
  8
_0-0_
 62
    7
 10
5746.8233215948276
 20
2327.6991104061431
 40
50
 41
1
 50
0
  1
１０００
  0
TEXT
  8
_0-0_
 62
    7
 10
6093.1969788213892
 20
2327.6991104061431
 40
50
 41
1
 50
0
  1
２１１２
  0
TEXT
  8
_0-0_
 62
    7
 10
3773.6567104646538
 20
2242.6991104061431
 40
50
 41
1
 50
0
  1
９００
  0
TEXT
  8
_0-0_
 62
    7
 10
4106.8232349908894
 20
2242.6991104061431
 40
50
 41
1
 50
0
  1
９００
  0
TEXT
  8
_0-0_
 62
    7
 10
4414.8232325164918
 20
2242.6991104061431
 40
50
 41
1
 50
0
  1
１３００
  0
TEXT
  8
_0-0_
 62
    7
 10
4747.8232919020493
 20
2242.6991104061431
 40
50
 41
1
 50
0
  1
１３００
  0
TEXT
  8
_0-0_
 62
    7
 10
5105.8233215948267
 20
2242.6991104061431
 40
50
 41
1
 50
0
  1
２００
  0
TEXT
  8
_0-0_
 62
    7
 10
5438.8233215948276
 20
2242.6991104061431
 40
50
 41
1
 50
0
  1
２００
  0
TEXT
  8
_0-0_
 62
    7
 10
5871.8233215948276
 20
2242.6991104061431
 40
50
 41
1
 50
90
  1
～
  0
TEXT
  8
_0-0_
 62
    7
 10
6218.1969788213892
 20
2242.6991104061431
 40
50
 41
1
 50
90
  1
～
  0
TEXT
  8
_0-0_
 62
    7
 10
5746.8233215948276
 20
2157.6991104061431
 40
50
 41
1
 50
0
  1
１２５０
  0
TEXT
  8
_0-0_
 62
    7
 10
6093.1969788213892
 20
2157.6991104061431
 40
50
 41
1
 50
0
  1
２６４０
  0
LINE
  8
_0-0_
  6
CONTINUOUS
 62
    7
 10
3237.9901537712408
 20
1630.1991104061428
 11
6373.0706360479517
 21
1630.1991104061428
  0
LINE
  8
_0-0_
  6
CONTINUOUS
 62
    7
 10
3681.9901537712403
 20
2395.1991104061431
 11
6373.0706360479517
 21
2395.1991104061431
  0
TEXT
  8
_0-0_
 62
    7
 10
3234.9901537712408
 20
1860.1991104061428
 40
50
 41
1
 50
0
  1
１０００×１０００
  0
LINE
  8
_0-0_
  6
CONTINUOUS
 62
    7
 10
3681.9901537712403
 20
1885.1991104061428
 11
6373.0706360479517
 21
1885.1991104061428
  0
TEXT
  8
_0-0_
 62
    7
 10
3748.6567104646538
 20
1987.6991104061428
 40
50
 41
1
 50
0
  1
１０００
  0
TEXT
  8
_0-0_
 62
    7
 10
4081.8232349908894
 20
1987.6991104061428
 40
50
 41
1
 50
0
  1
１０００
  0
TEXT
  8
_0-0_
 62
    7
 10
4414.8232325164918
 20
1987.6991104061428
 40
50
 41
1
 50
0
  1
１３００
  0
TEXT
  8
_0-0_
 62
    7
 10
4747.8232919020493
 20
1987.6991104061428
 40
50
 41
1
 50
0
  1
１３００
  0
TEXT
  8
_0-0_
 62
    7
 10
5105.8233215948267
 20
1987.6991104061428
 40
50
 41
1
 50
0
  1
１５０
  0
TEXT
  8
_0-0_
 62
    7
 10
5438.8233215948276
 20
1987.6991104061428
 40
50
 41
1
 50
0
  1
１５０
  0
TEXT
  8
_0-0_
 62
    7
 10
5746.8233215948276
 20
2072.6991104061431
 40
50
 41
1
 50
0
  1
１０００
  0
TEXT
  8
_0-0_
 62
    7
 10
6093.1969788213892
 20
2072.6991104061431
 40
50
 41
1
 50
0
  1
１６５６
  0
TEXT
  8
_0-0_
 62
    7
 10
5871.8233215948276
 20
1987.6991104061428
 40
50
 41
1
 50
90
  1
～
  0
TEXT
  8
_0-0_
 62
    7
 10
6218.1969788213892
 20
1987.6991104061428
 40
50
 41
1
 50
90
  1
～
  0
TEXT
  8
_0-0_
 62
    7
 10
5746.8233215948276
 20
1902.6991104061428
 40
50
 41
1
 50
0
  1
１３００
  0
TEXT
  8
_0-0_
 62
    7
 10
6093.1969788213892
 20
1902.6991104061428
 40
50
 41
1
 50
0
  1
２１５３
  0
TEXT
  8
_0-0_
 62
    7
 10
3748.6567104646529
 20
1732.6991104061428
 40
50
 41
1
 50
0
  1
１０００
  0
TEXT
  8
_0-0_
 62
    7
 10
4081.8232349908894
 20
1732.6991104061428
 40
50
 41
1
 50
0
  1
１０００
  0
TEXT
  8
_0-0_
 62
    7
 10
4414.8232325164918
 20
1732.6991104061428
 40
50
 41
1
 50
0
  1
１４００
  0
TEXT
  8
_0-0_
 62
    7
 10
4747.8232919020493
 20
1732.6991104061428
 40
50
 41
1
 50
0
  1
１４００
  0
TEXT
  8
_0-0_
 62
    7
 10
5105.8233215948267
 20
1732.6991104061428
 40
50
 41
1
 50
0
  1
２００
  0
TEXT
  8
_0-0_
 62
    7
 10
5438.8233215948276
 20
1732.6991104061428
 40
50
 41
1
 50
0
  1
２００
  0
TEXT
  8
_0-0_
 62
    7
 10
5871.8233215948276
 20
1732.6991104061428
 40
50
 41
1
 50
90
  1
～
  0
TEXT
  8
_0-0_
 62
    7
 10
6218.1969788213892
 20
1732.6991104061428
 40
50
 41
1
 50
90
  1
～
  0
TEXT
  8
_0-0_
 62
    7
 10
5746.8233215948276
 20
1817.6991104061428
 40
50
 41
1
 50
0
  1
１０００
  0
TEXT
  8
_0-0_
 62
    7
 10
5746.8233215948276
 20
1647.6991104061428
 40
50
 41
1
 50
0
  1
１２５０
  0
TEXT
  8
_0-0_
 62
    7
 10
6093.1969788213892
 20
1817.6991104061428
 40
50
 41
1
 50
0
  1
２３０４
  0
TEXT
  8
_0-0_
 62
    7
 10
6093.1969788213892
 20
1647.6991104061428
 40
50
 41
1
 50
0
  1
２８８０
  0
LINE
  8
_0-0_
  6
CONTINUOUS
 62
    7
 10
3237.9901537712408
 20
4263.5323887528484
 11
3237.9901537712408
 21
1630.1991104061426
  0
LINE
  8
_0-0_
  6
CONTINUOUS
 62
    7
 10
4348.3232028237126
 20
4263.5323887528484
 11
4348.3232028237126
 21
1630.1991104061426
  0
LINE
  8
_0-0_
  6
CONTINUOUS
 62
    7
 10
4681.3232622092701
 20
4263.5323887528484
 11
4681.3232622092701
 21
1630.1991104061426
  0
LINE
  8
_0-0_
  6
CONTINUOUS
 62
    7
 10
5014.3233215948276
 20
4263.5323887528484
 11
5014.3233215948276
 21
1630.1991104061426
  0
LINE
  8
_0-0_
  6
CONTINUOUS
 62
    7
 10
5347.3233215948267
 20
4263.5323887528484
 11
5347.3233215948267
 21
1630.1991104061426
  0
LINE
  8
_0-0_
  6
CONTINUOUS
 62
    7
 10
5680.3233215948258
 20
4263.5323887528484
 11
5680.3233215948258
 21
1630.1991104061426
  0
LINE
  8
_0-0_
  6
CONTINUOUS
 62
    7
 10
6013.3233215948267
 20
1630.1991104061428
 11
6013.3233215948267
 21
4263.5323887528484
  0
LINE
  8
_0-0_
  6
CONTINUOUS
 62
    7
 10
5680.3233215948258
 20
4263.5323887528484
 11
5680.3233215948258
 21
1630.1991104061426
  0
TEXT
  8
_0-0_
 62
    7
 10
2055.0000412399704
 20
4324.9999829885128
 40
125
 41
1
 50
0
  1
角型桝
  0
LINE
  8
_0-0_
  6
CONTINUOUS
 62
    7
 10
4015.3232028237126
 20
4263.5323887528484
 11
4015.3232028237126
 21
1630.1991104061426
  0
LINE
  8
_0-0_
  6
CONTINUOUS
 62
    7
 10
3682.323202823713
 20
4263.5323887528484
 11
3682.323202823713
 21
1630.1991104061426
  0
LINE
  8
_0-0_
  6
CONTINUOUS
 62
    7
 10
6373.0706360479517
 20
1630.1991104061428
 11
6373.0706360479517
 21
4263.5323887528484
  0
LINE
  8
_0-0_
  6
CONTINUOUS
 62
    7
 10
3237.9901537712408
 20
4263.5323887528484
 11
6373.0706360479517
 21
4263.5323887528484
  0
LINE
  8
_0-0_
  6
CONTINUOUS
 62
    7
 10
3237.9901537712408
 20
4183.5323887528484
 11
6373.0706360479517
 21
4183.5323887528484
  0
TEXT
  8
_0-0_
 62
    7
 10
3773.6567104646538
 20
4027.6991104061426
 40
50
 41
1
 50
0
  1
４５０
  0
TEXT
  8
_0-0_
 62
    7
 10
3841.154464576432
 20
4192.3884410551818
 40
50
 41
1
 50
0
  1
B
  0
TEXT
  8
_0-0_
 62
    7
 10
4160.5116410588598
 20
4192.3884410551818
 40
50
 41
1
 50
0
  1
L
  0
TEXT
  8
_0-0_
 62
    7
 10
4484.1844550613205
 20
4188.0728035351494
 40
50
 41
1
 50
0
  1
B1
  0
TEXT
  8
_0-0_
 62
    7
 10
4807.8572690637811
 20
4196.7040785752142
 40
50
 41
1
 50
0
  1
L1
  0
TEXT
  8
_0-0_
 62
    7
 10
5153.1082706664056
 20
4192.3884410551818
 40
50
 41
1
 50
0
  1
B2
  0
TEXT
  8
_0-0_
 62
    7
 10
6019.882534190956
 20
4190.1069256783485
 40
50
 41
1
 50
0
  1
参考重量（㎏）
  0
TEXT
  8
_0-0_
 62
    7
 10
6076.0682863625934
 20
4273.0477979317184
 40
50
 41
1
 50
0
  1
（単位㎜）
  0
ENDSEC
  0
EOF
