  0
SECTION
  2
HEADER
  9
$ACADVER
  1
AC1009
  9
$INSBASE
 10
0
 20
0
 30
0
  9
$EXTMIN
 10
0
 20
0
  9
$EXTMAX
 10
5040
 20
3564
  9
$LIMMIN
 10
0
 20
0
  9
$LIMMAX
 10
5040
 20
3564
  9
$LTSCALE
 40
12
  0
ENDSEC
  0
SECTION
  2
TABLES
  0
TABLE
  2
LTYPE
 70
     9
  0
LTYPE
  2
CONTINUOUS
 70
    64
  3
実線
 72
    65
 73
     0
 40
0.0
  0
LTYPE
  2
DASHED1
 70
    64
  3
--  --  --  --  --  --  --  --  
 72
    65
 73
     2
 40
2.5
 49
1.25
 49
-1.25
  0
LTYPE
  2
DASHED2
 70
    64
  3
----    ----    ----    ----    
 72
    65
 73
     2
 40
5.0
 49
2.5
 49
-2.5
  0
LTYPE
  2
DASHED3
 70
    64
  3
------  ------  ------  ------  
 72
    65
 73
     2
 40
5.0
 49
3.75
 49
-1.25
  0
LTYPE
  2
CENTER1
 70
    64
  3
----- - ----- - ----- - ----- - 
 72
    65
 73
     4
 40
10.0
 49
6.25
 49
-1.25
 49
1.25
 49
-1.25
  0
LTYPE
  2
CENTER2
 70
    64
  3
----------  --  ----------  --  
 72
    65
 73
     4
 40
20.0
 49
12.5
 49
-2.5
 49
2.5
 49
-2.5
  0
LTYPE
  2
PHANTOM1
 70
    64
  3
--- - - --- - - --- - - --- - - 
 72
    65
 73
     6
 40
10.0
 49
3.25
 49
-1.25
 49
1.25
 49
-1.25
 49
1.25
 49
-1.25
  0
LTYPE
  2
PHANTOM2
 70
    64
  3
--------  -  -  --------  -  -  
 72
    65
 73
     6
 40
20.0
 49
10.0
 49
-2.5
 49
1.25
 49
-2.5
 49
1.25
 49
-2.5
  0
LTYPE
  2
DOT
 70
    64
  3
-   -   -   -   -   -   -   -   
 72
    65
 73
     2
 40
2.5
 49
0.625
 49
-1.875
  0
LTYPE
  2
DUMMY
 70
    64
  3
ダミー
 72
    65
 73
     0
 40
0.0
  0
LTYPE
  2
RAND1
 70
    64
  3
ランダム線1
 72
    65
 73
     4
 40
10.0
 49
1.0
 49
-2.0
 49
3.0
 49
-4.0
  0
LTYPE
  2
RAND2
 70
    64
  3
ランダム線2
 72
    65
 73
     4
 40
14.0
 49
2.0
 49
-3.0
 49
4.0
 49
-5.0
  0
LTYPE
  2
RAND3
 70
    64
  3
ランダム線3
 72
    65
 73
     4
 40
18.0
 49
3.0
 49
-4.0
 49
5.0
 49
-6.0
  0
LTYPE
  2
RAND4
 70
    64
  3
ランダム線4
 72
    65
 73
     4
 40
22.0
 49
4.0
 49
-5.0
 49
6.0
 49
-7.0
  0
LTYPE
  2
RAND5
 70
    64
  3
ランダム線5
 72
    65
 73
     4
 40
26.0
 49
5.0
 49
-6.0
 49
7.0
 49
-8.0
  0
LTYPE
  2
LONG1
 70
    64
  3
----------  --  ----------  --  
 72
    65
 73
     4
 40
40.0
 49
32.5
 49
-2.5
 49
2.5
 49
-2.5
  0
LTYPE
  2
LONG2
 70
    64
  3
--------  -  -  --------  -  -  
 72
    65
 73
     6
 40
40.0
 49
30.0
 49
-2.5
 49
1.25
 49
-2.5
 49
1.25
 49
-2.5
  0
LTYPE
  2
LONG3
 70
    64
  3
+++++++++++++++..+++++++++++++++
 72
    65
 73
     2
 40
40.0
 49
37.5
 49
-2.5
  0
LTYPE
  2
LONG4
 70
    64
  3
+++++++++++++++..+++++++++++++++
 72
    65
 73
     2
 40
80.0
 49
75.0
 49
-5.0
  0
LTYPE
  2
LONG5
 70
    64
  3
----------  --  ----------  --  
 72
    65
 73
     4
 40
60.0
 49
37.5
 49
-7.5
 49
7.5
 49
-7.5
  0
LTYPE
  2
dashed
 70
   64
  3
-------   -------------   ------
 72
   65
 73
    2
 40
7.5
 49
6
 49
-1.5
  0
LTYPE
  2
dashed_spaced
 70
   64
  3
----        --------        ----
 72
   65
 73
    2
 40
12
 49
6
 49
-6
  0
LTYPE
  2
long_dashed_dotted
 70
   64
  3
------------- --- --------------
 72
   65
 73
    4
 40
15.25
 49
12
 49
-1.5
 49
0.25
 49
-1.5
  0
LTYPE
  2
long_dashed_double-dotted
 70
   64
  3
----------- --- --- ------------
 72
   65
 73
    6
 40
17
 49
12
 49
-1.5
 49
0.25
 49
-1.5
 49
0.25
 49
-1.5
  0
LTYPE
  2
long_dashed_triplicate-dotted
 70
   64
  3
--------- --- --- --- ----------
 72
   65
 73
    8
 40
18.75
 49
12
 49
-1.5
 49
0.25
 49
-1.5
 49
0.25
 49
-1.5
 49
0.25
 49
-1.5
  0
LTYPE
  2
dotted
 70
   64
  3
   -       -       -       -    
 72
   65
 73
    2
 40
1.75
 49
0.25
 49
-1.5
  0
LTYPE
  2
chain
 70
   64
  3
-------------- -- --------------
 72
   65
 73
    4
 40
18.5
 49
12
 49
-1.5
 49
3.5
 49
-1.5
  0
LTYPE
  2
chain_double_dash
 70
   64
  3
------------ -- -- -------------
 72
   65
 73
    6
 40
23.5
 49
12
 49
-1.5
 49
3.5
 49
-1.5
 49
3.5
 49
-1.5
  0
LTYPE
  2
dashed_dotted
 70
   64
  3
-----------     -     ----------
 72
   65
 73
    4
 40
9.25
 49
6
 49
-1.5
 49
0.25
 49
-1.5
  0
LTYPE
  2
double-dashed_dotted
 70
   64
  3
------   -----------   -   -----
 72
   65
 73
    6
 40
16.75
 49
6
 49
-1.5
 49
6
 49
-1.5
 49
0.25
 49
-1.5
  0
LTYPE
  2
dashed_double-dotted
 70
   64
  3
---------    -    -    ---------
 72
   65
 73
    6
 40
11
 49
6
 49
-1.5
 49
0.25
 49
-1.5
 49
0.25
 49
-1.5
  0
LTYPE
  2
double-dashed_double-dotted
 70
   64
  3
-----   ---------   -   -   ----
 72
   65
 73
    8
 40
18.5
 49
6
 49
-1.5
 49
6
 49
-1.5
 49
0.25
 49
-1.5
 49
0.25
 49
-1.5
  0
LTYPE
  2
dashed_triplicate-dotted
 70
   64
  3
-------    -    -    -    ------
 72
   65
 73
    8
 40
12.75
 49
6
 49
-1.5
 49
0.25
 49
-1.5
 49
0.25
 49
-1.5
 49
0.25
 49
-1.5
  0
LTYPE
  2
double-dashed_triplicate-dotted
 70
   64
  3
-----  ---------  -  -  -  -----
 72
   65
 73
   10
 40
20.25
 49
6
 49
-1.5
 49
6
 49
-1.5
 49
0.25
 49
-1.5
 49
0.25
 49
-1.5
 49
0.25
 49
-1.5
  0
LTYPE
  2
undefined
 70
   64
  3
--------------------------------
 72
   65
 73
    0
 40
0
  0
ENDTAB
  0
TABLE
  2
STYLE
  5
3
100
AcDbSymbolTable
 70
     1
  0
STYLE
  5
10
100
AcDbSymbolTableRecord
100
AcDbTextStyleTableRecord
  2
STANDARD
 70
     0
 40
0.0
 41
1.0
 50
0.0
 71
     0
 42
0.2
  3
txt
  4
bigfont.shx
  0
STYLE
  5
26
100
AcDbSymbolTableRecord
100
AcDbTextStyleTableRecord
  2
TATEGAKI
 70
    68
 40
0.0
 41
1.0
 50
0.0
 71
     0
 42
1.0
  3
txt
  4
bigfont.shx
  0
ENDTAB
  0
TABLE
  2
LAYER
 70
    2
  0
LAYER
  2
_0-0_
 70
   64
 62
    7
  6
CONTINUOUS
  0
LAYER
  2
ADD_LINE
 70
   64
 62
    7
  6
CONTINUOUS
  0
ENDTAB
  0
ENDSEC
  0
SECTION
  2
BLOCKS
  0
ENDSEC
  0
SECTION
  2
ENTITIES
  0
LINE
  8
_0-0_
  6
CONTINUOUS
 62
    2
 10
1333.6146339210304
 20
1748.6062539590371
 11
1823.5594383445946
 21
1720.6062605574325
  0
LINE
  8
_0-0_
  6
CONTINUOUS
 62
    3
 10
871.9663795264994
 20
3048.1825709987334
 11
4233.4660380595442
 21
3048.1825709987334
  0
LINE
  8
_0-0_
  6
CONTINUOUS
 62
    3
 10
871.9663795264994
 20
682.68248686919344
 11
871.9663795264994
 21
3048.1825709987334
  0
LINE
  8
_0-0_
  6
CONTINUOUS
 62
    3
 10
4233.4660380595442
 20
3048.1825709987334
 11
4233.4660380595442
 21
682.68248686919344
  0
LINE
  8
_0-0_
  6
CONTINUOUS
 62
    3
 10
4233.4660380595442
 20
682.68248686919344
 11
871.9663795264994
 21
682.68248686919344
  0
LINE
  8
_0-0_
  6
CONTINUOUS
 62
    3
 10
4233.4660380595442
 20
807.182526459565
 11
871.96623106260563
 21
807.182526459565
  0
LINE
  8
_0-0_
  6
CONTINUOUS
 62
    3
 10
3386.8664220861488
 20
682.68248686919344
 11
3386.8664220861488
 21
807.182526459565
  0
LINE
  8
ADD_LINE
  6
DOT
 62
    4
 10
1333.5594053526183
 20
1858.6374478726775
 11
2033.5592403927367
 21
1858.6374478726775
  0
LINE
  8
_0-0_
  6
CONTINUOUS
 62
    4
 10
1333.5594053526183
 20
1806.8703151393581
 11
1483.5593063766892
 21
1806.8703151393581
  0
LINE
  8
_0-0_
  6
CONTINUOUS
 62
    4
 10
1333.5594053526183
 20
1806.8703151393581
 11
1333.5594053526183
 21
1756.7386606577281
  0
LINE
  8
_0-0_
  6
CONTINUOUS
 62
    4
 10
1483.5593063766892
 20
1806.8703151393581
 11
1483.5593063766892
 21
1756.7386606577281
  0
LINE
  8
_0-0_
  6
CONTINUOUS
 62
    4
 10
1483.5593063766892
 20
1806.8703151393581
 11
1783.5594053526183
 21
1806.8703151393581
  0
LINE
  8
_0-0_
  6
CONTINUOUS
 62
    4
 10
1783.5594053526183
 20
1806.8703151393581
 11
1783.5594053526183
 21
1756.7386606577281
  0
LINE
  8
_0-0_
  6
CONTINUOUS
 62
    4
 10
2033.5592403927367
 20
1806.8703151393581
 11
2033.5592403927367
 21
1756.7386606577281
  0
LINE
  8
_0-0_
  6
CONTINUOUS
 62
    4
 10
1333.5594053526183
 20
1858.9679284997892
 11
2033.5592403927367
 21
1858.9679284997892
  0
LINE
  8
_0-0_
  6
CONTINUOUS
 62
    4
 10
1333.5594053526183
 20
1858.9679284997892
 11
1333.5594053526183
 21
1787.210874815245
  0
LINE
  8
_0-0_
  6
CONTINUOUS
 62
    4
 10
2033.5592403927367
 20
1858.9679284997892
 11
2033.5592403927367
 21
1787.210874815245
  0
LINE
  8
_0-0_
  6
CONTINUOUS
 62
    2
 10
1333.5594053526183
 20
2068.6558079075166
 11
2033.5592403927367
 21
2068.6558079075166
  0
LINE
  8
_0-0_
  6
CONTINUOUS
 62
    2
 10
2033.5592403927367
 20
2068.6558079075166
 11
2033.5592403927367
 21
2768.6556429476354
  0
LINE
  8
_0-0_
  6
CONTINUOUS
 62
    4
 10
1333.5594053526183
 20
2850.0723514041388
 11
1333.5594053526183
 21
2778.473263302365
  0
LINE
  8
_0-0_
  6
CONTINUOUS
 62
    2
 10
1797.5594020534206
 20
2768.6556429476354
 11
1797.5594020534206
 21
2182.9675128008867
  0
LINE
  8
_0-0_
  6
CONTINUOUS
 62
    2
 10
1797.5594020534206
 20
2182.9675128008867
 11
1797.5594020534206
 21
2068.6558079075166
  0
LINE
  8
_0-0_
  6
DASHED1
 62
    7
 10
1783.5594053526183
 20
2618.6557419235642
 11
1483.5593063766892
 21
2618.6557419235642
  0
LINE
  8
_0-0_
  6
DASHED1
 62
    7
 10
1483.5593063766892
 20
2218.6557089315879
 11
1783.5594053526183
 21
2218.6557089315879
  0
LINE
  8
_0-0_
  6
CONTINUOUS
 62
    2
 10
1483.5593063766892
 20
2679.6556957347975
 11
1483.5593063766892
 21
2157.6556066564613
  0
LINE
  8
_0-0_
  6
CONTINUOUS
 62
    2
 10
1797.5594020534206
 20
2693.6555439717063
 11
1469.5593096758869
 21
2693.6555439717063
  0
LINE
  8
_0-0_
  6
CONTINUOUS
 62
    2
 10
1469.5593096758869
 20
2693.6555439717063
 11
1469.5593096758869
 21
2143.6557584195525
  0
LINE
  8
_0-0_
  6
CONTINUOUS
 62
    2
 10
1797.5594020534206
 20
2143.6557584195525
 11
1469.5593096758869
 21
2143.6557584195525
  0
LINE
  8
_0-0_
  6
CONTINUOUS
 62
    2
 10
1783.5594053526183
 20
2679.6556957347975
 11
1483.5593063766892
 21
2679.6556957347975
  0
LINE
  8
_0-0_
  6
CONTINUOUS
 62
    2
 10
1783.5594053526183
 20
2157.6556066564613
 11
1483.5593063766892
 21
2157.6556066564613
  0
LINE
  8
_0-0_
  6
CONTINUOUS
 62
    2
 10
1783.5594053526183
 20
2679.6556957347975
 11
1783.5594053526183
 21
2157.6556066564613
  0
LINE
  8
_0-0_
  6
CONTINUOUS
 62
    4
 10
1333.5594053526183
 20
2829.2188159839529
 11
1483.5593063766892
 21
2829.2188159839529
  0
LINE
  8
_0-0_
  6
CONTINUOUS
 62
    4
 10
1483.5593063766892
 20
2829.2188159839529
 11
1783.5594053526183
 21
2829.2188159839529
  0
LINE
  8
_0-0_
  6
CONTINUOUS
 62
    4
 10
1333.5594053526183
 20
2889.5203956397809
 11
2033.5592403927367
 21
2889.5203956397809
  0
LINE
  8
_0-0_
  6
CONTINUOUS
 62
    4
 10
1333.5594053526183
 20
2888.6557419235642
 11
1333.5594053526183
 21
2829.3461980046454
  0
LINE
  8
_0-0_
  6
CONTINUOUS
 62
    4
 10
2033.5592403927367
 20
2888.6557419235642
 11
2033.5592403927367
 21
2829.3461980046454
  0
LINE
  8
_0-0_
  6
CONTINUOUS
 62
    4
 10
1783.5594053526183
 20
2829.2188159839529
 11
1783.5594053526183
 21
2778.473263302365
  0
LINE
  8
_0-0_
  6
CONTINUOUS
 62
    4
 10
1483.5593063766892
 20
2829.2188159839529
 11
1483.5593063766892
 21
2778.473263302365
  0
LINE
  8
_0-0_
  6
CONTINUOUS
 62
    4
 10
1273.7559220597552
 20
2768.6556429476354
 11
1273.7559220597552
 21
2618.6557419235642
  0
LINE
  8
_0-0_
  6
CONTINUOUS
 62
    4
 10
1273.7559220597552
 20
2618.6557419235642
 11
1273.7559220597552
 21
2218.6557089315879
  0
LINE
  8
_0-0_
  6
CONTINUOUS
 62
    4
 10
1273.7559220597552
 20
2218.6557089315879
 11
1273.7559220597552
 21
2068.6558079075166
  0
LINE
  8
_0-0_
  6
CONTINUOUS
 62
    4
 10
1273.7559220597552
 20
2768.6556429476354
 11
1323.1779191300677
 21
2768.6556429476354
  0
LINE
  8
_0-0_
  6
CONTINUOUS
 62
    4
 10
1273.7559220597552
 20
2618.6557419235642
 11
1323.1779191300677
 21
2618.6557419235642
  0
LINE
  8
_0-0_
  6
CONTINUOUS
 62
    4
 10
1273.7559220597552
 20
2218.6557089315879
 11
1323.1779191300677
 21
2218.6557089315879
  0
LINE
  8
_0-0_
  6
CONTINUOUS
 62
    4
 10
1273.7559220597552
 20
2068.6558079075166
 11
1323.1779191300677
 21
2068.6558079075166
  0
LINE
  8
_0-0_
  6
CONTINUOUS
 62
    2
 10
1333.5594053526183
 20
2768.6556429476354
 11
1333.5594053526183
 21
2068.6558079075166
  0
LINE
  8
_0-0_
  6
CONTINUOUS
 62
    4
 10
3071.8732514252533
 20
1808.8006426836994
 11
3221.8731524493242
 21
1808.8006426836994
  0
LINE
  8
_0-0_
  6
CONTINUOUS
 62
    4
 10
3071.8732514252533
 20
1808.8006426836994
 11
3071.8732514252533
 21
1759.5259217958194
  0
LINE
  8
_0-0_
  6
CONTINUOUS
 62
    4
 10
3221.8731524493242
 20
1808.8006426836994
 11
3221.8731524493242
 21
1759.5259217958194
  0
LINE
  8
_0-0_
  6
CONTINUOUS
 62
    4
 10
3221.8731524493242
 20
1808.8006426836994
 11
3621.8728885135138
 21
1808.8006426836994
  0
LINE
  8
_0-0_
  6
CONTINUOUS
 62
    4
 10
3621.8728885135138
 20
1808.8006426836994
 11
3621.8728885135138
 21
1759.5259217958194
  0
LINE
  8
_0-0_
  6
CONTINUOUS
 62
    4
 10
3621.8728885135138
 20
1808.8006426836994
 11
3771.8730864653717
 21
1808.8006426836994
  0
LINE
  8
_0-0_
  6
CONTINUOUS
 62
    4
 10
3771.8730864653717
 20
1808.8006426836994
 11
3771.8730864653717
 21
1759.5259217958194
  0
LINE
  8
_0-0_
  6
CONTINUOUS
 62
    4
 10
3071.8732514252533
 20
1858.0755120354731
 11
3771.8730864653717
 21
1858.0755120354731
  0
LINE
  8
_0-0_
  6
CONTINUOUS
 62
    4
 10
3071.8732514252533
 20
1858.0755120354731
 11
3071.8732514252533
 21
1785.1108530405406
  0
LINE
  8
_0-0_
  6
CONTINUOUS
 62
    4
 10
3771.8730864653717
 20
1858.0755120354731
 11
3771.8730864653717
 21
1785.1108530405406
  0
LINE
  8
_0-0_
  6
CONTINUOUS
 62
    7
 10
3171.8728885135138
 20
1698.6373159047721
 11
3171.8728885135138
 21
1748.6374313766894
  0
LINE
  8
_0-0_
  6
CONTINUOUS
 62
    7
 10
3161.8732514252538
 20
1688.6373818887246
 11
3161.8732514252538
 21
1748.6374313766894
  0
LINE
  8
_0-0_
  6
CONTINUOUS
 62
    7
 10
3161.8732514252538
 20
1688.6373818887246
 11
3221.8731524493242
 21
1688.6373818887246
  0
LINE
  8
_0-0_
  6
CONTINUOUS
 62
    2
 10
3071.8732514252533
 20
1748.6374313766894
 11
3161.8732514252538
 21
1748.6374313766894
  0
LINE
  8
_0-0_
  6
CONTINUOUS
 62
    7
 10
3161.8732514252538
 20
1748.6374313766894
 11
3421.8730204814192
 21
1748.6374313766894
  0
LINE
  8
_0-0_
  6
CONTINUOUS
 62
    7
 10
3171.8728885135138
 20
1698.6373159047721
 11
3421.8730204814192
 21
1698.6373159047721
  0
LINE
  8
_0-0_
  6
CENTER2
 62
    4
 10
3421.8730204814192
 20
1723.6071612383869
 11
3176.0598672402875
 21
1698.6373159047721
  0
LINE
  8
_0-0_
  6
CENTER2
 62
    4
 10
3168.1577280405409
 20
1748.6374313766894
 11
3421.8730204814192
 21
1723.4944771431587
  0
LINE
  8
_0-0_
  6
CONTINUOUS
 62
    3
 10
1071.9663960224873
 20
682.68248686919344
 11
1071.9663960224873
 21
807.182526459565
  0
LINE
  8
_0-0_
  6
CONTINUOUS
 62
    3
 10
2080.0162650443413
 20
682.68248686919344
 11
2080.0162650443413
 21
807.182526459565
  0
LINE
  8
_0-0_
  6
CONTINUOUS
 62
    3
 10
1880.0163970122467
 20
682.68248686919344
 11
1880.0163970122467
 21
807.182526459565
  0
LINE
  8
_0-0_
  6
CONTINUOUS
 62
    3
 10
2380.0162155563767
 20
682.68248686919344
 11
2380.0162155563767
 21
807.182526459565
  0
LINE
  8
_0-0_
  6
CONTINUOUS
 62
    3
 10
2580.016232052365
 20
682.68248686919344
 11
2580.016232052365
 21
807.182526459565
  0
LINE
  8
_0-0_
  6
CONTINUOUS
 62
    3
 10
2780.0161000844596
 20
682.68248686919344
 11
2780.0161000844596
 21
807.182526459565
  0
LINE
  8
_0-0_
  6
CONTINUOUS
 62
    3
 10
3020.0162980363179
 20
682.68248686919344
 11
3020.0162980363179
 21
807.182526459565
  0
LINE
  8
_0-0_
  6
CONTINUOUS
 62
    7
 10
1783.5594053526183
 20
1806.8703151393581
 11
1823.5594383445946
 21
1806.8703151393581
  0
LINE
  8
_0-0_
  6
CONTINUOUS
 62
    4
 10
1783.5594053526183
 20
1806.8703151393581
 11
1783.5594053526183
 21
1756.7386606577281
  0
LINE
  8
_0-0_
  6
CONTINUOUS
 62
    4
 10
1823.5594383445946
 20
1806.8703151393581
 11
1823.5594383445946
 21
1756.7386606577281
  0
LINE
  8
_0-0_
  6
CONTINUOUS
 62
    7
 10
1823.5594383445946
 20
1806.8703151393581
 11
2033.5592403927367
 21
1806.8703151393581
  0
LINE
  8
_0-0_
  6
CONTINUOUS
 62
    4
 10
2033.5592403927367
 20
1806.8703151393581
 11
2033.5592403927367
 21
1756.7386606577281
  0
LINE
  8
_0-0_
  6
CONTINUOUS
 62
    2
 10
3071.8732514252533
 20
1516.4709307696369
 11
3071.8732514252533
 21
1748.6374313766894
  0
LINE
  8
_0-0_
  6
CONTINUOUS
 62
    7
 10
3221.8731524493242
 20
1527.5228799355996
 11
3221.8731524493242
 21
1698.6373159047721
  0
LINE
  8
_0-0_
  6
CENTER2
 62
    4
 10
3421.8730204814192
 20
1178.6374066327071
 11
3421.8730204814192
 21
1783.2721277185392
  0
LINE
  8
_0-0_
  6
CONTINUOUS
 62
    7
 10
3221.8731524493242
 20
1298.6374313766892
 11
3621.8728885135138
 21
1298.6374313766892
  0
LINE
  8
_0-0_
  6
CONTINUOUS
 62
    2
 10
3221.8731524493242
 20
1298.6374313766892
 11
3221.8731524493242
 21
1558.6373488967483
  0
LINE
  8
_0-0_
  6
CONTINUOUS
 62
    2
 10
3621.8728885135138
 20
1298.6374313766892
 11
3621.8728885135138
 21
1558.6373488967483
  0
LINE
  8
_0-0_
  6
CONTINUOUS
 62
    7
 10
1783.5594053526183
 20
2829.2188159839529
 11
2033.5592403927367
 21
2829.2188159839529
  0
LINE
  8
_0-0_
  6
CONTINUOUS
 62
    4
 10
1783.5594053526183
 20
2829.2188159839529
 11
1783.5594053526183
 21
2778.473263302365
  0
LINE
  8
_0-0_
  6
CONTINUOUS
 62
    4
 10
2033.5592403927367
 20
2829.2188159839529
 11
2033.5592403927367
 21
2778.473263302365
  0
LINE
  8
_0-0_
  6
CONTINUOUS
 62
    7
 10
1196.5693210911106
 20
2068.6558079075166
 11
1196.5693210911106
 21
2768.6556429476354
  0
LINE
  8
_0-0_
  6
CONTINUOUS
 62
    4
 10
1196.5693210911106
 20
2068.6558079075166
 11
1323.1779191300677
 21
2068.6558079075166
  0
LINE
  8
_0-0_
  6
CONTINUOUS
 62
    4
 10
1196.5693210911106
 20
2768.6556429476354
 11
1323.1779191300677
 21
2768.6556429476354
  0
LINE
  8
_0-0_
  6
DASHED3
 62
    7
 10
2033.5592403927367
 20
2543.6556429476354
 11
1797.5594020534206
 21
2518.6558079075166
  0
LINE
  8
_0-0_
  6
DASHED3
 62
    7
 10
1797.5594020534206
 20
2318.6557914115288
 11
2033.5592403927367
 21
2293.6556594436233
  0
LINE
  8
_0-0_
  6
CONTINUOUS
 62
    7
 10
2092.6971600506758
 20
2543.6556429476354
 11
2092.6971600506758
 21
2293.6556594436233
  0
LINE
  8
_0-0_
  6
CONTINUOUS
 62
    4
 10
2092.6971600506758
 20
2543.6556429476354
 11
2041.5834169130069
 21
2543.6556429476354
  0
LINE
  8
_0-0_
  6
CONTINUOUS
 62
    4
 10
2092.6971600506758
 20
2293.6556594436233
 11
2041.5834169130069
 21
2293.6556594436233
  0
LINE
  8
_0-0_
  6
CONTINUOUS
 62
    7
 10
2136.0575248099663
 20
2068.6558079075166
 11
2136.0575248099663
 21
2157.6556066564613
  0
LINE
  8
_0-0_
  6
CONTINUOUS
 62
    7
 10
2136.0575248099663
 20
2157.6556066564613
 11
2136.0575248099663
 21
2679.6556957347975
  0
LINE
  8
_0-0_
  6
CONTINUOUS
 62
    7
 10
2136.0575248099663
 20
2679.6556957347975
 11
2136.0575248099663
 21
2768.6556429476354
  0
LINE
  8
_0-0_
  6
CONTINUOUS
 62
    2
 10
2033.5592403927367
 20
2768.6556429476354
 11
1333.5594053526183
 21
2768.6556429476354
  0
LINE
  8
_0-0_
  6
CONTINUOUS
 62
    4
 10
2136.0575248099663
 20
2768.6556429476354
 11
2049.8665144636825
 21
2768.6556429476354
  0
LINE
  8
_0-0_
  6
CONTINUOUS
 62
    4
 10
2136.0575248099663
 20
2679.6556957347975
 11
2049.8665144636825
 21
2679.6556957347975
  0
LINE
  8
_0-0_
  6
CONTINUOUS
 62
    4
 10
2136.0575248099663
 20
2157.6556066564613
 11
2049.8665144636825
 21
2157.6556066564613
  0
LINE
  8
_0-0_
  6
CONTINUOUS
 62
    4
 10
2136.0575248099663
 20
2068.6558079075166
 11
2049.8665144636825
 21
2068.6558079075166
  0
LINE
  8
_0-0_
  6
CONTINUOUS
 62
    7
 10
3412.7623851879225
 20
1613.6372829127956
 11
3494.8332255595442
 21
1613.6372829127956
  0
LINE
  8
_0-0_
  6
CONTINUOUS
 62
    7
 10
3412.7623851879225
 20
1413.637414880701
 11
3494.8332255595442
 21
1413.637414880701
  0
LINE
  8
_0-0_
  6
CONTINUOUS
 62
    2
 10
1483.5593063766892
 20
1298.6374313766892
 11
1783.5594053526183
 21
1298.6374313766892
  0
LINE
  8
_0-0_
  6
CONTINUOUS
 62
    7
 10
1138.5186767578125
 20
1748.6062539590371
 11
1138.5186767578125
 21
1148.6373818887246
  0
LINE
  8
_0-0_
  6
CONTINUOUS
 62
    4
 10
1138.5186767578125
 20
1748.6062539590371
 11
1315.7193900443413
 21
1748.6062539590371
  0
LINE
  8
_0-0_
  6
CONTINUOUS
 62
    4
 10
1138.5186767578125
 20
1148.6373818887246
 11
1315.7193900443413
 21
1148.6373818887246
  0
LINE
  8
_0-0_
  6
CONTINUOUS
 62
    7
 10
1217.2686767578125
 20
1748.6062539590371
 11
1217.2686767578125
 21
1298.6374313766892
  0
LINE
  8
_0-0_
  6
CONTINUOUS
 62
    4
 10
1217.2686767578125
 20
1748.6062539590371
 11
1315.7193900443413
 21
1748.6062539590371
  0
LINE
  8
_0-0_
  6
CONTINUOUS
 62
    7
 10
1217.2686767578125
 20
1298.6374313766892
 11
1217.2686767578125
 21
1148.6373818887246
  0
LINE
  8
_0-0_
  6
CONTINUOUS
 62
    4
 10
1217.2686767578125
 20
1298.6374313766892
 11
1315.7193900443413
 21
1298.6374313766892
  0
LINE
  8
_0-0_
  6
CONTINUOUS
 62
    7
 10
1138.5186767578125
 20
1148.6373818887246
 11
1138.5186767578125
 21
1118.6061797270904
  0
LINE
  8
_0-0_
  6
CONTINUOUS
 62
    4
 10
1138.5186767578125
 20
1148.6373818887246
 11
1217.2686767578125
 21
1148.6373818887246
  0
LINE
  8
_0-0_
  6
CONTINUOUS
 62
    4
 10
1138.5186767578125
 20
1118.6061797270904
 11
1217.2686767578125
 21
1118.6061797270904
  0
LINE
  8
_0-0_
  6
CONTINUOUS
 62
    7
 10
1138.5186767578125
 20
1118.6061797270904
 11
1138.5186767578125
 21
968.60620447107272
  0
LINE
  8
_0-0_
  6
CONTINUOUS
 62
    4
 10
1138.5186767578125
 20
968.60620447107272
 11
1217.2686767578125
 21
968.60620447107272
  0
LINE
  8
_0-0_
  6
CONTINUOUS
 62
    7
 10
3621.8728885135138
 20
1506.9977466480154
 11
3621.8728885135138
 21
1676.6374907622467
  0
LINE
  8
_0-0_
  6
CONTINUOUS
 62
    2
 10
1469.5593096758869
 20
1740.8371384079394
 11
1469.5593096758869
 21
1690.7555162584458
  0
LINE
  8
_0-0_
  6
CONTINUOUS
 62
    2
 10
1797.5594020534206
 20
1722.0920872043919
 11
1797.5594020534206
 21
1672.0106135187921
  0
LINE
  8
_0-0_
  6
CONTINUOUS
 62
    2
 10
1483.5593063766892
 20
1689.9554443359375
 11
1483.5593063766892
 21
1298.6374313766892
  0
LINE
  8
_0-0_
  6
CONTINUOUS
 62
    2
 10
1783.5594053526183
 20
1672.8106854413006
 11
1783.5594053526183
 21
1298.6374313766892
  0
LINE
  8
_0-0_
  6
CONTINUOUS
 62
    2
 10
1469.5593096758869
 20
1690.7555162584458
 11
1797.5594020534206
 21
1672.0106135187921
  0
LINE
  8
_0-0_
  6
PHANTOM1
 62
    4
 10
1469.5593096758869
 20
1740.8371384079394
 11
1797.5594020534206
 21
1672.0106135187921
  0
LINE
  8
_0-0_
  6
PHANTOM1
 62
    4
 10
1797.5594020534206
 20
1722.0920872043919
 11
1469.5593096758869
 21
1690.7555162584458
  0
LINE
  8
_0-0_
  6
CONTINUOUS
 62
    2
 10
1823.5594383445946
 20
1650.6062770534206
 11
1823.5594383445946
 21
1720.6062605574325
  0
LINE
  8
_0-0_
  6
CONTINUOUS
 62
    2
 10
1853.5593888566304
 20
1620.6063265413854
 11
2033.5592403927367
 21
1620.6063265413854
  0
LINE
  8
_0-0_
  6
CONTINUOUS
 62
    7
 10
1783.5594053526183
 20
1595.6063430373733
 11
2033.5592403927367
 21
1620.6063265413854
  0
LINE
  8
_0-0_
  6
CONTINUOUS
 62
    7
 10
1691.4332539326438
 20
1595.6063430373733
 11
1691.4332539326438
 21
1395.6063265413852
  0
LINE
  8
_0-0_
  6
CONTINUOUS
 62
    4
 10
1691.4332539326438
 20
1595.6063430373733
 11
1719.2806264516471
 21
1595.6063430373733
  0
LINE
  8
_0-0_
  6
CONTINUOUS
 62
    4
 10
1691.4332539326438
 20
1395.6063265413852
 11
1719.2806264516471
 21
1395.6063265413852
  0
LINE
  8
_0-0_
  6
CONTINUOUS
 62
    7
 10
1783.5594053526183
 20
1595.6063430373733
 11
1663.5594548405829
 21
1595.6063430373733
  0
LINE
  8
_0-0_
  6
CONTINUOUS
 62
    7
 10
1783.5594053526183
 20
1395.6063265413852
 11
1663.5594548405829
 21
1395.6063265413852
  0
LINE
  8
_0-0_
  6
CONTINUOUS
 62
    7
 10
1783.5594053526183
 20
1395.6063265413852
 11
2033.5592403927367
 21
1372.317834802576
  0
LINE
  8
_0-0_
  6
CONTINUOUS
 62
    2
 10
1333.6146339210304
 20
1148.6062787030196
 11
2033.5592403927367
 21
1148.6062787030196
  0
LINE
  8
_0-0_
  6
CONTINUOUS
 62
    2
 10
1577.7206008498733
 20
1744.6721092430321
 11
1705.294733820735
 21
1737.3813443570525
  0
LINE
  8
_0-0_
  6
CONTINUOUS
 62
    2
 10
1705.294733820735
 20
1737.3813443570525
 11
1671.1095861486488
 21
1748.6677180109796
  0
LINE
  8
_0-0_
  6
CONTINUOUS
 62
    2
 10
2033.5592403927367
 20
1148.6062787030196
 11
1333.5594053526183
 21
1148.6062787030196
  0
LINE
  8
_0-0_
  6
CONTINUOUS
 62
    7
 10
1233.5593971046242
 20
1118.6061797270904
 11
1233.5593971046242
 21
968.60620447107272
  0
LINE
  8
_0-0_
  6
CONTINUOUS
 62
    7
 10
1273.5593558646538
 20
1148.6062787030196
 11
1273.5593558646538
 21
1118.6061797270904
  0
LINE
  8
_0-0_
  6
CONTINUOUS
 62
    2
 10
1233.5593971046242
 20
1118.6061797270904
 11
2133.5593228726775
 21
1118.6061797270904
  0
LINE
  8
_0-0_
  6
CONTINUOUS
 62
    7
 10
1333.5594053526183
 20
1148.6062787030196
 11
2033.5592403927367
 21
1148.6062787030196
  0
LINE
  8
_0-0_
  6
CONTINUOUS
 62
    7
 10
2133.5593228726775
 20
1118.6061797270904
 11
2133.5593228726775
 21
968.60620447107272
  0
LINE
  8
_0-0_
  6
CONTINUOUS
 62
    2
 10
1233.5593971046242
 20
968.60620447107272
 11
2133.5593228726775
 21
968.60620447107272
  0
LINE
  8
_0-0_
  6
CONTINUOUS
 62
    7
 10
2093.5594383445946
 20
1148.6062787030196
 11
2093.5594383445946
 21
1118.6061797270904
  0
LINE
  8
_0-0_
  6
CONTINUOUS
 62
    7
 10
1273.5593558646538
 20
1148.6062787030196
 11
2033.5592403927367
 21
1148.6062787030196
  0
LINE
  8
_0-0_
  6
CONTINUOUS
 62
    7
 10
1333.5594053526183
 20
1148.6062787030196
 11
2093.5594383445946
 21
1148.6062787030196
  0
LINE
  8
_0-0_
  6
CONTINUOUS
 62
    2
 10
1333.5594053526183
 20
1748.6374313766894
 11
1333.5594053526183
 21
1148.6062787030196
  0
LINE
  8
_0-0_
  6
CONTINUOUS
 62
    2
 10
2033.5592403927367
 20
1620.6063265413854
 11
2033.5592403927367
 21
1148.6062787030196
  0
LINE
  8
_0-0_
  6
CONTINUOUS
 62
    2
 10
3421.8730204814192
 20
1720.6374379750846
 11
3771.8730864653717
 21
1720.6374379750846
  0
LINE
  8
_0-0_
  6
CONTINUOUS
 62
    7
 10
3671.8731524493242
 20
1670.6374709670608
 11
3671.8731524493242
 21
1720.6374379750846
  0
LINE
  8
_0-0_
  6
CONTINUOUS
 62
    7
 10
3621.8728885135138
 20
1660.63738848712
 11
3681.8730864653717
 21
1660.63738848712
  0
LINE
  8
_0-0_
  6
CONTINUOUS
 62
    7
 10
3421.8730204814192
 20
1670.6374709670608
 11
3671.8731524493242
 21
1670.6374709670608
  0
LINE
  8
_0-0_
  6
CONTINUOUS
 62
    7
 10
3681.8730864653717
 20
1660.63738848712
 11
3681.8730864653717
 21
1720.6374379750846
  0
LINE
  8
_0-0_
  6
CONTINUOUS
 62
    7
 10
3421.8730204814192
 20
1720.6374379750846
 11
3681.8730864653717
 21
1720.6374379750846
  0
LINE
  8
_0-0_
  6
CENTER2
 62
    4
 10
3421.8730204814192
 20
1696.000300226985
 11
3671.5554397170613
 21
1670.6374709670608
  0
LINE
  8
_0-0_
  6
CENTER2
 62
    4
 10
3671.6225453969591
 20
1720.6374379750846
 11
3421.8730204814192
 21
1695.8874676678631
  0
LINE
  8
_0-0_
  6
CONTINUOUS
 62
    2
 10
3771.8730864653717
 20
1588.6372994087837
 11
3771.8730864653717
 21
1720.6374379750846
  0
LINE
  8
_0-0_
  6
CONTINUOUS
 62
    7
 10
3875.6472695840375
 20
1720.6374379750846
 11
3875.6472695840375
 21
1613.6372829127956
  0
LINE
  8
_0-0_
  6
CONTINUOUS
 62
    4
 10
3875.6472695840375
 20
1720.6374379750846
 11
3790.2600427576012
 21
1720.6374379750846
  0
LINE
  8
_0-0_
  6
CONTINUOUS
 62
    4
 10
3875.6472695840375
 20
1613.6372829127956
 11
3790.2600427576012
 21
1613.6372829127956
  0
LINE
  8
_0-0_
  6
CONTINUOUS
 62
    7
 10
3875.6472695840375
 20
1613.6372829127956
 11
3875.6472695840375
 21
1413.637414880701
  0
LINE
  8
_0-0_
  6
CONTINUOUS
 62
    4
 10
3875.6472695840375
 20
1413.637414880701
 11
3790.2600427576012
 21
1413.637414880701
  0
LINE
  8
_0-0_
  6
CONTINUOUS
 62
    7
 10
3875.6472695840375
 20
1413.637414880701
 11
3875.6472695840375
 21
1298.6374313766892
  0
LINE
  8
_0-0_
  6
CONTINUOUS
 62
    4
 10
3875.6472695840375
 20
1298.6374313766892
 11
3790.2600427576012
 21
1298.6374313766892
  0
LINE
  8
_0-0_
  6
CONTINUOUS
 62
    7
 10
3944.7699799408788
 20
1720.6374379750846
 11
3944.7699799408788
 21
1298.6374313766892
  0
LINE
  8
_0-0_
  6
CONTINUOUS
 62
    4
 10
3944.7699799408788
 20
1720.6374379750846
 11
3790.2600427576012
 21
1720.6374379750846
  0
LINE
  8
_0-0_
  6
CONTINUOUS
 62
    4
 10
3944.7699799408788
 20
1298.6374313766892
 11
3790.2600427576012
 21
1298.6374313766892
  0
LINE
  8
_0-0_
  6
CONTINUOUS
 62
    2
 10
3071.8732514252533
 20
1148.6374561206717
 11
3771.8730864653717
 21
1148.6374561206717
  0
LINE
  8
_0-0_
  6
CONTINUOUS
 62
    7
 10
3944.7699799408788
 20
1298.6374313766892
 11
3944.7699799408788
 21
1148.6374561206717
  0
LINE
  8
_0-0_
  6
CONTINUOUS
 62
    4
 10
3944.7699799408788
 20
1298.6374313766892
 11
3790.2600427576012
 21
1298.6374313766892
  0
LINE
  8
_0-0_
  6
CONTINUOUS
 62
    4
 10
3944.7699799408788
 20
1148.6374561206717
 11
3790.2600427576012
 21
1148.6374561206717
  0
LINE
  8
_0-0_
  6
CONTINUOUS
 62
    7
 10
3021.8729874894429
 20
1148.6374561206717
 11
3821.8730534733959
 21
1148.6374561206717
  0
LINE
  8
_0-0_
  6
CONTINUOUS
 62
    2
 10
2971.8730204814192
 20
968.63738188872469
 11
2971.8730204814192
 21
1118.6373571447425
  0
LINE
  8
_0-0_
  6
CONTINUOUS
 62
    2
 10
2971.8730204814192
 20
1118.6373571447425
 11
3871.8730204814192
 21
1118.6373571447425
  0
LINE
  8
_0-0_
  6
CONTINUOUS
 62
    2
 10
3021.8729874894429
 20
1148.6374561206717
 11
3821.8730534733959
 21
1148.6374561206717
  0
LINE
  8
_0-0_
  6
CONTINUOUS
 62
    2
 10
3821.8730534733959
 20
1118.6373571447425
 11
3821.8730534733959
 21
1148.6374561206717
  0
LINE
  8
_0-0_
  6
CONTINUOUS
 62
    2
 10
3021.8729874894429
 20
1118.6373571447425
 11
3021.8729874894429
 21
1148.6374561206717
  0
LINE
  8
_0-0_
  6
CONTINUOUS
 62
    2
 10
3871.8730204814192
 20
968.63738188872469
 11
3871.8730204814192
 21
1118.6373571447425
  0
LINE
  8
_0-0_
  6
CONTINUOUS
 62
    2
 10
2971.8730204814192
 20
968.63738188872469
 11
3871.8730204814192
 21
968.63738188872469
  0
LINE
  8
_0-0_
  6
CONTINUOUS
 62
    7
 10
2971.8730204814192
 20
923.49678658150344
 11
3871.8730204814192
 21
923.49678658150344
  0
LINE
  8
_0-0_
  6
CONTINUOUS
 62
    4
 10
2971.8730204814192
 20
923.49678658150344
 11
2971.8730204814192
 21
949.49140394056167
  0
LINE
  8
_0-0_
  6
CONTINUOUS
 62
    4
 10
3871.8730204814192
 20
923.49678658150344
 11
3871.8730204814192
 21
949.49140394056167
  0
LINE
  8
_0-0_
  6
CONTINUOUS
 62
    2
 10
3071.8732514252533
 20
1148.6374561206717
 11
3071.8732514252533
 21
1558.6373488967483
  0
LINE
  8
_0-0_
  6
CONTINUOUS
 62
    2
 10
3771.8730864653717
 20
1148.6374561206717
 11
3771.8730864653717
 21
1634.88543536212
  0
LINE
  8
_0-0_
  6
CONTINUOUS
 62
    7
 10
2836.8608464421454
 20
1748.6374313766894
 11
2836.8608464421454
 21
1148.6374561206717
  0
LINE
  8
_0-0_
  6
CONTINUOUS
 62
    4
 10
2836.8608464421454
 20
1748.6374313766894
 11
2997.3164656355575
 21
1748.6374313766894
  0
LINE
  8
_0-0_
  6
CONTINUOUS
 62
    4
 10
2836.8608464421454
 20
1148.6374561206717
 11
2997.3164656355575
 21
1148.6374561206717
  0
LINE
  8
_0-0_
  6
CONTINUOUS
 62
    7
 10
2923.5438661317567
 20
1748.6374313766894
 11
2923.5438661317567
 21
1298.6374313766892
  0
LINE
  8
_0-0_
  6
CONTINUOUS
 62
    4
 10
2923.5438661317567
 20
1748.6374313766894
 11
2997.3164656355575
 21
1748.6374313766894
  0
LINE
  8
_0-0_
  6
CONTINUOUS
 62
    4
 10
2923.5438661317567
 20
1298.6374313766892
 11
2997.3164656355575
 21
1298.6374313766892
  0
LINE
  8
_0-0_
  6
CONTINUOUS
 62
    7
 10
2923.5438661317567
 20
1298.6374313766892
 11
2923.5438661317567
 21
1148.6374561206717
  0
LINE
  8
_0-0_
  6
CONTINUOUS
 62
    4
 10
2923.5438661317567
 20
1148.6374561206717
 11
2997.3164656355575
 21
1148.6374561206717
  0
LINE
  8
_0-0_
  6
CONTINUOUS
 62
    7
 10
2836.8608464421454
 20
1148.6374561206717
 11
2836.8608464421454
 21
1118.6373571447425
  0
LINE
  8
_0-0_
  6
CONTINUOUS
 62
    4
 10
2836.8608464421454
 20
1148.6374561206717
 11
2997.3164656355575
 21
1148.6374561206717
  0
LINE
  8
_0-0_
  6
CONTINUOUS
 62
    4
 10
2836.8608464421454
 20
1118.6373571447425
 11
2997.3164656355575
 21
1118.6373571447425
  0
LINE
  8
_0-0_
  6
CONTINUOUS
 62
    7
 10
2836.8608464421454
 20
1118.6373571447425
 11
2836.8608464421454
 21
968.63738188872469
  0
LINE
  8
_0-0_
  6
CONTINUOUS
 62
    4
 10
2836.8608464421454
 20
968.63738188872469
 11
2997.3164656355575
 21
968.63738188872469
  0
LINE
  8
_0-0_
  6
CONTINUOUS
 62
    7
 10
2190.2458067198058
 20
1720.6062605574325
 11
2190.2458067198058
 21
1620.6063265413854
  0
LINE
  8
_0-0_
  6
CONTINUOUS
 62
    4
 10
2190.2458067198058
 20
1720.6062605574325
 11
2047.8710112700594
 21
1720.6062605574325
  0
LINE
  8
_0-0_
  6
CONTINUOUS
 62
    4
 10
2190.2458067198058
 20
1620.6063265413854
 11
2047.8710112700594
 21
1620.6063265413854
  0
LINE
  8
_0-0_
  6
CONTINUOUS
 62
    7
 10
2190.2458067198058
 20
1620.6063265413854
 11
2190.2458067198058
 21
1148.6062787030196
  0
LINE
  8
_0-0_
  6
CONTINUOUS
 62
    4
 10
2190.2458067198058
 20
1148.6062787030196
 11
2047.8710112700594
 21
1148.6062787030196
  0
ARC
  8
_0-0_
  6
CONTINUOUS
 62
    7
 10
3421.8730204814192
 20
1513.6373488967483
 40
99.999998969000742
 50
270
 51
90
  0
ARC
  8
_0-0_
  6
CONTINUOUS
 62
    2
 10
1853.5593888566304
 20
1650.6062770534206
 40
29.999999226750557
 50
180
 51
270
  0
TEXT
  8
_0-0_
 62
    7
 10
1385.5592502903294
 20
1806.8703151393581
 40
30
 41
0.8
 50
0
  1
150
  0
TEXT
  8
_0-0_
 62
    7
 10
1610.5593245222763
 20
1806.8703151393581
 40
30
 41
0.8
 50
0
  1
300
  0
TEXT
  8
_0-0_
 62
    7
 10
1660.5592915303
 20
1858.9679284997892
 40
30
 41
0.8
 50
0
  1
700
  0
TEXT
  8
_0-0_
 62
    7
 10
1385.5592502903294
 20
2829.2188159839529
 40
30
 41
0.8
 50
0
  1
150
  0
TEXT
  8
_0-0_
 62
    7
 10
1610.5593245222763
 20
2829.2188159839529
 40
30
 41
0.8
 50
0
  1
300
  0
TEXT
  8
_0-0_
 62
    7
 10
1660.5592915303
 20
2889.5203956397809
 40
30
 41
0.8
 50
0
  1
700
  0
TEXT
  8
_0-0_
 62
    7
 10
1273.7559229776944
 20
2670.6558837890625
 40
30
 41
0.8
 50
90.000002504478246
  1
150
  0
TEXT
  8
_0-0_
 62
    7
 10
1273.7559229776944
 20
2395.6556940851988
 40
30
 41
0.8
 50
90.000002504478246
  1
400
  0
TEXT
  8
_0-0_
 62
    7
 10
1273.7559229776944
 20
2120.6556528452284
 40
30
 41
0.8
 50
90.000002504478246
  1
150
  0
TEXT
  8
_0-0_
 62
    7
 10
3398.8730633709888
 20
1808.8006426836994
 40
30
 41
0.8
 50
0
  1
400
  0
TEXT
  8
_0-0_
 62
    7
 10
3673.8731788429059
 20
1808.8006426836994
 40
30
 41
0.8
 50
0
  1
150
  0
TEXT
  8
_0-0_
 62
    7
 10
3398.8730633709888
 20
1858.0755120354731
 40
30
 41
0.8
 50
0
  1
700
  0
TEXT
  8
_0-0_
 62
    2
 10
3533.6430215371629
 20
711.171965727935
 40
48
 41
0.8
 50
0
  1
岩城ブロック工業株式会社
  0
TEXT
  8
_0-0_
 62
    2
 10
915.74120301942548
 20
723.48207216005062
 40
48
 41
0.8
 50
0
  1
名　称
  0
TEXT
  8
_0-0_
 62
    2
 10
1921.5815581450593
 20
718.38820173933709
 40
48
 41
0.8
 50
0
  1
分　類
  0
TEXT
  8
_0-0_
 62
    2
 10
2423.4177265888939
 20
718.38820173933709
 40
48
 41
0.8
 50
0
  1
図　番
  0
TEXT
  8
_0-0_
 62
    2
 10
2807.7607217324748
 20
721.61595524968334
 40
48
 41
0.8
 50
0
  1
参考重量
  0
TEXT
  8
_0-0_
 62
    2
 10
3117.0894188133448
 20
714.76122881915126
 40
48
 41
0.8
 50
0
  1
526Ｋｇ
  0
TEXT
  8
_0-0_
 62
    7
 10
1786.159423828125
 20
1806.8703151393581
 40
30
 41
0.8
 50
0
  1
40
  0
TEXT
  8
_0-0_
 62
    7
 10
1900.9593027475719
 20
1806.8703151393581
 40
30
 41
0.8
 50
0
  1
210
  0
TEXT
  8
_0-0_
 62
    7
 10
1880.9592862515838
 20
2829.2188159839529
 40
30
 41
0.8
 50
0
  1
250
  0
TEXT
  8
_0-0_
 62
    7
 10
2136.0575254000696
 20
2706.755671320735
 40
30
 41
0.8
 50
90.000002504478203
  1
90
  0
TEXT
  8
_0-0_
 62
    7
 10
2092.697161558719
 20
2391.0556591137038
 40
30
 41
0.8
 50
90.000002504478189
  1
250φ
  0
TEXT
  8
_0-0_
 62
    7
 10
2136.0575257279052
 20
2391.0556888064825
 40
30
 41
0.8
 50
90.000002504478189
  1
520
  0
TEXT
  8
_0-0_
 62
    7
 10
2136.0575254000696
 20
2095.7557092615079
 40
30
 41
0.8
 50
90.000002504478203
  1
90
  0
TEXT
  8
_0-0_
 62
    7
 10
1196.5693220090498
 20
2391.0556888064825
 40
30
 41
0.8
 50
90.000002504478246
  1
700
  0
TEXT
  8
_0-0_
 62
    7
 10
1217.2686776757516
 20
1496.0218060467696
 40
30
 41
0.8
 50
90.000002504478246
  1
450
  0
TEXT
  8
_0-0_
 62
    7
 10
1138.5186776757516
 20
1421.0218555347342
 40
30
 41
0.8
 50
90.000002504478246
  1
600
  0
TEXT
  8
_0-0_
 62
    7
 10
1217.2686776757516
 20
1196.0373700116131
 40
30
 41
0.8
 50
90.000002504478246
  1
150
  0
TEXT
  8
_0-0_
 62
    7
 10
1138.5186773479163
 20
1116.221782787426
 40
30
 41
0.8
 50
90.000002504478104
  1
30
  0
TEXT
  8
_0-0_
 62
    7
 10
1138.5186776757516
 20
1016.0061925939613
 40
30
 41
0.8
 50
90.000002504478246
  1
150
  0
TEXT
  8
_0-0_
 62
    7
 10
1614.4096564215581
 20
1739.1646926467483
 40
30
 41
0.8
 50
0
  1
6％
  0
TEXT
  8
_0-0_
 62
    7
 10
1691.4332554406865
 20
1468.0063427074535
 40
30
 41
0.8
 50
90.000002504478189
  1
200φ
  0
TEXT
  8
_0-0_
 62
    7
 10
1536.1614643818625
 20
1117.9481135187923
 40
30
 41
0.8
 50
0
  1
敷　モ　ル　タ　ル
  0
TEXT
  8
_0-0_
 62
    7
 10
1559.16149572424
 20
1025.7366695919554
 40
30
 41
0.8
 50
0
  1
切込砕石　0～80
  0
TEXT
  8
_0-0_
 62
    7
 10
3271.0475018475508
 20
1118.6352044182854
 40
30
 41
0.8
 50
0
  1
敷　モ　ル　タ　ル
  0
TEXT
  8
_0-0_
 62
    7
 10
3297.1649037953975
 20
1025.1268541490708
 40
30
 41
0.8
 50
0
  1
切込砕石　0～80
  0
TEXT
  8
_0-0_
 62
    7
 10
3394.2730580922725
 20
923.49678658150344
 40
30
 41
0.8
 50
0
  1
900
  0
TEXT
  8
_0-0_
 62
    7
 10
2836.8608473600843
 20
1421.03744424356
 40
30
 41
0.8
 50
90.000002504478189
  1
600
  0
TEXT
  8
_0-0_
 62
    7
 10
2923.543867049696
 20
1496.0373947555956
 40
30
 41
0.8
 50
90.000002504478118
  1
450
  0
TEXT
  8
_0-0_
 62
    7
 10
2923.543867049696
 20
1196.03744424356
 40
30
 41
0.8
 50
90.000002504478118
  1
150
  0
TEXT
  8
_0-0_
 62
    7
 10
2836.8608470322492
 20
1116.2373714962523
 40
30
 41
0.8
 50
90.000002504478203
  1
30
  0
TEXT
  8
_0-0_
 62
    7
 10
2836.8608473600843
 20
1016.0373700116131
 40
30
 41
0.8
 50
90.000002504478189
  1
150
  0
TEXT
  8
_0-0_
 62
    7
 10
3944.7699808588177
 20
1196.03744424356
 40
30
 41
0.8
 50
90.000002504478246
  1
150
  0
TEXT
  8
_0-0_
 62
    7
 10
3875.6472705019769
 20
1328.5374607395481
 40
30
 41
0.8
 50
90.000002504478246
  1
115
  0
TEXT
  8
_0-0_
 62
    7
 10
3872.7115461259755
 20
1456.3975846574115
 40
30
 41
0.8
 50
90.000002504478203
  1
Φ200
  0
TEXT
  8
_0-0_
 62
    7
 10
3875.6472705019769
 20
1639.5373980547931
 40
30
 41
0.8
 50
90.000002504478246
  1
107
  0
TEXT
  8
_0-0_
 62
    7
 10
3944.7699808588177
 20
1482.0373980547931
 40
30
 41
0.8
 50
90.000002504478246
  1
422
  0
TEXT
  8
_0-0_
 62
    7
 10
3123.8732448268584
 20
1808.8006426836994
 40
30
 41
0.8
 50
0
  1
150
  0
TEXT
  8
_0-0_
 62
    7
 10
2190.2458076377452
 20
1643.0062569283155
 40
30
 41
0.8
 50
90.000002504478189
  1
100
  0
TEXT
  8
_0-0_
 62
    7
 10
2190.2458076377452
 20
1357.0063031170819
 40
30
 41
0.8
 50
90.000002504478189
  1
472
  0
TEXT
  8
_0-0_
 62
    2
 10
1199.2709729993667
 20
716.50998502164282
 40
48
 41
0.8
 50
0
  1
Ⅱ‐Ｈ‐ｂ‐７００（6％）
  0
POINT
  8
_0-0_
 62
    4
 10
1783.5594053526183
 20
2829.2188159839529
  0
POINT
  8
_0-0_
 62
    4
 10
1333.5594053526183
 20
1806.8703151393581
  0
POINT
  8
_0-0_
 62
    4
 10
1483.5593063766892
 20
1806.8703151393581
  0
POINT
  8
_0-0_
 62
    4
 10
1783.5594053526183
 20
1806.8703151393581
  0
POINT
  8
_0-0_
 62
    4
 10
2033.5592403927367
 20
1806.8703151393581
  0
POINT
  8
_0-0_
 62
    4
 10
1333.5594053526183
 20
1858.9679284997892
  0
POINT
  8
_0-0_
 62
    4
 10
2033.5592403927367
 20
1858.9679284997892
  0
POINT
  8
_0-0_
 62
    4
 10
1333.5594053526183
 20
2829.2188159839529
  0
POINT
  8
_0-0_
 62
    4
 10
1483.5593063766892
 20
2829.2188159839529
  0
POINT
  8
_0-0_
 62
    4
 10
1333.5594053526183
 20
2889.5203956397809
  0
POINT
  8
_0-0_
 62
    4
 10
2033.5592403927367
 20
2889.5203956397809
  0
POINT
  8
_0-0_
 62
    4
 10
1273.7559220597552
 20
2768.6556429476354
  0
POINT
  8
_0-0_
 62
    4
 10
1273.7559220597552
 20
2618.6557419235642
  0
POINT
  8
_0-0_
 62
    4
 10
1273.7559220597552
 20
2218.6557089315879
  0
POINT
  8
_0-0_
 62
    4
 10
1273.7559220597552
 20
2068.6558079075166
  0
POINT
  8
_0-0_
 62
    4
 10
3071.8732514252533
 20
1808.8006426836994
  0
POINT
  8
_0-0_
 62
    4
 10
3221.8731524493242
 20
1808.8006426836994
  0
POINT
  8
_0-0_
 62
    4
 10
3621.8728885135138
 20
1808.8006426836994
  0
POINT
  8
_0-0_
 62
    4
 10
3771.8730864653717
 20
1808.8006426836994
  0
POINT
  8
_0-0_
 62
    4
 10
3071.8732514252533
 20
1858.0755120354731
  0
POINT
  8
_0-0_
 62
    4
 10
3771.8730864653717
 20
1858.0755120354731
  0
POINT
  8
_0-0_
 62
    2
 10
1783.5594053526183
 20
1806.8703151393581
  0
POINT
  8
_0-0_
 62
    2
 10
1823.5594383445946
 20
1806.8703151393581
  0
POINT
  8
_0-0_
 62
    2
 10
2033.5592403927367
 20
1806.8703151393581
  0
POINT
  8
_0-0_
 62
    2
 10
1783.5594053526183
 20
2829.2188159839529
  0
POINT
  8
_0-0_
 62
    2
 10
2033.5592403927367
 20
2829.2188159839529
  0
POINT
  8
_0-0_
 62
    2
 10
1196.5693210911106
 20
2068.6558079075166
  0
POINT
  8
_0-0_
 62
    2
 10
1196.5693210911106
 20
2768.6556429476354
  0
POINT
  8
_0-0_
 62
    2
 10
2092.6971600506758
 20
2543.6556429476354
  0
POINT
  8
_0-0_
 62
    2
 10
2092.6971600506758
 20
2293.6556594436233
  0
POINT
  8
_0-0_
 62
    2
 10
2136.0575248099663
 20
2068.6558079075166
  0
POINT
  8
_0-0_
 62
    2
 10
2136.0575248099663
 20
2157.6556066564613
  0
POINT
  8
_0-0_
 62
    2
 10
2136.0575248099663
 20
2679.6556957347975
  0
POINT
  8
_0-0_
 62
    2
 10
2136.0575248099663
 20
2768.6556429476354
  0
POINT
  8
_0-0_
 62
    2
 10
1138.5186767578125
 20
1748.6062539590371
  0
POINT
  8
_0-0_
 62
    2
 10
1138.5186767578125
 20
1148.6373818887246
  0
POINT
  8
_0-0_
 62
    2
 10
1217.2686767578125
 20
1748.6062539590371
  0
POINT
  8
_0-0_
 62
    2
 10
1217.2686767578125
 20
1298.6374313766892
  0
POINT
  8
_0-0_
 62
    2
 10
1217.2686767578125
 20
1148.6373818887246
  0
POINT
  8
_0-0_
 62
    2
 10
1138.5186767578125
 20
1148.6373818887246
  0
POINT
  8
_0-0_
 62
    2
 10
1138.5186767578125
 20
1118.6061797270904
  0
POINT
  8
_0-0_
 62
    2
 10
1138.5186767578125
 20
968.60620447107272
  0
POINT
  8
_0-0_
 62
    2
 10
1691.4332539326438
 20
1595.6063430373733
  0
POINT
  8
_0-0_
 62
    2
 10
1691.4332539326438
 20
1395.6063265413852
  0
POINT
  8
_0-0_
 62
    2
 10
3875.6472695840375
 20
1720.6374379750846
  0
POINT
  8
_0-0_
 62
    2
 10
3875.6472695840375
 20
1613.6372829127956
  0
POINT
  8
_0-0_
 62
    2
 10
3875.6472695840375
 20
1413.637414880701
  0
POINT
  8
_0-0_
 62
    2
 10
3875.6472695840375
 20
1298.6374313766892
  0
POINT
  8
_0-0_
 62
    2
 10
3944.7699799408788
 20
1720.6374379750846
  0
POINT
  8
_0-0_
 62
    2
 10
3944.7699799408788
 20
1298.6374313766892
  0
POINT
  8
_0-0_
 62
    2
 10
3944.7699799408788
 20
1298.6374313766892
  0
POINT
  8
_0-0_
 62
    2
 10
3944.7699799408788
 20
1148.6374561206717
  0
POINT
  8
_0-0_
 62
    2
 10
2971.8730204814192
 20
923.49678658150344
  0
POINT
  8
_0-0_
 62
    2
 10
3871.8730204814192
 20
923.49678658150344
  0
POINT
  8
_0-0_
 62
    2
 10
2836.8608464421454
 20
1748.6374313766894
  0
POINT
  8
_0-0_
 62
    2
 10
2836.8608464421454
 20
1148.6374561206717
  0
POINT
  8
_0-0_
 62
    2
 10
2923.5438661317567
 20
1748.6374313766894
  0
POINT
  8
_0-0_
 62
    2
 10
2923.5438661317567
 20
1298.6374313766892
  0
POINT
  8
_0-0_
 62
    2
 10
2923.5438661317567
 20
1148.6374561206717
  0
POINT
  8
_0-0_
 62
    2
 10
2836.8608464421454
 20
1148.6374561206717
  0
POINT
  8
_0-0_
 62
    2
 10
2836.8608464421454
 20
1118.6373571447425
  0
POINT
  8
_0-0_
 62
    2
 10
2836.8608464421454
 20
968.63738188872469
  0
POINT
  8
_0-0_
 62
    2
 10
2190.2458067198058
 20
1720.6062605574325
  0
POINT
  8
_0-0_
 62
    2
 10
2190.2458067198058
 20
1620.6063265413854
  0
POINT
  8
_0-0_
 62
    2
 10
2190.2458067198058
 20
1148.6062787030196
  0
ENDSEC
  0
EOF
