  0
SECTION
  2
HEADER
  9
$ACADVER
  1
AC1009
  9
$INSBASE
 10
0
 20
0
 30
0
  9
$EXTMIN
 10
0
 20
0
  9
$EXTMAX
 10
4200
 20
2970
  9
$LIMMIN
 10
0
 20
0
  9
$LIMMAX
 10
4200
 20
2970
  9
$LTSCALE
 40
10
  0
ENDSEC
  0
SECTION
  2
TABLES
  0
TABLE
  2
LTYPE
 70
     9
  0
LTYPE
  2
CONTINUOUS
 70
    64
  3
実線
 72
    65
 73
     0
 40
0.0
  0
LTYPE
  2
DASHED1
 70
    64
  3
--  --  --  --  --  --  --  --  
 72
    65
 73
     2
 40
2.5
 49
1.25
 49
-1.25
  0
LTYPE
  2
DASHED2
 70
    64
  3
----    ----    ----    ----    
 72
    65
 73
     2
 40
5.0
 49
2.5
 49
-2.5
  0
LTYPE
  2
DASHED3
 70
    64
  3
------  ------  ------  ------  
 72
    65
 73
     2
 40
5.0
 49
3.75
 49
-1.25
  0
LTYPE
  2
CENTER1
 70
    64
  3
----- - ----- - ----- - ----- - 
 72
    65
 73
     4
 40
10.0
 49
6.25
 49
-1.25
 49
1.25
 49
-1.25
  0
LTYPE
  2
CENTER2
 70
    64
  3
----------  --  ----------  --  
 72
    65
 73
     4
 40
20.0
 49
12.5
 49
-2.5
 49
2.5
 49
-2.5
  0
LTYPE
  2
PHANTOM1
 70
    64
  3
--- - - --- - - --- - - --- - - 
 72
    65
 73
     6
 40
10.0
 49
3.25
 49
-1.25
 49
1.25
 49
-1.25
 49
1.25
 49
-1.25
  0
LTYPE
  2
PHANTOM2
 70
    64
  3
--------  -  -  --------  -  -  
 72
    65
 73
     6
 40
20.0
 49
10.0
 49
-2.5
 49
1.25
 49
-2.5
 49
1.25
 49
-2.5
  0
LTYPE
  2
DOT
 70
    64
  3
-   -   -   -   -   -   -   -   
 72
    65
 73
     2
 40
2.5
 49
0.625
 49
-1.875
  0
LTYPE
  2
DUMMY
 70
    64
  3
ダミー
 72
    65
 73
     0
 40
0.0
  0
LTYPE
  2
RAND1
 70
    64
  3
ランダム線1
 72
    65
 73
     4
 40
10.0
 49
1.0
 49
-2.0
 49
3.0
 49
-4.0
  0
LTYPE
  2
RAND2
 70
    64
  3
ランダム線2
 72
    65
 73
     4
 40
14.0
 49
2.0
 49
-3.0
 49
4.0
 49
-5.0
  0
LTYPE
  2
RAND3
 70
    64
  3
ランダム線3
 72
    65
 73
     4
 40
18.0
 49
3.0
 49
-4.0
 49
5.0
 49
-6.0
  0
LTYPE
  2
RAND4
 70
    64
  3
ランダム線4
 72
    65
 73
     4
 40
22.0
 49
4.0
 49
-5.0
 49
6.0
 49
-7.0
  0
LTYPE
  2
RAND5
 70
    64
  3
ランダム線5
 72
    65
 73
     4
 40
26.0
 49
5.0
 49
-6.0
 49
7.0
 49
-8.0
  0
LTYPE
  2
LONG1
 70
    64
  3
----------  --  ----------  --  
 72
    65
 73
     4
 40
40.0
 49
32.5
 49
-2.5
 49
2.5
 49
-2.5
  0
LTYPE
  2
LONG2
 70
    64
  3
--------  -  -  --------  -  -  
 72
    65
 73
     6
 40
40.0
 49
30.0
 49
-2.5
 49
1.25
 49
-2.5
 49
1.25
 49
-2.5
  0
LTYPE
  2
LONG3
 70
    64
  3
+++++++++++++++..+++++++++++++++
 72
    65
 73
     2
 40
40.0
 49
37.5
 49
-2.5
  0
LTYPE
  2
LONG4
 70
    64
  3
+++++++++++++++..+++++++++++++++
 72
    65
 73
     2
 40
80.0
 49
75.0
 49
-5.0
  0
LTYPE
  2
LONG5
 70
    64
  3
----------  --  ----------  --  
 72
    65
 73
     4
 40
60.0
 49
37.5
 49
-7.5
 49
7.5
 49
-7.5
  0
LTYPE
  2
dashed
 70
   64
  3
-------   -------------   ------
 72
   65
 73
    2
 40
7.5
 49
6
 49
-1.5
  0
LTYPE
  2
dashed_spaced
 70
   64
  3
----        --------        ----
 72
   65
 73
    2
 40
12
 49
6
 49
-6
  0
LTYPE
  2
long_dashed_dotted
 70
   64
  3
------------- --- --------------
 72
   65
 73
    4
 40
15.25
 49
12
 49
-1.5
 49
0.25
 49
-1.5
  0
LTYPE
  2
long_dashed_double-dotted
 70
   64
  3
----------- --- --- ------------
 72
   65
 73
    6
 40
17
 49
12
 49
-1.5
 49
0.25
 49
-1.5
 49
0.25
 49
-1.5
  0
LTYPE
  2
long_dashed_triplicate-dotted
 70
   64
  3
--------- --- --- --- ----------
 72
   65
 73
    8
 40
18.75
 49
12
 49
-1.5
 49
0.25
 49
-1.5
 49
0.25
 49
-1.5
 49
0.25
 49
-1.5
  0
LTYPE
  2
dotted
 70
   64
  3
   -       -       -       -    
 72
   65
 73
    2
 40
1.75
 49
0.25
 49
-1.5
  0
LTYPE
  2
chain
 70
   64
  3
-------------- -- --------------
 72
   65
 73
    4
 40
18.5
 49
12
 49
-1.5
 49
3.5
 49
-1.5
  0
LTYPE
  2
chain_double_dash
 70
   64
  3
------------ -- -- -------------
 72
   65
 73
    6
 40
23.5
 49
12
 49
-1.5
 49
3.5
 49
-1.5
 49
3.5
 49
-1.5
  0
LTYPE
  2
dashed_dotted
 70
   64
  3
-----------     -     ----------
 72
   65
 73
    4
 40
9.25
 49
6
 49
-1.5
 49
0.25
 49
-1.5
  0
LTYPE
  2
double-dashed_dotted
 70
   64
  3
------   -----------   -   -----
 72
   65
 73
    6
 40
16.75
 49
6
 49
-1.5
 49
6
 49
-1.5
 49
0.25
 49
-1.5
  0
LTYPE
  2
dashed_double-dotted
 70
   64
  3
---------    -    -    ---------
 72
   65
 73
    6
 40
11
 49
6
 49
-1.5
 49
0.25
 49
-1.5
 49
0.25
 49
-1.5
  0
LTYPE
  2
double-dashed_double-dotted
 70
   64
  3
-----   ---------   -   -   ----
 72
   65
 73
    8
 40
18.5
 49
6
 49
-1.5
 49
6
 49
-1.5
 49
0.25
 49
-1.5
 49
0.25
 49
-1.5
  0
LTYPE
  2
dashed_triplicate-dotted
 70
   64
  3
-------    -    -    -    ------
 72
   65
 73
    8
 40
12.75
 49
6
 49
-1.5
 49
0.25
 49
-1.5
 49
0.25
 49
-1.5
 49
0.25
 49
-1.5
  0
LTYPE
  2
double-dashed_triplicate-dotted
 70
   64
  3
-----  ---------  -  -  -  -----
 72
   65
 73
   10
 40
20.25
 49
6
 49
-1.5
 49
6
 49
-1.5
 49
0.25
 49
-1.5
 49
0.25
 49
-1.5
 49
0.25
 49
-1.5
  0
LTYPE
  2
undefined
 70
   64
  3
--------------------------------
 72
   65
 73
    0
 40
0
  0
ENDTAB
  0
TABLE
  2
STYLE
  5
3
100
AcDbSymbolTable
 70
     1
  0
STYLE
  5
10
100
AcDbSymbolTableRecord
100
AcDbTextStyleTableRecord
  2
STANDARD
 70
     0
 40
0.0
 41
1.0
 50
0.0
 71
     0
 42
0.2
  3
txt
  4
bigfont.shx
  0
STYLE
  5
26
100
AcDbSymbolTableRecord
100
AcDbTextStyleTableRecord
  2
TATEGAKI
 70
    68
 40
0.0
 41
1.0
 50
0.0
 71
     0
 42
1.0
  3
txt
  4
bigfont.shx
  0
ENDTAB
  0
TABLE
  2
LAYER
 70
    2
  0
LAYER
  2
_0-0_
 70
   64
 62
    7
  6
CONTINUOUS
  0
LAYER
  2
ADD_LINE
 70
   64
 62
    7
  6
CONTINUOUS
  0
ENDTAB
  0
ENDSEC
  0
SECTION
  2
BLOCKS
  0
ENDSEC
  0
SECTION
  2
ENTITIES
  0
TEXT
  8
_0-0_
 62
    7
 10
379.39057015083932
 20
601.00176012193833
 40
40
 41
1
 50
0
  1
名　称
  0
TEXT
  8
_0-0_
 62
    7
 10
1801.7125103924727
 20
601.00169826198282
 40
40
 41
1
 50
0
  1
参考重量
  0
TEXT
  8
_0-0_
 62
    7
 10
1347.909038646801
 20
601.00169826198282
 40
40
 41
1
 50
0
  1
分　類
  0
TEXT
  8
_0-0_
 62
    7
 10
1498.1289848739293
 20
1606.2499381400446
 40
30
 41
1
 50
90.000002504478147
  1
370
  0
TEXT
  8
_0-0_
 62
    7
 10
1497.4428342457622
 20
1221.9828219027133
 40
30
 41
1
 50
90.000002504478147
  1
120
  0
TEXT
  8
_0-0_
 62
    7
 10
1601.593596030496
 20
1481.2500206199854
 40
30
 41
1
 50
90.000002504478147
  1
620
  0
TEXT
  8
_0-0_
 62
    7
 10
975.43922630516272
 20
1886.9577768686656
 40
30
 41
1
 50
0
  1
410
  0
TEXT
  8
_0-0_
 62
    7
 10
975.43922630516272
 20
1942.1806541649073
 40
30
 41
1
 50
0
  1
500
  0
TEXT
  8
_0-0_
 62
    7
 10
975.43922630516272
 20
1992.1439505912165
 40
30
 41
1
 50
0
  1
740
  0
TEXT
  8
_0-0_
 62
    7
 10
1446.1919836095863
 20
1876.1481207770271
 40
30
 41
1
 50
0
  1
縞 鋼 板 蓋
  0
TEXT
  8
_0-0_
 62
    7
 10
1987.0605056350296
 20
1915.8213847392315
 40
30
 41
1
 50
0
  1
120
  0
TEXT
  8
_0-0_
 62
    7
 10
2607.0610664986275
 20
1915.8213847392315
 40
30
 41
1
 50
0
  1
120
  0
TEXT
  8
_0-0_
 62
    7
 10
2785.9422849293555
 20
1731.3852052430852
 40
30
 41
1
 50
90.000002504478147
  1
120
  0
TEXT
  8
_0-0_
 62
    7
 10
2785.9422849293555
 20
1111.3851392591323
 40
30
 41
1
 50
90.000002504478147
  1
120
  0
TEXT
  8
_0-0_
 62
    7
 10
2297.0610335066513
 20
1915.8213847392315
 40
30
 41
1
 50
0
  1
410
  0
TEXT
  8
_0-0_
 62
    7
 10
2297.0610335066513
 20
1983.4098197318415
 40
30
 41
1
 50
0
  1
740
  0
TEXT
  8
_0-0_
 62
    7
 10
2869.433924762548
 20
1421.3851722511085
 40
30
 41
1
 50
90.000002504478147
  1
740
  0
TEXT
  8
_0-0_
 62
    7
 10
2754.8613759633654
 20
1850.7325868348817
 40
30
 41
1
 50
0
  1
ナットM14
  0
TEXT
  8
_0-0_
 62
    7
 10
740.52116394042969
 20
601.00176012193833
 40
40
 41
1
 50
0
  1
法　　面　　桝 
  0
TEXT
  8
_0-0_
 62
    7
 10
2061.8109996898756
 20
602.32079995645063
 40
40
 41
1
 50
0
  1
401kg
  0
TEXT
  8
_0-0_
 62
    7
 10
2785.9422849293555
 20
1421.3851722511085
 40
30
 41
1
 50
90.000002499999923
  1
410
  0
TEXT
  8
_0-0_
 62
    7
 10
2786.3227507944148
 20
1191.4990180259435
 40
30
 41
1
 50
90
  1
45
  0
TEXT
  8
_0-0_
 62
    7
 10
2786.4514533643905
 20
1647.4543697533943
 40
30
 41
1
 50
90
  1
45
  0
TEXT
  8
_0-0_
 62
    7
 10
2067.5242660582358
 20
1915.5533254509285
 40
30
 41
1
 50
0
  1
45
  0
TEXT
  8
_0-0_
 62
    7
 10
2519.7575196634598
 20
1912.9482951882255
 40
30
 41
1
 50
0
  1
45
  0
TEXT
  8
_0-0_
 62
    7
 10
819.18915825921147
 20
2118.64854967272
 40
50
 41
1
 50
0
  1
断  面  図
  0
TEXT
  8
_0-0_
 62
    7
 10
2132.7027027027025
 20
2142.9728739970442
 40
50
 41
1
 50
0
  1
正  面  図
  0
LINE
  8
_0-0_
  6
CONTINUOUS
 62
    7
 10
333.5132495777026
 20
579.72985344964115
 11
333.5132495777026
 21
2539.7302576013517
  0
LINE
  8
_0-0_
  6
CONTINUOUS
 62
    7
 10
333.5132495777026
 20
2539.7302576013517
 11
3129.7297297297296
 21
2539.7302576013517
  0
LINE
  8
_0-0_
  6
CONTINUOUS
 62
    7
 10
3129.7297297297296
 20
2539.7302576013517
 11
3129.7297297297296
 21
579.72985344964115
  0
LINE
  8
_0-0_
  6
CONTINUOUS
 62
    7
 10
3129.7297297297296
 20
679.72987406962625
 11
333.5132495777026
 21
679.72987406962625
  0
LINE
  8
_0-0_
  6
CONTINUOUS
 62
    7
 10
3129.7297297297296
 20
579.72985344964115
 11
333.5132495777026
 21
579.72985344964115
  0
LINE
  8
_0-0_
  6
CONTINUOUS
 62
    7
 10
555.20188615128802
 20
680.64274143528291
 11
555.20188615128802
 21
581.4671284443624
  0
LINE
  8
_0-0_
  6
CONTINUOUS
 62
    7
 10
1508.6936744483742
 20
680.64274143528291
 11
1508.6936744483742
 21
579.96448826145479
  0
LINE
  8
_0-0_
  6
CONTINUOUS
 62
    7
 10
619.18920568517728
 20
1189.9999670080238
 11
619.18920568517728
 21
1810.0000329919767
  0
LINE
  8
_0-0_
  6
CONTINUOUS
 62
    7
 10
619.18920568517728
 20
1810.0000329919767
 11
1359.189172693201
 21
1810.0000329919767
  0
LINE
  8
_0-0_
  6
CONTINUOUS
 62
    7
 10
1359.189172693201
 20
1810.0000329919767
 11
1359.189172693201
 21
1189.9999670080238
  0
LINE
  8
_0-0_
  6
CONTINUOUS
 62
    7
 10
1359.189172693201
 20
1189.9999670080238
 11
619.18920568517728
 21
1189.9999670080238
  0
LINE
  8
_0-0_
  6
CONTINUOUS
 62
    7
 10
1239.1891479492187
 20
1309.9999917520061
 11
739.18923042915958
 21
1309.9999917520061
  0
LINE
  8
_0-0_
  6
CONTINUOUS
 62
    7
 10
1239.1891479492187
 20
1309.9999917520061
 11
1239.1891479492187
 21
1810.0000329919767
  0
LINE
  8
_0-0_
  6
CONTINUOUS
 62
    7
 10
739.18923042915958
 20
1309.9999917520061
 11
739.18923042915958
 21
1810.0000329919767
  0
LINE
  8
_0-0_
  6
CONTINUOUS
 62
    7
 10
619.18920568517728
 20
1440.0000494879646
 11
739.18923042915958
 21
1440.0000494879646
  0
LINE
  8
_0-0_
  6
CONTINUOUS
 62
    7
 10
1239.1891479492187
 20
1440.0000494879646
 11
1359.189172693201
 21
1440.0000494879646
  0
LINE
  8
_0-0_
  6
CONTINUOUS
 62
    7
 10
784.18925517314187
 20
1440.0000494879646
 11
1194.1891232052367
 21
1440.0000494879646
  0
LINE
  8
_0-0_
  6
CONTINUOUS
 62
    7
 10
784.18925517314187
 20
1440.0000494879646
 11
784.18925517314187
 21
1810.0000329919767
  0
LINE
  8
_0-0_
  6
CONTINUOUS
 62
    7
 10
1194.1891232052367
 20
1440.0000494879646
 11
1194.1891232052367
 21
1810.0000329919767
  0
LINE
  8
_0-0_
  6
CONTINUOUS
 62
    7
 10
1503.1290002771325
 20
1189.9999670080238
 11
1503.1290002771325
 21
1309.9999917520061
  0
LINE
  8
_0-0_
  6
CONTINUOUS
 62
    7
 10
1379.6390842747044
 20
1189.9999670080238
 11
1503.1290002771325
 21
1189.9999670080238
  0
LINE
  8
_0-0_
  6
CONTINUOUS
 62
    7
 10
1379.6390842747044
 20
1309.9999917520061
 11
1503.1290002771325
 21
1309.9999917520061
  0
LINE
  8
_0-0_
  6
CONTINUOUS
 62
    7
 10
1503.1290002771325
 20
1440.0000494879646
 11
1503.1290002771325
 21
1810.0000329919767
  0
LINE
  8
_0-0_
  6
CONTINUOUS
 62
    7
 10
1379.6390842747044
 20
1440.0000494879646
 11
1503.1290002771325
 21
1440.0000494879646
  0
LINE
  8
_0-0_
  6
CONTINUOUS
 62
    7
 10
1379.6390842747044
 20
1810.0000329919767
 11
1503.1290002771325
 21
1810.0000329919767
  0
LINE
  8
_0-0_
  6
CONTINUOUS
 62
    7
 10
1606.5936114336996
 20
1189.9999670080238
 11
1606.5936114336996
 21
1810.0000329919767
  0
LINE
  8
_0-0_
  6
CONTINUOUS
 62
    7
 10
1379.6390842747044
 20
1189.9999670080238
 11
1606.5936114336996
 21
1189.9999670080238
  0
LINE
  8
_0-0_
  6
CONTINUOUS
 62
    7
 10
1379.6390842747044
 20
1810.0000329919767
 11
1606.5936114336996
 21
1810.0000329919767
  0
LINE
  8
_0-0_
  6
CONTINUOUS
 62
    7
 10
686.18922877956095
 20
1770.0001484638938
 11
686.18922877956095
 21
1810.0000329919767
  0
LINE
  8
_0-0_
  6
CONTINUOUS
 62
    7
 10
672.18920733477603
 20
1770.0001484638938
 11
672.18920733477603
 21
1810.0000329919767
  0
LINE
  8
_0-0_
  6
CONTINUOUS
 62
    7
 10
1292.189273318729
 20
1770.0001484638938
 11
1292.189273318729
 21
1810.0000329919767
  0
LINE
  8
_0-0_
  6
CONTINUOUS
 62
    7
 10
1306.1891710436023
 20
1770.0001484638938
 11
1306.1891710436023
 21
1810.0000329919767
  0
LINE
  8
_0-0_
  6
CONTINUOUS
 62
    7
 10
672.18920733477603
 20
1770.0001484638938
 11
686.18922877956095
 21
1770.0001484638938
  0
LINE
  8
_0-0_
  6
CONTINUOUS
 62
    7
 10
1292.189273318729
 20
1770.0001484638938
 11
1306.1891710436023
 21
1770.0001484638938
  0
LINE
  8
_0-0_
  6
CONTINUOUS
 62
    7
 10
784.18925517314187
 20
1881.9577603726773
 11
1194.1891232052367
 21
1881.9577603726773
  0
LINE
  8
_0-0_
  6
CONTINUOUS
 62
    7
 10
784.18925517314187
 20
1821.475549646326
 11
784.18925517314187
 21
1881.9577603726773
  0
LINE
  8
_0-0_
  6
CONTINUOUS
 62
    7
 10
1194.1891232052367
 20
1821.475549646326
 11
1194.1891232052367
 21
1881.9577603726773
  0
LINE
  8
_0-0_
  6
CONTINUOUS
 62
    7
 10
739.18923042915958
 20
1937.180637668919
 11
1239.1891479492187
 21
1937.180637668919
  0
LINE
  8
_0-0_
  6
CONTINUOUS
 62
    7
 10
739.18923042915958
 20
1818.8460066511825
 11
739.18923042915958
 21
1937.180637668919
  0
LINE
  8
_0-0_
  6
CONTINUOUS
 62
    7
 10
1239.1891479492187
 20
1818.8460066511825
 11
1239.1891479492187
 21
1937.180637668919
  0
LINE
  8
_0-0_
  6
CONTINUOUS
 62
    7
 10
619.18920568517728
 20
1987.1439340952281
 11
1359.189172693201
 21
1987.1439340952281
  0
LINE
  8
_0-0_
  6
CONTINUOUS
 62
    7
 10
619.18920568517728
 20
1821.475549646326
 11
619.18920568517728
 21
1987.1439340952281
  0
LINE
  8
_0-0_
  6
CONTINUOUS
 62
    7
 10
1359.189172693201
 20
1821.475549646326
 11
1359.189172693201
 21
1987.1439340952281
  0
LINE
  8
_0-0_
  6
CONTINUOUS
 62
    7
 10
1429.0087725665121
 20
1869.5991309913429
 11
1640.5042493665542
 21
1869.5991309913429
  0
LINE
  8
_0-0_
  6
CONTINUOUS
 62
    7
 10
1328.0508505331504
 20
1810.5279458535686
 11
1429.0087725665121
 21
1869.5991309913429
  0
LINE
  8
_0-0_
  6
CONTINUOUS
 62
    7
 10
1328.0508505331504
 20
1810.5279458535686
 11
1349.1407652158996
 21
1831.8638157200169
  0
LINE
  8
_0-0_
  6
CONTINUOUS
 62
    7
 10
1940.810827306799
 20
1065.1351516311233
 11
1940.810827306799
 21
1805.1351186391471
  0
LINE
  8
_0-0_
  6
CONTINUOUS
 62
    7
 10
1940.810827306799
 20
1805.1351186391471
 11
2680.8107943148229
 21
1805.1351186391471
  0
LINE
  8
_0-0_
  6
CONTINUOUS
 62
    7
 10
2680.8107943148229
 20
1805.1351186391471
 11
2680.8107943148229
 21
1065.1351516311233
  0
LINE
  8
_0-0_
  6
CONTINUOUS
 62
    7
 10
2680.8107943148229
 20
1065.1351516311233
 11
1940.810827306799
 21
1065.1351516311233
  0
LINE
  8
_0-0_
  6
CONTINUOUS
 62
    7
 10
2060.81072833087
 20
1685.1350938951648
 11
2560.8108932907517
 21
1685.1350938951648
  0
LINE
  8
_0-0_
  6
CONTINUOUS
 62
    7
 10
2560.8108932907517
 20
1685.1350938951648
 11
2560.8108932907517
 21
1185.1351763751056
  0
LINE
  8
_0-0_
  6
CONTINUOUS
 62
    7
 10
2560.8108932907517
 20
1185.1351763751056
 11
2060.81072833087
 21
1185.1351763751056
  0
LINE
  8
_0-0_
  6
CONTINUOUS
 62
    7
 10
2060.81072833087
 20
1185.1351763751056
 11
2060.81072833087
 21
1685.1350938951648
  0
LINE
  8
_0-0_
  6
CONTINUOUS
 62
    7
 10
1940.810827306799
 20
1640.1350691511825
 11
2060.81072833087
 21
1640.1350691511825
  0
LINE
  8
_0-0_
  6
CONTINUOUS
 62
    7
 10
2560.8108932907517
 20
1640.1350691511825
 11
2680.8107943148229
 21
1640.1350691511825
  0
LINE
  8
_0-0_
  6
CONTINUOUS
 62
    7
 10
2105.8108767947633
 20
1685.1350938951648
 11
2105.8108767947633
 21
1805.1351186391471
  0
LINE
  8
_0-0_
  6
CONTINUOUS
 62
    7
 10
2515.8107448268584
 20
1685.1350938951648
 11
2515.8107448268584
 21
1805.1351186391471
  0
LINE
  8
_0-0_
  6
CONTINUOUS
 62
    7
 10
2515.8107448268584
 20
1065.1351516311233
 11
2515.8107448268584
 21
1185.1351763751056
  0
LINE
  8
_0-0_
  6
CONTINUOUS
 62
    7
 10
2105.8108767947633
 20
1065.1351516311233
 11
2105.8108767947633
 21
1185.1351763751056
  0
LINE
  8
_0-0_
  6
CONTINUOUS
 62
    7
 10
2560.8108932907517
 20
1230.1352011190879
 11
2680.8107943148229
 21
1230.1352011190879
  0
LINE
  8
_0-0_
  6
CONTINUOUS
 62
    7
 10
1940.810827306799
 20
1230.1352011190879
 11
2060.81072833087
 21
1230.1352011190879
  0
LINE
  8
_0-0_
  6
CONTINUOUS
 62
    7
 10
1940.810827306799
 20
1910.8213682432433
 11
2060.81072833087
 21
1910.8213682432433
  0
LINE
  8
_0-0_
  6
CONTINUOUS
 62
    7
 10
1940.810827306799
 20
1823.3539890598606
 11
1940.810827306799
 21
1910.8213682432433
  0
LINE
  8
_0-0_
  6
CONTINUOUS
 62
    7
 10
2060.81072833087
 20
1823.3539890598606
 11
2060.81072833087
 21
1910.8213682432433
  0
LINE
  8
_0-0_
  6
CONTINUOUS
 62
    7
 10
2105.8108767947633
 20
1910.8213682432433
 11
2515.8107448268584
 21
1910.8213682432433
  0
LINE
  8
_0-0_
  6
CONTINUOUS
 62
    7
 10
2105.8108767947633
 20
1823.3539890598606
 11
2105.8108767947633
 21
1910.8213682432433
  0
LINE
  8
_0-0_
  6
CONTINUOUS
 62
    7
 10
2515.8107448268584
 20
1823.3539890598606
 11
2515.8107448268584
 21
1910.8213682432433
  0
LINE
  8
_0-0_
  6
CONTINUOUS
 62
    7
 10
2560.8108932907517
 20
1910.8213682432433
 11
2680.8107943148229
 21
1910.8213682432433
  0
LINE
  8
_0-0_
  6
CONTINUOUS
 62
    7
 10
2560.8108932907517
 20
1823.3539890598606
 11
2560.8108932907517
 21
1910.8213682432433
  0
LINE
  8
_0-0_
  6
CONTINUOUS
 62
    7
 10
2680.8107943148229
 20
1823.3539890598606
 11
2680.8107943148229
 21
1910.8213682432433
  0
LINE
  8
_0-0_
  6
CONTINUOUS
 62
    7
 10
1940.810827306799
 20
1978.4098032358531
 11
2680.8107943148229
 21
1978.4098032358531
  0
LINE
  8
_0-0_
  6
CONTINUOUS
 62
    7
 10
1940.810827306799
 20
1823.3539890598606
 11
1940.810827306799
 21
1978.4098032358531
  0
LINE
  8
_0-0_
  6
CONTINUOUS
 62
    7
 10
2680.8107943148229
 20
1823.3539890598606
 11
2680.8107943148229
 21
1978.4098032358531
  0
LINE
  8
_0-0_
  6
CONTINUOUS
 62
    7
 10
2790.9423003325592
 20
1065.1351516311233
 11
2790.9423003325592
 21
1185.1351763751056
  0
LINE
  8
_0-0_
  6
CONTINUOUS
 62
    7
 10
2699.4991817989867
 20
1065.1351516311233
 11
2790.9423003325592
 21
1065.1351516311233
  0
LINE
  8
_0-0_
  6
CONTINUOUS
 62
    7
 10
2699.4991817989867
 20
1185.1351763751056
 11
2790.9423003325592
 21
1185.1351763751056
  0
LINE
  8
_0-0_
  6
CONTINUOUS
 62
    7
 10
2790.9423003325592
 20
1230.1352011190879
 11
2790.9423003325592
 21
1640.1350691511825
  0
LINE
  8
_0-0_
  6
CONTINUOUS
 62
    7
 10
2699.4991817989867
 20
1230.1352011190879
 11
2790.9423003325592
 21
1230.1352011190879
  0
LINE
  8
_0-0_
  6
CONTINUOUS
 62
    7
 10
2699.4991817989867
 20
1640.1350691511825
 11
2790.9423003325592
 21
1640.1350691511825
  0
LINE
  8
_0-0_
  6
CONTINUOUS
 62
    7
 10
2790.9423003325592
 20
1685.1350938951648
 11
2790.9423003325592
 21
1805.1351186391471
  0
LINE
  8
_0-0_
  6
CONTINUOUS
 62
    7
 10
2699.4991817989867
 20
1685.1350938951648
 11
2790.9423003325592
 21
1685.1350938951648
  0
LINE
  8
_0-0_
  6
CONTINUOUS
 62
    7
 10
2699.4991817989867
 20
1805.1351186391471
 11
2790.9423003325592
 21
1805.1351186391471
  0
LINE
  8
_0-0_
  6
CONTINUOUS
 62
    7
 10
2874.4339401657521
 20
1065.1351516311233
 11
2874.4339401657521
 21
1805.1351186391471
  0
LINE
  8
_0-0_
  6
CONTINUOUS
 62
    7
 10
2707.4506604993667
 20
1065.1351516311233
 11
2874.4339401657521
 21
1065.1351516311233
  0
LINE
  8
_0-0_
  6
CONTINUOUS
 62
    7
 10
2707.4506604993667
 20
1805.1351186391471
 11
2874.4339401657521
 21
1805.1351186391471
  0
LINE
  8
_0-0_
  6
CONTINUOUS
 62
    7
 10
1319.3582895639781
 20
679.72987406962625
 11
1319.3582895639781
 21
578.4618480785474
  0
LINE
  8
_0-0_
  6
CONTINUOUS
 62
    7
 10
1773.1619345175254
 20
679.72987406962625
 11
1773.1619345175254
 21
581.4671284443624
  0
LINE
  8
_0-0_
  6
CONTINUOUS
 62
    7
 10
2012.0851258973817
 20
679.72987406962625
 11
2012.0851258973817
 21
579.96448826145479
  0
LINE
  8
_0-0_
  6
CONTINUOUS
 62
    7
 10
2223.9601753853462
 20
679.72987406962625
 11
2223.9601753853462
 21
581.4671284443624
  0
LINE
  8
_0-0_
  6
CONTINUOUS
 62
    7
 10
2630.0994873046875
 20
1756.6700703388938
 11
2727.264404296875
 21
1845.9030563766894
  0
LINE
  8
_0-0_
  6
CONTINUOUS
 62
    7
 10
2727.264404296875
 20
1845.9030563766894
 11
2927.5431864970442
 21
1845.9030563766894
  0
LINE
  8
_0-0_
  6
CONTINUOUS
 62
    7
 10
2630.0994873046875
 20
1756.6700703388938
 11
2646.1904989706504
 21
1781.9895976298565
  0
CIRCLE
  8
_0-0_
  6
CONTINUOUS
 62
    7
 10
2620.0049323004646
 20
1124.9732764991554
 40
14.809562386693182
  0
CIRCLE
  8
_0-0_
  6
CONTINUOUS
 62
    7
 10
2621.1869523331925
 20
1745.4873987146329
 40
14.183126913534629
  0
CIRCLE
  8
_0-0_
  6
CONTINUOUS
 62
    7
 10
2000.6727063978042
 20
1745.4873987146329
 40
14.378795752654206
  0
CIRCLE
  8
_0-0_
  6
CONTINUOUS
 62
    7
 10
2000.6727063978042
 20
1126.1551728119721
 40
14.183126913534629
  0
POINT
  8
_0-0_
 62
    7
 10
1503.1290002771325
 20
1189.9999670080238
  0
POINT
  8
_0-0_
 62
    7
 10
1503.1290002771325
 20
1309.9999917520061
  0
POINT
  8
_0-0_
 62
    7
 10
1503.1290002771325
 20
1440.0000494879646
  0
POINT
  8
_0-0_
 62
    7
 10
1503.1290002771325
 20
1810.0000329919767
  0
POINT
  8
_0-0_
 62
    7
 10
1606.5936114336996
 20
1189.9999670080238
  0
POINT
  8
_0-0_
 62
    7
 10
1606.5936114336996
 20
1810.0000329919767
  0
POINT
  8
_0-0_
 62
    7
 10
784.18925517314187
 20
1881.9577603726773
  0
POINT
  8
_0-0_
 62
    7
 10
1194.1891232052367
 20
1881.9577603726773
  0
POINT
  8
_0-0_
 62
    7
 10
739.18923042915958
 20
1937.180637668919
  0
POINT
  8
_0-0_
 62
    7
 10
1239.1891479492187
 20
1937.180637668919
  0
POINT
  8
_0-0_
 62
    7
 10
619.18920568517728
 20
1987.1439340952281
  0
POINT
  8
_0-0_
 62
    7
 10
1359.189172693201
 20
1987.1439340952281
  0
POINT
  8
_0-0_
 62
    7
 10
1940.810827306799
 20
1910.8213682432433
  0
POINT
  8
_0-0_
 62
    7
 10
2060.81072833087
 20
1910.8213682432433
  0
POINT
  8
_0-0_
 62
    7
 10
2105.8108767947633
 20
1910.8213682432433
  0
POINT
  8
_0-0_
 62
    7
 10
2515.8107448268584
 20
1910.8213682432433
  0
POINT
  8
_0-0_
 62
    7
 10
2560.8108932907517
 20
1910.8213682432433
  0
POINT
  8
_0-0_
 62
    7
 10
2680.8107943148229
 20
1910.8213682432433
  0
POINT
  8
_0-0_
 62
    7
 10
1940.810827306799
 20
1978.4098032358531
  0
POINT
  8
_0-0_
 62
    7
 10
2680.8107943148229
 20
1978.4098032358531
  0
POINT
  8
_0-0_
 62
    7
 10
2790.9423003325592
 20
1065.1351516311233
  0
POINT
  8
_0-0_
 62
    7
 10
2790.9423003325592
 20
1185.1351763751056
  0
POINT
  8
_0-0_
 62
    7
 10
2790.9423003325592
 20
1230.1352011190879
  0
POINT
  8
_0-0_
 62
    7
 10
2790.9423003325592
 20
1640.1350691511825
  0
POINT
  8
_0-0_
 62
    7
 10
2790.9423003325592
 20
1685.1350938951648
  0
POINT
  8
_0-0_
 62
    7
 10
2790.9423003325592
 20
1805.1351186391471
  0
POINT
  8
_0-0_
 62
    7
 10
2874.4339401657521
 20
1065.1351516311233
  0
POINT
  8
_0-0_
 62
    7
 10
2874.4339401657521
 20
1805.1351186391471
  0
LINE
  8
_0-0_
  6
CONTINUOUS
 62
    7
 10
2790.9423003325592
 20
1685.1350938951648
 11
2790.9423003325592
 21
1640.1350691511825
  0
POINT
  8
_0-0_
 62
    7
 10
2790.9423003325592
 20
1685.1350938951648
  0
POINT
  8
_0-0_
 62
    7
 10
2790.9423003325592
 20
1640.1350691511825
  0
LINE
  8
_0-0_
  6
CONTINUOUS
 62
    7
 10
2790.9423003325592
 20
1685.1350938951648
 11
2699.4991817989867
 21
1685.1350938951648
  0
LINE
  8
_0-0_
  6
CONTINUOUS
 62
    7
 10
2790.9423003325592
 20
1640.1350691511825
 11
2699.4991817989867
 21
1640.1350691511825
  0
LINE
  8
_0-0_
  6
CONTINUOUS
 62
    7
 10
2790.9423003325592
 20
1230.1352011190879
 11
2790.9423003325592
 21
1185.1351763751056
  0
POINT
  8
_0-0_
 62
    7
 10
2790.9423003325592
 20
1230.1352011190879
  0
POINT
  8
_0-0_
 62
    7
 10
2790.9423003325592
 20
1185.1351763751056
  0
LINE
  8
_0-0_
  6
CONTINUOUS
 62
    7
 10
2790.9423003325592
 20
1230.1352011190879
 11
2699.4991817989867
 21
1230.1352011190879
  0
LINE
  8
_0-0_
  6
CONTINUOUS
 62
    7
 10
2790.9423003325592
 20
1185.1351763751056
 11
2699.4991817989867
 21
1185.1351763751056
  0
LINE
  8
_0-0_
  6
CONTINUOUS
 62
    7
 10
2060.81072833087
 20
1910.8213682432433
 11
2105.8108767947633
 21
1910.8213682432433
  0
POINT
  8
_0-0_
 62
    7
 10
2060.81072833087
 20
1910.8213682432433
  0
POINT
  8
_0-0_
 62
    7
 10
2105.8108767947633
 20
1910.8213682432433
  0
LINE
  8
_0-0_
  6
CONTINUOUS
 62
    7
 10
2060.81072833087
 20
1910.8213682432433
 11
2060.81072833087
 21
1823.3539890598606
  0
LINE
  8
_0-0_
  6
CONTINUOUS
 62
    7
 10
2105.8108767947633
 20
1910.8213682432433
 11
2105.8108767947633
 21
1823.3539890598606
  0
LINE
  8
_0-0_
  6
CONTINUOUS
 62
    7
 10
2515.8107448268584
 20
1910.8213682432433
 11
2560.8108932907517
 21
1910.8213682432433
  0
POINT
  8
_0-0_
 62
    7
 10
2515.8107448268584
 20
1910.8213682432433
  0
POINT
  8
_0-0_
 62
    7
 10
2560.8108932907517
 20
1910.8213682432433
  0
LINE
  8
_0-0_
  6
CONTINUOUS
 62
    7
 10
2515.8107448268584
 20
1910.8213682432433
 11
2515.8107448268584
 21
1823.3539890598606
  0
LINE
  8
_0-0_
  6
CONTINUOUS
 62
    7
 10
2560.8108932907517
 20
1910.8213682432433
 11
2560.8108932907517
 21
1823.3539890598606
  0
TEXT
  8
_0-0_
 62
    7
 10
2360.1344423036321
 20
600.17345531566707
 40
50
 41
1
 50
0
  1
岩城ブロック工業株式会社
  0
ENDSEC
  0
EOF
