  0
SECTION
  2
HEADER
  9
$ACADVER
  1
AC1009
  9
$INSBASE
 10
0
 20
0
 30
0
  9
$EXTMIN
 10
0
 20
0
  9
$EXTMAX
 10
2100
 20
1485
  9
$LIMMIN
 10
0
 20
0
  9
$LIMMAX
 10
2100
 20
1485
  9
$LTSCALE
 40
5
  0
ENDSEC
  0
SECTION
  2
TABLES
  0
TABLE
  2
LTYPE
 70
     9
  0
LTYPE
  2
CONTINUOUS
 70
    64
  3
実線
 72
    65
 73
     0
 40
0.0
  0
LTYPE
  2
DASHED1
 70
    64
  3
--  --  --  --  --  --  --  --  
 72
    65
 73
     2
 40
2.5
 49
1.25
 49
-1.25
  0
LTYPE
  2
DASHED2
 70
    64
  3
----    ----    ----    ----    
 72
    65
 73
     2
 40
5.0
 49
2.5
 49
-2.5
  0
LTYPE
  2
DASHED3
 70
    64
  3
------  ------  ------  ------  
 72
    65
 73
     2
 40
5.0
 49
3.75
 49
-1.25
  0
LTYPE
  2
CENTER1
 70
    64
  3
----- - ----- - ----- - ----- - 
 72
    65
 73
     4
 40
10.0
 49
6.25
 49
-1.25
 49
1.25
 49
-1.25
  0
LTYPE
  2
CENTER2
 70
    64
  3
----------  --  ----------  --  
 72
    65
 73
     4
 40
20.0
 49
12.5
 49
-2.5
 49
2.5
 49
-2.5
  0
LTYPE
  2
PHANTOM1
 70
    64
  3
--- - - --- - - --- - - --- - - 
 72
    65
 73
     6
 40
10.0
 49
3.25
 49
-1.25
 49
1.25
 49
-1.25
 49
1.25
 49
-1.25
  0
LTYPE
  2
PHANTOM2
 70
    64
  3
--------  -  -  --------  -  -  
 72
    65
 73
     6
 40
20.0
 49
10.0
 49
-2.5
 49
1.25
 49
-2.5
 49
1.25
 49
-2.5
  0
LTYPE
  2
DOT
 70
    64
  3
-   -   -   -   -   -   -   -   
 72
    65
 73
     2
 40
2.5
 49
0.625
 49
-1.875
  0
LTYPE
  2
DUMMY
 70
    64
  3
ダミー
 72
    65
 73
     0
 40
0.0
  0
LTYPE
  2
RAND1
 70
    64
  3
ランダム線1
 72
    65
 73
     4
 40
10.0
 49
1.0
 49
-2.0
 49
3.0
 49
-4.0
  0
LTYPE
  2
RAND2
 70
    64
  3
ランダム線2
 72
    65
 73
     4
 40
14.0
 49
2.0
 49
-3.0
 49
4.0
 49
-5.0
  0
LTYPE
  2
RAND3
 70
    64
  3
ランダム線3
 72
    65
 73
     4
 40
18.0
 49
3.0
 49
-4.0
 49
5.0
 49
-6.0
  0
LTYPE
  2
RAND4
 70
    64
  3
ランダム線4
 72
    65
 73
     4
 40
22.0
 49
4.0
 49
-5.0
 49
6.0
 49
-7.0
  0
LTYPE
  2
RAND5
 70
    64
  3
ランダム線5
 72
    65
 73
     4
 40
26.0
 49
5.0
 49
-6.0
 49
7.0
 49
-8.0
  0
LTYPE
  2
LONG1
 70
    64
  3
----------  --  ----------  --  
 72
    65
 73
     4
 40
40.0
 49
32.5
 49
-2.5
 49
2.5
 49
-2.5
  0
LTYPE
  2
LONG2
 70
    64
  3
--------  -  -  --------  -  -  
 72
    65
 73
     6
 40
40.0
 49
30.0
 49
-2.5
 49
1.25
 49
-2.5
 49
1.25
 49
-2.5
  0
LTYPE
  2
LONG3
 70
    64
  3
+++++++++++++++..+++++++++++++++
 72
    65
 73
     2
 40
40.0
 49
37.5
 49
-2.5
  0
LTYPE
  2
LONG4
 70
    64
  3
+++++++++++++++..+++++++++++++++
 72
    65
 73
     2
 40
80.0
 49
75.0
 49
-5.0
  0
LTYPE
  2
LONG5
 70
    64
  3
----------  --  ----------  --  
 72
    65
 73
     4
 40
60.0
 49
37.5
 49
-7.5
 49
7.5
 49
-7.5
  0
LTYPE
  2
dashed
 70
   64
  3
-------   -------------   ------
 72
   65
 73
    2
 40
7.5
 49
6
 49
-1.5
  0
LTYPE
  2
dashed_spaced
 70
   64
  3
----        --------        ----
 72
   65
 73
    2
 40
12
 49
6
 49
-6
  0
LTYPE
  2
long_dashed_dotted
 70
   64
  3
------------- --- --------------
 72
   65
 73
    4
 40
15.25
 49
12
 49
-1.5
 49
0.25
 49
-1.5
  0
LTYPE
  2
long_dashed_double-dotted
 70
   64
  3
----------- --- --- ------------
 72
   65
 73
    6
 40
17
 49
12
 49
-1.5
 49
0.25
 49
-1.5
 49
0.25
 49
-1.5
  0
LTYPE
  2
long_dashed_triplicate-dotted
 70
   64
  3
--------- --- --- --- ----------
 72
   65
 73
    8
 40
18.75
 49
12
 49
-1.5
 49
0.25
 49
-1.5
 49
0.25
 49
-1.5
 49
0.25
 49
-1.5
  0
LTYPE
  2
dotted
 70
   64
  3
   -       -       -       -    
 72
   65
 73
    2
 40
1.75
 49
0.25
 49
-1.5
  0
LTYPE
  2
chain
 70
   64
  3
-------------- -- --------------
 72
   65
 73
    4
 40
18.5
 49
12
 49
-1.5
 49
3.5
 49
-1.5
  0
LTYPE
  2
chain_double_dash
 70
   64
  3
------------ -- -- -------------
 72
   65
 73
    6
 40
23.5
 49
12
 49
-1.5
 49
3.5
 49
-1.5
 49
3.5
 49
-1.5
  0
LTYPE
  2
dashed_dotted
 70
   64
  3
-----------     -     ----------
 72
   65
 73
    4
 40
9.25
 49
6
 49
-1.5
 49
0.25
 49
-1.5
  0
LTYPE
  2
double-dashed_dotted
 70
   64
  3
------   -----------   -   -----
 72
   65
 73
    6
 40
16.75
 49
6
 49
-1.5
 49
6
 49
-1.5
 49
0.25
 49
-1.5
  0
LTYPE
  2
dashed_double-dotted
 70
   64
  3
---------    -    -    ---------
 72
   65
 73
    6
 40
11
 49
6
 49
-1.5
 49
0.25
 49
-1.5
 49
0.25
 49
-1.5
  0
LTYPE
  2
double-dashed_double-dotted
 70
   64
  3
-----   ---------   -   -   ----
 72
   65
 73
    8
 40
18.5
 49
6
 49
-1.5
 49
6
 49
-1.5
 49
0.25
 49
-1.5
 49
0.25
 49
-1.5
  0
LTYPE
  2
dashed_triplicate-dotted
 70
   64
  3
-------    -    -    -    ------
 72
   65
 73
    8
 40
12.75
 49
6
 49
-1.5
 49
0.25
 49
-1.5
 49
0.25
 49
-1.5
 49
0.25
 49
-1.5
  0
LTYPE
  2
double-dashed_triplicate-dotted
 70
   64
  3
-----  ---------  -  -  -  -----
 72
   65
 73
   10
 40
20.25
 49
6
 49
-1.5
 49
6
 49
-1.5
 49
0.25
 49
-1.5
 49
0.25
 49
-1.5
 49
0.25
 49
-1.5
  0
LTYPE
  2
undefined
 70
   64
  3
--------------------------------
 72
   65
 73
    0
 40
0
  0
ENDTAB
  0
TABLE
  2
STYLE
  5
3
100
AcDbSymbolTable
 70
     1
  0
STYLE
  5
10
100
AcDbSymbolTableRecord
100
AcDbTextStyleTableRecord
  2
STANDARD
 70
     0
 40
0.0
 41
1.0
 50
0.0
 71
     0
 42
0.2
  3
txt
  4
bigfont.shx
  0
STYLE
  5
26
100
AcDbSymbolTableRecord
100
AcDbTextStyleTableRecord
  2
TATEGAKI
 70
    68
 40
0.0
 41
1.0
 50
0.0
 71
     0
 42
1.0
  3
txt
  4
bigfont.shx
  0
ENDTAB
  0
TABLE
  2
LAYER
 70
    2
  0
LAYER
  2
_0-0_
 70
   64
 62
    7
  6
CONTINUOUS
  0
LAYER
  2
ADD_LINE
 70
   64
 62
    7
  6
CONTINUOUS
  0
ENDTAB
  0
ENDSEC
  0
SECTION
  2
BLOCKS
  0
ENDSEC
  0
SECTION
  2
ENTITIES
  0
TEXT
  8
_0-0_
 62
    2
 10
965.02007603000948
 20
546.2597202610325
 40
20
 41
0.8
 50
0
  1
250
  0
TEXT
  8
_0-0_
 62
    2
 10
965.02007603000948
 20
515.805754790435
 40
20
 41
0.8
 50
0
  1
250
  0
TEXT
  8
_0-0_
 62
    2
 10
534.2043844686973
 20
905.33090539880709
 40
20
 41
0.8
 50
0
  1
３００型
  0
TEXT
  8
_0-0_
 62
    2
 10
684.2517126959724
 20
905.76244044948271
 40
20
 41
0.8
 50
0
  1
300x300x 300
  0
TEXT
  8
_0-0_
 62
    2
 10
685.69960681812188
 20
845.82039085594386
 40
20
 41
0.8
 50
0
  1
300x300x 400
  0
TEXT
  8
_0-0_
 62
    2
 10
684.2517126959724
 20
815.41498545053844
 40
20
 41
0.8
 50
0
  1
300x300x 450
  0
TEXT
  8
_0-0_
 62
    2
 10
684.2517126959724
 20
785.00958004513313
 40
20
 41
0.8
 50
0
  1
300x300x 500
  0
TEXT
  8
_0-0_
 62
    2
 10
684.2517126959724
 20
755.47293585699958
 40
20
 41
0.8
 50
0
  1
300x300x 600
  0
TEXT
  8
_0-0_
 62
    2
 10
684.2517126959724
 20
725.93622980891053
 40
20
 41
0.8
 50
0
  1
300x300x 700
  0
TEXT
  8
_0-0_
 62
    2
 10
534.36874637088272
 20
695.53082440350511
 40
20
 41
0.8
 50
0
  1
４００型
  0
TEXT
  8
_0-0_
 62
    2
 10
684.68992862185917
 20
695.53082440350511
 40
20
 41
0.8
 50
0
  1
400x400x 400
  0
TEXT
  8
_0-0_
 62
    2
 10
684.68992862185917
 20
665.99411835541605
 40
20
 41
0.8
 50
0
  1
400x400x 500
  0
TEXT
  8
_0-0_
 62
    2
 10
686.33354764371302
 20
635.58871295001063
 40
20
 41
0.8
 50
0
  1
400x400x 600
  0
TEXT
  8
_0-0_
 62
    2
 10
684.68992862185917
 20
606.05206876187719
 40
20
 41
0.8
 50
0
  1
400x400x 700
  0
TEXT
  8
_0-0_
 62
    2
 10
684.68992862185917
 20
575.64666335647178
 40
20
 41
0.8
 50
0
  1
400x400x 800
  0
TEXT
  8
_0-0_
 62
    2
 10
534.36874637088272
 20
546.1099573083826
 40
20
 41
0.8
 50
0
  1
５００型
  0
TEXT
  8
_0-0_
 62
    2
 10
684.68992862185917
 20
546.1099573083826
 40
20
 41
0.8
 50
0
  1
500x500x 400
  0
TEXT
  8
_0-0_
 62
    2
 10
684.68992862185917
 20
515.70455190297719
 40
20
 41
0.8
 50
0
  1
500x500x 500
  0
TEXT
  8
_0-0_
 62
    2
 10
684.68992862185917
 20
486.16787678486594
 40
20
 41
0.8
 50
0
  1
500x500x 600
  0
TEXT
  8
_0-0_
 62
    2
 10
684.68992862185917
 20
455.76247137946052
 40
20
 41
0.8
 50
0
  1
500x500x 700
  0
TEXT
  8
_0-0_
 62
    2
 10
684.68992862185917
 20
425.35706597405516
 40
20
 41
0.8
 50
0
  1
500x500x 800
  0
TEXT
  8
_0-0_
 62
    2
 10
684.68992862185917
 20
395.82039085594386
 40
20
 41
0.8
 50
0
  1
500x500x 900
  0
TEXT
  8
_0-0_
 62
    2
 10
532.31431538349875
 20
365.4149854505385
 40
20
 41
0.8
 50
0
  1
６００型
  0
TEXT
  8
_0-0_
 62
    2
 10
684.68992862185917
 20
365.4149854505385
 40
20
 41
0.8
 50
0
  1
600x600x 500
  0
TEXT
  8
_0-0_
 62
    2
 10
684.68992862185917
 20
335.87831033242713
 40
20
 41
0.8
 50
0
  1
600x600x 600
  0
TEXT
  8
_0-0_
 62
    2
 10
684.68992862185917
 20
305.47290492702177
 40
20
 41
0.8
 50
0
  1
600x600x 700
  0
TEXT
  8
_0-0_
 62
    2
 10
684.68992862185917
 20
275.93622980891047
 40
20
 41
0.8
 50
0
  1
600x600x 800
  0
TEXT
  8
_0-0_
 62
    2
 10
684.68992862185917
 20
245.53082440350508
 40
20
 41
0.8
 50
0
  1
600x600x 900
  0
TEXT
  8
_0-0_
 62
    2
 10
684.68992862185917
 20
215.9941492853938
 40
20
 41
0.8
 50
0
  1
600x600x1000
  0
TEXT
  8
_0-0_
 62
    2
 10
885.14674872321052
 20
905.84619882944469
 40
20
 41
0.8
 50
0
  1
300
  0
TEXT
  8
_0-0_
 62
    2
 10
885.14674872321052
 20
846.42303054397178
 40
20
 41
0.8
 50
0
  1
300
  0
TEXT
  8
_0-0_
 62
    2
 10
885.14674872321052
 20
785.47612783071156
 40
20
 41
0.8
 50
0
  1
300
  0
TEXT
  8
_0-0_
 62
    2
 10
885.14674872321052
 20
815.94957918734167
 40
20
 41
0.8
 50
0
  1
300
  0
TEXT
  8
_0-0_
 62
    2
 10
885.14674872321052
 20
756.52641090186876
 40
20
 41
0.8
 50
0
  1
300
  0
TEXT
  8
_0-0_
 62
    2
 10
885.14674872321052
 20
726.05295954523865
 40
20
 41
0.8
 50
0
  1
300
  0
TEXT
  8
_0-0_
 62
    2
 10
965.02007603000948
 20
905.84619882944469
 40
20
 41
0.8
 50
0
  1
200
  0
TEXT
  8
_0-0_
 62
    2
 10
965.02007603000948
 20
846.42303054397178
 40
20
 41
0.8
 50
0
  1
200
  0
TEXT
  8
_0-0_
 62
    2
 10
965.02007603000948
 20
815.94957918734167
 40
20
 41
0.8
 50
0
  1
200
  0
TEXT
  8
_0-0_
 62
    2
 10
965.02007603000948
 20
756.52641090186876
 40
20
 41
0.8
 50
0
  1
200
  0
TEXT
  8
_0-0_
 62
    2
 10
1044.8934342667865
 20
905.84619882944469
 40
20
 41
0.8
 50
0
  1
170
  0
TEXT
  8
_0-0_
 62
    2
 10
684.7369421881599
 20
875.35703504407729
 40
20
 41
0.8
 50
0
  1
300x300x 350
  0
TEXT
  8
_0-0_
 62
    2
 10
885.14674872321052
 20
875.37274747281469
 40
20
 41
0.8
 50
0
  1
300
  0
TEXT
  8
_0-0_
 62
    2
 10
965.02007603000948
 20
875.37274747281469
 40
20
 41
0.8
 50
0
  1
200
  0
TEXT
  8
_0-0_
 62
    2
 10
1044.8934342667865
 20
875.37274747281469
 40
20
 41
0.8
 50
0
  1
168
  0
TEXT
  8
_0-0_
 62
    2
 10
1044.8934342667865
 20
846.42303054397178
 40
20
 41
0.8
 50
0
  1
165
  0
TEXT
  8
_0-0_
 62
    2
 10
1044.8934342667865
 20
815.94957918734167
 40
20
 41
0.8
 50
0
  1
163
  0
TEXT
  8
_0-0_
 62
    2
 10
1044.8934342667865
 20
785.47612783071156
 40
20
 41
0.8
 50
0
  1
160
  0
TEXT
  8
_0-0_
 62
    2
 10
1044.8934342667865
 20
756.52641090186876
 40
20
 41
0.8
 50
0
  1
155
  0
TEXT
  8
_0-0_
 62
    2
 10
1044.8934342667865
 20
726.05295954523865
 40
20
 41
0.8
 50
0
  1
150
  0
TEXT
  8
_0-0_
 62
    2
 10
1128.824658368085
 20
905.84619882944469
 40
20
 41
0.8
 50
0
  1
50
  0
TEXT
  8
_0-0_
 62
    2
 10
1128.824658368085
 20
875.37274747281469
 40
20
 41
0.8
 50
0
  1
50
  0
TEXT
  8
_0-0_
 62
    2
 10
1128.824658368085
 20
846.42303054397178
 40
20
 41
0.8
 50
0
  1
50
  0
TEXT
  8
_0-0_
 62
    2
 10
1128.824658368085
 20
815.94957918734167
 40
20
 41
0.8
 50
0
  1
50
  0
TEXT
  8
_0-0_
 62
    2
 10
1128.824658368085
 20
785.47612783071156
 40
20
 41
0.8
 50
0
  1
50
  0
TEXT
  8
_0-0_
 62
    2
 10
1128.824658368085
 20
756.52641090186876
 40
20
 41
0.8
 50
0
  1
50
  0
TEXT
  8
_0-0_
 62
    2
 10
1128.824658368085
 20
726.05295954523865
 40
20
 41
0.8
 50
0
  1
50
  0
TEXT
  8
_0-0_
 62
    2
 10
1209.8900270204288
 20
905.84619882944469
 40
20
 41
0.8
 50
0
  1
10
  0
TEXT
  8
_0-0_
 62
    2
 10
1209.8900270204288
 20
875.37274747281469
 40
20
 41
0.8
 50
0
  1
10
  0
TEXT
  8
_0-0_
 62
    2
 10
1209.8900270204288
 20
846.42303054397178
 40
20
 41
0.8
 50
0
  1
10
  0
TEXT
  8
_0-0_
 62
    2
 10
1209.8900270204288
 20
815.94957918734167
 40
20
 41
0.8
 50
0
  1
10
  0
TEXT
  8
_0-0_
 62
    2
 10
1209.8900270204288
 20
785.47612783071156
 40
20
 41
0.8
 50
0
  1
10
  0
TEXT
  8
_0-0_
 62
    2
 10
1209.8900270204288
 20
756.52641090186876
 40
20
 41
0.8
 50
0
  1
10
  0
TEXT
  8
_0-0_
 62
    2
 10
1209.8900270204288
 20
726.05295954523865
 40
20
 41
0.8
 50
0
  1
10
  0
TEXT
  8
_0-0_
 62
    2
 10
1284.5133543272277
 20
905.84619882944469
 40
20
 41
0.8
 50
0
  1
300
  0
TEXT
  8
_0-0_
 62
    2
 10
1284.5133543272277
 20
875.37274747281469
 40
20
 41
0.8
 50
0
  1
350
  0
TEXT
  8
_0-0_
 62
    2
 10
1284.5133543272277
 20
846.42303054397178
 40
20
 41
0.8
 50
0
  1
400
  0
TEXT
  8
_0-0_
 62
    2
 10
1284.5133543272277
 20
815.94957918734167
 40
20
 41
0.8
 50
0
  1
450
  0
TEXT
  8
_0-0_
 62
    2
 10
1284.5133543272277
 20
785.47612783071156
 40
20
 41
0.8
 50
0
  1
500
  0
TEXT
  8
_0-0_
 62
    2
 10
1284.5133543272277
 20
756.52641090186876
 40
20
 41
0.8
 50
0
  1
600
  0
TEXT
  8
_0-0_
 62
    2
 10
1284.5133543272277
 20
726.05295954523865
 40
20
 41
0.8
 50
0
  1
700
  0
TEXT
  8
_0-0_
 62
    2
 10
1389.9029928671348
 20
906.03276845571156
 40
20
 41
0.8
 50
0
  1
40
  0
TEXT
  8
_0-0_
 62
    2
 10
1389.9029928671348
 20
875.45829979149073
 40
20
 41
0.8
 50
0
  1
47
  0
TEXT
  8
_0-0_
 62
    2
 10
1389.9029928671348
 20
845.68838171056791
 40
20
 41
0.8
 50
0
  1
54
  0
TEXT
  8
_0-0_
 62
    2
 10
1389.9029928671348
 20
815.91852548960094
 40
20
 41
0.8
 50
0
  1
62
  0
TEXT
  8
_0-0_
 62
    2
 10
1389.9029928671348
 20
785.34399496542449
 40
20
 41
0.8
 50
0
  1
69
  0
TEXT
  8
_0-0_
 62
    2
 10
1389.9029928671348
 20
755.5741387444574
 40
20
 41
0.8
 50
0
  1
84
  0
TEXT
  8
_0-0_
 62
    2
 10
1389.9029928671348
 20
725.80422066353458
 40
20
 41
0.8
 50
0
  1
99
  0
TEXT
  8
_0-0_
 62
    2
 10
1284.5133543272277
 20
695.57950818860854
 40
20
 41
0.8
 50
0
  1
400
  0
TEXT
  8
_0-0_
 62
    2
 10
885.14674872321052
 20
695.57950818860854
 40
20
 41
0.8
 50
0
  1
400
  0
TEXT
  8
_0-0_
 62
    2
 10
885.14674872321052
 20
666.62979125976563
 40
20
 41
0.8
 50
0
  1
400
  0
TEXT
  8
_0-0_
 62
    2
 10
885.14674872321052
 20
636.15633990313563
 40
20
 41
0.8
 50
0
  1
400
  0
TEXT
  8
_0-0_
 62
    2
 10
885.14674872321052
 20
605.68295040646126
 40
20
 41
0.8
 50
0
  1
400
  0
TEXT
  8
_0-0_
 62
    2
 10
885.14674872321052
 20
576.73317161766261
 40
20
 41
0.8
 50
0
  1
400
  0
TEXT
  8
_0-0_
 62
    2
 10
1044.8934342667865
 20
695.57950818860854
 40
20
 41
0.8
 50
0
  1
190
  0
TEXT
  8
_0-0_
 62
    2
 10
1044.8934342667865
 20
666.62979125976563
 40
20
 41
0.8
 50
0
  1
183
  0
TEXT
  8
_0-0_
 62
    2
 10
1044.8934342667865
 20
636.15633990313563
 40
20
 41
0.8
 50
0
  1
175
  0
TEXT
  8
_0-0_
 62
    2
 10
1044.8934342667865
 20
605.68288854650552
 40
20
 41
0.8
 50
0
  1
167
  0
TEXT
  8
_0-0_
 62
    2
 10
1044.8934342667865
 20
576.73317161766261
 40
20
 41
0.8
 50
0
  1
160
  0
TEXT
  8
_0-0_
 62
    2
 10
1209.8900270204288
 20
695.57950818860854
 40
20
 41
0.8
 50
0
  1
15
  0
TEXT
  8
_0-0_
 62
    2
 10
1209.8900270204288
 20
666.62979125976563
 40
20
 41
0.8
 50
0
  1
15
  0
TEXT
  8
_0-0_
 62
    2
 10
1209.8900270204288
 20
636.15633990313563
 40
20
 41
0.8
 50
0
  1
15
  0
TEXT
  8
_0-0_
 62
    2
 10
1209.8900270204288
 20
605.68288854650552
 40
20
 41
0.8
 50
0
  1
15
  0
TEXT
  8
_0-0_
 62
    2
 10
1209.8900270204288
 20
576.73317161766261
 40
20
 41
0.8
 50
0
  1
15
  0
TEXT
  8
_0-0_
 62
    2
 10
1284.5133543272277
 20
666.62979125976563
 40
20
 41
0.8
 50
0
  1
500
  0
TEXT
  8
_0-0_
 62
    2
 10
1284.5133543272277
 20
636.15633990313563
 40
20
 41
0.8
 50
0
  1
600
  0
TEXT
  8
_0-0_
 62
    2
 10
1284.5133543272277
 20
605.68288854650552
 40
20
 41
0.8
 50
0
  1
700
  0
TEXT
  8
_0-0_
 62
    2
 10
1284.5133543272277
 20
576.73317161766261
 40
20
 41
0.8
 50
0
  1
800
  0
TEXT
  8
_0-0_
 62
    2
 10
1384.6529928671348
 20
696.03430258261199
 40
20
 41
0.8
 50
0
  1
113
  0
TEXT
  8
_0-0_
 62
    2
 10
1384.6529928671348
 20
665.45983391839115
 40
20
 41
0.8
 50
0
  1
143
  0
TEXT
  8
_0-0_
 62
    2
 10
1384.6529928671348
 20
635.68997769742407
 40
20
 41
0.8
 50
0
  1
174
  0
TEXT
  8
_0-0_
 62
    2
 10
1384.6529928671348
 20
605.92005961650125
 40
20
 41
0.8
 50
0
  1
206
  0
TEXT
  8
_0-0_
 62
    2
 10
1384.6529928671348
 20
575.34559095228042
 40
20
 41
0.8
 50
0
  1
238
  0
TEXT
  8
_0-0_
 62
    2
 10
1209.8900270204288
 20
515.805754790435
 40
20
 41
0.8
 50
0
  1
15
  0
TEXT
  8
_0-0_
 62
    2
 10
1209.8900270204288
 20
486.03586763949011
 40
20
 41
0.8
 50
0
  1
15
  0
TEXT
  8
_0-0_
 62
    2
 10
1209.8900270204288
 20
455.46139897526922
 40
20
 41
0.8
 50
0
  1
15
  0
TEXT
  8
_0-0_
 62
    2
 10
1209.8900270204288
 20
425.69151182432438
 40
20
 41
0.8
 50
0
  1
15
  0
TEXT
  8
_0-0_
 62
    2
 10
1209.8900270204288
 20
395.92159374340162
 40
20
 41
0.8
 50
0
  1
15
  0
TEXT
  8
_0-0_
 62
    2
 10
885.14674872321052
 20
546.62685909786751
 40
20
 41
0.8
 50
0
  1
500
  0
TEXT
  8
_0-0_
 62
    2
 10
885.28605734335417
 20
515.33911421492303
 40
20
 41
0.8
 50
0
  1
500
  0
TEXT
  8
_0-0_
 62
    2
 10
885.28605734335417
 20
485.43681582889042
 40
20
 41
0.8
 50
0
  1
500
  0
TEXT
  8
_0-0_
 62
    2
 10
885.01671909641573
 20
455.53451744285792
 40
20
 41
0.8
 50
0
  1
500
  0
TEXT
  8
_0-0_
 62
    2
 10
885.14674872321052
 20
425.69151182432438
 40
20
 41
0.8
 50
0
  1
500
  0
TEXT
  8
_0-0_
 62
    2
 10
885.14674872321052
 20
395.92159374340162
 40
20
 41
0.8
 50
0
  1
500
  0
TEXT
  8
_0-0_
 62
    2
 10
965.02007603000948
 20
486.03586763949011
 40
20
 41
0.8
 50
0
  1
250
  0
TEXT
  8
_0-0_
 62
    2
 10
965.02007603000948
 20
455.46139897526922
 40
20
 41
0.8
 50
0
  1
250
  0
TEXT
  8
_0-0_
 62
    2
 10
965.02007603000948
 20
426.49609333760031
 40
20
 41
0.8
 50
0
  1
250
  0
TEXT
  8
_0-0_
 62
    2
 10
965.02007603000948
 20
395.92159374340162
 40
20
 41
0.8
 50
0
  1
250
  0
TEXT
  8
_0-0_
 62
    2
 10
1044.8934342667865
 20
546.2597202610325
 40
20
 41
0.8
 50
0
  1
220
  0
TEXT
  8
_0-0_
 62
    2
 10
1044.8934342667865
 20
515.805754790435
 40
20
 41
0.8
 50
0
  1
213
  0
TEXT
  8
_0-0_
 62
    2
 10
1044.8934342667865
 20
486.03586763949011
 40
20
 41
0.8
 50
0
  1
205
  0
TEXT
  8
_0-0_
 62
    2
 10
1044.8934342667865
 20
455.46139897526922
 40
20
 41
0.8
 50
0
  1
198
  0
TEXT
  8
_0-0_
 62
    2
 10
1044.8934342667865
 20
425.69151182432438
 40
20
 41
0.8
 50
0
  1
190
  0
TEXT
  8
_0-0_
 62
    2
 10
1044.8934342667865
 20
395.92159374340162
 40
20
 41
0.8
 50
0
  1
183
  0
TEXT
  8
_0-0_
 62
    2
 10
1123.5747202280406
 20
546.2597202610325
 40
20
 41
0.8
 50
0
  1
125
  0
TEXT
  8
_0-0_
 62
    2
 10
1123.5747202280406
 20
515.805754790435
 40
20
 41
0.8
 50
0
  1
125
  0
TEXT
  8
_0-0_
 62
    2
 10
1123.5747202280406
 20
486.03586763949011
 40
20
 41
0.8
 50
0
  1
125
  0
TEXT
  8
_0-0_
 62
    2
 10
1123.5747202280406
 20
455.46139897526922
 40
20
 41
0.8
 50
0
  1
125
  0
TEXT
  8
_0-0_
 62
    2
 10
1123.5747202280406
 20
425.69151182432438
 40
20
 41
0.8
 50
0
  1
125
  0
TEXT
  8
_0-0_
 62
    2
 10
1123.5747202280406
 20
395.92159374340162
 40
20
 41
0.8
 50
0
  1
125
  0
TEXT
  8
_0-0_
 62
    2
 10
1209.8900270204288
 20
546.2597202610325
 40
20
 41
0.8
 50
0
  1
15
  0
TEXT
  8
_0-0_
 62
    2
 10
1284.5133543272277
 20
546.2597202610325
 40
20
 41
0.8
 50
0
  1
400
  0
TEXT
  8
_0-0_
 62
    2
 10
1284.5133543272277
 20
515.805754790435
 40
20
 41
0.8
 50
0
  1
500
  0
TEXT
  8
_0-0_
 62
    2
 10
1284.5133543272277
 20
486.03586763949011
 40
20
 41
0.8
 50
0
  1
600
  0
TEXT
  8
_0-0_
 62
    2
 10
1284.5133543272277
 20
455.46139897526922
 40
20
 41
0.8
 50
0
  1
700
  0
TEXT
  8
_0-0_
 62
    2
 10
1284.5133543272277
 20
425.69151182432438
 40
20
 41
0.8
 50
0
  1
800
  0
TEXT
  8
_0-0_
 62
    2
 10
1284.5133543272277
 20
395.92159374340162
 40
20
 41
0.8
 50
0
  1
900
  0
TEXT
  8
_0-0_
 62
    2
 10
1384.6529928671348
 20
545.57567287135771
 40
20
 41
0.8
 50
0
  1
221
  0
TEXT
  8
_0-0_
 62
    2
 10
1384.6529928671348
 20
515.805754790435
 40
20
 41
0.8
 50
0
  1
236
  0
TEXT
  8
_0-0_
 62
    2
 10
1384.6529928671348
 20
486.03586763949011
 40
20
 41
0.8
 50
0
  1
285
  0
TEXT
  8
_0-0_
 62
    2
 10
1384.6529928671348
 20
455.46139897526922
 40
20
 41
0.8
 50
0
  1
335
  0
TEXT
  8
_0-0_
 62
    2
 10
1384.6529928671348
 20
425.69151182432438
 40
20
 41
0.8
 50
0
  1
399
  0
TEXT
  8
_0-0_
 62
    2
 10
1384.6529928671348
 20
395.92159374340162
 40
20
 41
0.8
 50
0
  1
439
  0
TEXT
  8
_0-0_
 62
    2
 10
1209.8900270204288
 20
335.57720699825808
 40
20
 41
0.8
 50
0
  1
15
  0
TEXT
  8
_0-0_
 62
    2
 10
1209.8900270204288
 20
305.00273833403719
 40
20
 41
0.8
 50
0
  1
15
  0
TEXT
  8
_0-0_
 62
    2
 10
1209.8900270204288
 20
276.03743269636823
 40
20
 41
0.8
 50
0
  1
15
  0
TEXT
  8
_0-0_
 62
    2
 10
1209.8900270204288
 20
245.46294856715846
 40
20
 41
0.8
 50
0
  1
15
  0
TEXT
  8
_0-0_
 62
    2
 10
1209.8900270204288
 20
215.69306141621354
 40
20
 41
0.8
 50
0
  1
15
  0
TEXT
  8
_0-0_
 62
    2
 10
1209.8900270204288
 20
365.34712507918078
 40
20
 41
0.8
 50
0
  1
15
  0
TEXT
  8
_0-0_
 62
    2
 10
885.14674872321052
 20
365.34712507918078
 40
20
 41
0.8
 50
0
  1
600
  0
TEXT
  8
_0-0_
 62
    2
 10
885.14674872321052
 20
335.57720699825808
 40
20
 41
0.8
 50
0
  1
600
  0
TEXT
  8
_0-0_
 62
    2
 10
885.14674872321052
 20
305.80731984731312
 40
20
 41
0.8
 50
0
  1
600
  0
TEXT
  8
_0-0_
 62
    2
 10
885.14674872321052
 20
276.03743269636823
 40
20
 41
0.8
 50
0
  1
600
  0
TEXT
  8
_0-0_
 62
    2
 10
885.14674872321052
 20
245.46294856715846
 40
20
 41
0.8
 50
0
  1
600
  0
TEXT
  8
_0-0_
 62
    2
 10
885.14674872321052
 20
215.69306141621354
 40
20
 41
0.8
 50
0
  1
600
  0
TEXT
  8
_0-0_
 62
    2
 10
965.02007603000948
 20
365.34712507918078
 40
20
 41
0.8
 50
0
  1
300
  0
TEXT
  8
_0-0_
 62
    2
 10
965.02007603000948
 20
335.57720699825808
 40
20
 41
0.8
 50
0
  1
300
  0
TEXT
  8
_0-0_
 62
    2
 10
965.02007603000948
 20
305.80731984731312
 40
20
 41
0.8
 50
0
  1
300
  0
TEXT
  8
_0-0_
 62
    2
 10
965.02007603000948
 20
276.03743269636823
 40
20
 41
0.8
 50
0
  1
300
  0
TEXT
  8
_0-0_
 62
    2
 10
965.02007603000948
 20
245.46294856715846
 40
20
 41
0.8
 50
0
  1
300
  0
TEXT
  8
_0-0_
 62
    2
 10
965.02007603000948
 20
215.69306141621354
 40
20
 41
0.8
 50
0
  1
300
  0
TEXT
  8
_0-0_
 62
    2
 10
1044.8934342667865
 20
366.15170659245672
 40
20
 41
0.8
 50
0
  1
250
  0
TEXT
  8
_0-0_
 62
    2
 10
1044.8934342667865
 20
335.57720699825808
 40
20
 41
0.8
 50
0
  1
240
  0
TEXT
  8
_0-0_
 62
    2
 10
1044.8934342667865
 20
305.80731984731312
 40
20
 41
0.8
 50
0
  1
230
  0
TEXT
  8
_0-0_
 62
    2
 10
1044.8934342667865
 20
276.03743269636823
 40
20
 41
0.8
 50
0
  1
220
  0
TEXT
  8
_0-0_
 62
    2
 10
1044.8934342667865
 20
244.65835158889362
 40
20
 41
0.8
 50
0
  1
210
  0
TEXT
  8
_0-0_
 62
    2
 10
1044.8934342667865
 20
215.69306141621354
 40
20
 41
0.8
 50
0
  1
200
  0
TEXT
  8
_0-0_
 62
    2
 10
1123.5747202280406
 20
365.34712507918078
 40
20
 41
0.8
 50
0
  1
150
  0
TEXT
  8
_0-0_
 62
    2
 10
1123.5747202280406
 20
335.57720699825808
 40
20
 41
0.8
 50
0
  1
150
  0
TEXT
  8
_0-0_
 62
    2
 10
1123.5747202280406
 20
276.03743269636823
 40
20
 41
0.8
 50
0
  1
150
  0
TEXT
  8
_0-0_
 62
    2
 10
1123.5747202280406
 20
305.80731984731312
 40
20
 41
0.8
 50
0
  1
150
  0
TEXT
  8
_0-0_
 62
    2
 10
1123.5747202280406
 20
245.46294856715846
 40
20
 41
0.8
 50
0
  1
150
  0
TEXT
  8
_0-0_
 62
    2
 10
1123.5747202280406
 20
215.69306141621354
 40
20
 41
0.8
 50
0
  1
150
  0
TEXT
  8
_0-0_
 62
    2
 10
1284.5133543272277
 20
365.34712507918078
 40
20
 41
0.8
 50
0
  1
500
  0
TEXT
  8
_0-0_
 62
    2
 10
1284.5133543272277
 20
335.57720699825808
 40
20
 41
0.8
 50
0
  1
600
  0
TEXT
  8
_0-0_
 62
    2
 10
1284.5133543272277
 20
305.80731984731312
 40
20
 41
0.8
 50
0
  1
700
  0
TEXT
  8
_0-0_
 62
    2
 10
1284.5133543272277
 20
276.03743269636823
 40
20
 41
0.8
 50
0
  1
800
  0
TEXT
  8
_0-0_
 62
    2
 10
1284.5133543272277
 20
245.46294856715846
 40
20
 41
0.8
 50
0
  1
900
  0
TEXT
  8
_0-0_
 62
    2
 10
1279.2633543272277
 20
215.69306141621354
 40
20
 41
0.8
 50
0
  1
1000
  0
TEXT
  8
_0-0_
 62
    2
 10
1384.6529928671348
 20
365.34712507918078
 40
20
 41
0.8
 50
0
  1
341
  0
TEXT
  8
_0-0_
 62
    2
 10
1384.6529928671348
 20
334.77262548498209
 40
20
 41
0.8
 50
0
  1
413
  0
TEXT
  8
_0-0_
 62
    2
 10
1384.6529928671348
 20
305.80731984731312
 40
20
 41
0.8
 50
0
  1
487
  0
TEXT
  8
_0-0_
 62
    2
 10
1384.6529928671348
 20
276.03743269636823
 40
20
 41
0.8
 50
0
  1
561
  0
TEXT
  8
_0-0_
 62
    2
 10
1384.6529928671348
 20
245.46294856715846
 40
20
 41
0.8
 50
0
  1
637
  0
TEXT
  8
_0-0_
 62
    2
 10
1384.6529928671348
 20
215.69306141621354
 40
20
 41
0.8
 50
0
  1
714
  0
TEXT
  8
_0-0_
 62
    2
 10
965.02007603000948
 20
785.47612783071156
 40
20
 41
0.8
 50
0
  1
200
  0
TEXT
  8
_0-0_
 62
    2
 10
965.02007603000948
 20
185.81842989534948
 40
20
 41
0.8
 50
0
  1
300
  0
TEXT
  8
_0-0_
 62
    2
 10
1123.5747202280406
 20
185.81842989534948
 40
20
 41
0.8
 50
0
  1
150
  0
TEXT
  8
_0-0_
 62
    2
 10
684.68992862185917
 20
186.11951776452969
 40
20
 41
0.8
 50
0
  1
600x600x1200
  0
TEXT
  8
_0-0_
 62
    2
 10
885.14674872321052
 20
185.81842989534948
 40
20
 41
0.8
 50
0
  1
600
  0
TEXT
  8
_0-0_
 62
    2
 10
1044.8934342667865
 20
185.81842989534948
 40
20
 41
0.8
 50
0
  1
190
  0
TEXT
  8
_0-0_
 62
    2
 10
1209.8900270204288
 20
185.81842989534948
 40
20
 41
0.8
 50
0
  1
15
  0
TEXT
  8
_0-0_
 62
    2
 10
1279.2633543272277
 20
185.81842989534948
 40
20
 41
0.8
 50
0
  1
1200
  0
TEXT
  8
_0-0_
 62
    2
 10
1384.6529928671348
 20
185.81842989534948
 40
20
 41
0.8
 50
0
  1
819
  0
TEXT
  8
_0-0_
 62
    2
 10
965.02007603000948
 20
726.05295954523865
 40
20
 41
0.8
 50
0
  1
200
  0
TEXT
  8
_0-0_
 62
    2
 10
965.02007603000948
 20
695.57950818860854
 40
20
 41
0.8
 50
0
  1
260
  0
TEXT
  8
_0-0_
 62
    2
 10
965.02007603000948
 20
666.62979125976563
 40
20
 41
0.8
 50
0
  1
260
  0
TEXT
  8
_0-0_
 62
    2
 10
965.02007603000948
 20
636.15633990313563
 40
20
 41
0.8
 50
0
  1
260
  0
TEXT
  8
_0-0_
 62
    2
 10
965.02007603000948
 20
605.68295040646126
 40
20
 41
0.8
 50
0
  1
260
  0
TEXT
  8
_0-0_
 62
    2
 10
965.02007603000948
 20
576.73317161766261
 40
20
 41
0.8
 50
0
  1
260
  0
TEXT
  8
_0-0_
 62
    2
 10
1128.824658368085
 20
695.57950818860854
 40
20
 41
0.8
 50
0
  1
90
  0
TEXT
  8
_0-0_
 62
    2
 10
1128.824658368085
 20
666.62979125976563
 40
20
 41
0.8
 50
0
  1
90
  0
TEXT
  8
_0-0_
 62
    2
 10
1128.824658368085
 20
636.15633990313563
 40
20
 41
0.8
 50
0
  1
90
  0
TEXT
  8
_0-0_
 62
    2
 10
1128.824658368085
 20
605.68288854650552
 40
20
 41
0.8
 50
0
  1
90
  0
TEXT
  8
_0-0_
 62
    2
 10
1128.824658368085
 20
576.73317161766261
 40
20
 41
0.8
 50
0
  1
90
  0
LINE
  8
_0-0_
  6
CONTINUOUS
 62
    7
 10
1459.5152571394638
 20
240.32385542586042
 11
634.92062542889573
 21
240.32385542586042
  0
LINE
  8
_0-0_
  6
CONTINUOUS
 62
    7
 10
1459.5152571394638
 20
270.32386161185599
 11
634.92062542889573
 21
270.32386161185599
  0
LINE
  8
_0-0_
  6
CONTINUOUS
 62
    7
 10
1459.5152571394638
 20
300.32386779785156
 11
634.92062542889573
 21
300.32386779785156
  0
LINE
  8
_0-0_
  6
CONTINUOUS
 62
    7
 10
1459.5152571394638
 20
330.32384305386933
 11
634.92062542889573
 21
330.32384305386933
  0
LINE
  8
_0-0_
  6
CONTINUOUS
 62
    7
 10
1459.5152571394638
 20
360.3238492398649
 11
634.92062542889573
 21
360.3238492398649
  0
LINE
  8
_0-0_
  6
CONTINUOUS
 62
    7
 10
1459.5152571394638
 20
420.32386161185599
 11
634.92062542889573
 21
420.32386161185599
  0
LINE
  8
_0-0_
  6
CONTINUOUS
 62
    7
 10
1459.5152571394638
 20
390.32385542586047
 11
514.92063161489125
 21
390.32385542586047
  0
LINE
  8
_0-0_
  6
CONTINUOUS
 62
    7
 10
1459.5152571394638
 20
450.32386779785156
 11
634.92062542889573
 21
450.32386779785156
  0
LINE
  8
_0-0_
  6
CONTINUOUS
 62
    7
 10
1459.5152571394638
 20
480.32387398384714
 11
634.92062542889573
 21
480.32387398384714
  0
LINE
  8
_0-0_
  6
CONTINUOUS
 62
    7
 10
1459.5152571394638
 20
510.32388016984271
 11
634.92062542889573
 21
510.32388016984271
  0
LINE
  8
_0-0_
  6
CONTINUOUS
 62
    7
 10
1459.5152571394638
 20
540.32388635583834
 11
634.92062542889573
 21
540.32388635583834
  0
LINE
  8
_0-0_
  6
CONTINUOUS
 62
    7
 10
1459.5152571394638
 20
600.32389872782937
 11
634.92062542889573
 21
600.32389872782937
  0
LINE
  8
_0-0_
  6
CONTINUOUS
 62
    7
 10
1459.5152571394638
 20
630.32393584380281
 11
634.92062542889573
 21
630.32393584380281
  0
LINE
  8
_0-0_
  6
CONTINUOUS
 62
    7
 10
1459.5152571394638
 20
600.32389872782937
 11
634.92062542889573
 21
600.32389872782937
  0
LINE
  8
_0-0_
  6
CONTINUOUS
 62
    7
 10
1459.5152571394638
 20
660.32391109982063
 11
634.92062542889573
 21
660.32391109982063
  0
LINE
  8
_0-0_
  6
CONTINUOUS
 62
    7
 10
1459.5152571394638
 20
570.32392347181167
 11
514.92063161489125
 21
570.32392347181167
  0
LINE
  8
_0-0_
  6
CONTINUOUS
 62
    7
 10
1459.5152571394638
 20
690.32394821579396
 11
634.92062542889573
 21
690.32394821579396
  0
LINE
  8
_0-0_
  6
CONTINUOUS
 62
    7
 10
1459.5152571394638
 20
750.32389872782937
 11
634.92062542889573
 21
750.32389872782937
  0
LINE
  8
_0-0_
  6
CONTINUOUS
 62
    7
 10
1459.5152571394638
 20
780.32387398384708
 11
634.92062542889573
 21
780.32387398384708
  0
LINE
  8
_0-0_
  6
CONTINUOUS
 62
    7
 10
1459.5152571394638
 20
810.32384923986478
 11
634.92062542889573
 21
810.32384923986478
  0
LINE
  8
_0-0_
  6
CONTINUOUS
 62
    7
 10
1459.5152571394638
 20
840.32382449588272
 11
634.92062542889573
 21
840.32382449588272
  0
LINE
  8
_0-0_
  6
CONTINUOUS
 62
    7
 10
1459.5152571394638
 20
870.32379975190042
 11
634.92062542889573
 21
870.32379975190042
  0
LINE
  8
_0-0_
  6
CONTINUOUS
 62
    7
 10
1459.5152571394638
 20
900.32377500791813
 11
634.92062542889573
 21
900.32377500791813
  0
LINE
  8
_0-0_
  6
CONTINUOUS
 62
    7
 10
1459.5152571394638
 20
720.32392347181167
 11
514.92063161489125
 21
720.32392347181167
  0
LINE
  8
_0-0_
  6
CONTINUOUS
 62
    7
 10
1459.5152571394638
 20
990.32370077597136
 11
514.92063161489125
 21
990.32370077597136
  0
LINE
  8
_0-0_
  6
CONTINUOUS
 62
    7
 10
1459.5152571394638
 20
180.3238585188582
 11
514.92063161489125
 21
180.3238585188582
  0
LINE
  8
_0-0_
  6
CONTINUOUS
 62
    7
 10
1459.5152571394638
 20
210.32386470485378
 11
634.92062542889573
 21
210.32386470485378
  0
LINE
  8
_0-0_
  6
CONTINUOUS
 62
    7
 10
1459.5152571394638
 20
930.32375026393584
 11
514.92063161489125
 21
930.32375026393584
  0
TEXT
  8
_0-0_
 62
    2
 10
1209.8900270204288
 20
936.47688487781056
 40
20
 41
0.8
 50
0
  1
10
  0
TEXT
  8
_0-0_
 62
    2
 10
684.2517126959724
 20
937.00900421638732
 40
20
 41
0.8
 50
0
  1
250x250x 450
  0
TEXT
  8
_0-0_
 62
    2
 10
885.14674872321052
 20
936.47688487781056
 40
20
 41
0.8
 50
0
  1
250
  0
TEXT
  8
_0-0_
 62
    2
 10
965.02007603000948
 20
936.47688487781056
 40
20
 41
0.8
 50
0
  1
160
  0
TEXT
  8
_0-0_
 62
    2
 10
1044.8934342667865
 20
936.47688487781056
 40
20
 41
0.8
 50
0
  1
130
  0
TEXT
  8
_0-0_
 62
    2
 10
1128.824658368085
 20
936.47688487781056
 40
20
 41
0.8
 50
0
  1
45
  0
TEXT
  8
_0-0_
 62
    2
 10
1284.5133543272277
 20
936.47688487781056
 40
20
 41
0.8
 50
0
  1
450
  0
TEXT
  8
_0-0_
 62
    2
 10
1389.9029928671348
 20
935.97544807724046
 40
20
 41
0.8
 50
0
  1
45
  0
TEXT
  8
_0-0_
 62
    2
 10
1209.8900270204288
 20
995.67245105338372
 40
20
 41
0.8
 50
0
  1
10
  0
TEXT
  8
_0-0_
 62
    2
 10
1209.8900270204288
 20
966.72267226458519
 40
20
 41
0.8
 50
0
  1
10
  0
TEXT
  8
_0-0_
 62
    2
 10
684.7369421881599
 20
996.65540574880185
 40
20
 41
0.8
 50
0
  1
180x180x 450
  0
TEXT
  8
_0-0_
 62
    2
 10
685.69960681812188
 20
967.11869970071257
 40
20
 41
0.8
 50
0
  1
200x200x 450
  0
TEXT
  8
_0-0_
 62
    2
 10
885.14674872321052
 20
995.67245105338372
 40
20
 41
0.8
 50
0
  1
180
  0
TEXT
  8
_0-0_
 62
    2
 10
885.14674872321052
 20
966.72267226458519
 40
20
 41
0.8
 50
0
  1
200
  0
TEXT
  8
_0-0_
 62
    2
 10
965.02007603000948
 20
995.67245105338372
 40
20
 41
0.8
 50
0
  1
100
  0
TEXT
  8
_0-0_
 62
    2
 10
965.02007603000948
 20
966.72267226458519
 40
20
 41
0.8
 50
0
  1
120
  0
TEXT
  8
_0-0_
 62
    2
 10
1050.1433724068306
 20
995.67245105338372
 40
20
 41
0.8
 50
0
  1
75
  0
TEXT
  8
_0-0_
 62
    2
 10
1044.8934342667865
 20
966.72267226458519
 40
20
 41
0.8
 50
0
  1
100
  0
TEXT
  8
_0-0_
 62
    2
 10
1128.824658368085
 20
995.67245105338372
 40
20
 41
0.8
 50
0
  1
40
  0
TEXT
  8
_0-0_
 62
    2
 10
1128.824658368085
 20
966.72267226458519
 40
20
 41
0.8
 50
0
  1
40
  0
TEXT
  8
_0-0_
 62
    2
 10
1284.5133543272277
 20
995.67245105338372
 40
20
 41
0.8
 50
0
  1
450
  0
TEXT
  8
_0-0_
 62
    2
 10
1284.5133543272277
 20
966.72267226458519
 40
20
 41
0.8
 50
0
  1
450
  0
TEXT
  8
_0-0_
 62
    2
 10
1389.9029928671348
 20
995.38863757682122
 40
20
 41
0.8
 50
0
  1
27
  0
TEXT
  8
_0-0_
 62
    2
 10
1389.9029928671348
 20
966.60305587287917
 40
20
 41
0.8
 50
0
  1
30
  0
LINE
  8
_0-0_
  6
CONTINUOUS
 62
    7
 10
1459.5152571394638
 20
1020.3236760319891
 11
514.92063161489125
 21
1020.3236760319891
  0
LINE
  8
_0-0_
  6
CONTINUOUS
 62
    7
 10
1459.5152571394638
 20
960.32372551995365
 11
514.92063161489125
 21
960.32372551995365
  0
TEXT
  8
_0-0_
 62
    2
 10
534.2043844686973
 20
935.04103439154665
 40
20
 41
0.8
 50
0
  1
２５０型
  0
TEXT
  8
_0-0_
 62
    2
 10
534.2043844686973
 20
965.73542031901513
 40
20
 41
0.8
 50
0
  1
２００型
  0
TEXT
  8
_0-0_
 62
    2
 10
534.2043844686973
 20
994.1561480296341
 40
20
 41
0.8
 50
0
  1
１８０型
  0
LINE
  8
_0-0_
  6
CONTINUOUS
 62
    7
 10
1459.5152571394638
 20
1080.3236760319892
 11
514.92063161489125
 21
1080.3236760319892
  0
LINE
  8
_0-0_
  6
CONTINUOUS
 62
    7
 10
1339.5152323954815
 20
1050.3236760319892
 11
859.92056356894011
 21
1050.3236760319892
  0
TEXT
  8
_0-0_
 62
    2
 10
534.36874637088272
 20
1039.1102882316186
 40
20
 41
0.8
 50
0
  1
種　　類
  0
TEXT
  8
_0-0_
 62
    2
 10
696.00168176599459
 20
1039.1102882316186
 40
20
 41
0.8
 50
0
  1
呼　び　名
  0
TEXT
  8
_0-0_
 62
    2
 10
891.07875061035156
 20
1025.7928909778402
 40
20
 41
0.8
 50
0
  1
Ａ
  0
TEXT
  8
_0-0_
 62
    2
 10
971.77568136679167
 20
1025.7928909778402
 40
20
 41
0.8
 50
0
  1
Ｂ
  0
TEXT
  8
_0-0_
 62
    2
 10
1051.2309900232265
 20
1025.7928909778402
 40
20
 41
0.8
 50
0
  1
Ｃ
  0
TEXT
  8
_0-0_
 62
    2
 10
1130.6863914695946
 20
1025.7928909778402
 40
20
 41
0.8
 50
0
  1
Ｄ
  0
TEXT
  8
_0-0_
 62
    2
 10
1211.383260366079
 20
1025.7928909778402
 40
20
 41
0.8
 50
0
  1
Ｅ
  0
TEXT
  8
_0-0_
 62
    2
 10
1290.8386618124473
 20
1024.1751211377127
 40
20
 41
0.8
 50
0
  1
Ｈ
  0
TEXT
  8
_0-0_
 62
    2
 10
1359.8044260385877
 20
1052.9790468087642
 40
20
 41
0.8
 50
0
  1
参考重量
  0
TEXT
  8
_0-0_
 62
    2
 10
1379.5544260385875
 20
1024.4910525889586
 40
20
 41
0.8
 50
0
  1
(kg)
  0
LINE
  8
_0-0_
  6
CONTINUOUS
 62
    7
 10
939.85296713339324
 20
1050.3236760319892
 11
939.85296713339324
 21
180.3238585188582
  0
LINE
  8
_0-0_
  6
CONTINUOUS
 62
    7
 10
1019.785432557802
 20
1050.3236760319892
 11
1019.785432557802
 21
180.3238585188582
  0
LINE
  8
_0-0_
  6
CONTINUOUS
 62
    7
 10
1099.7179598421665
 20
1050.3236760319892
 11
1099.7179598421665
 21
180.3238585188582
  0
LINE
  8
_0-0_
  6
CONTINUOUS
 62
    7
 10
1179.650301546664
 20
1050.3236760319892
 11
1179.650301546664
 21
180.3238585188582
  0
LINE
  8
_0-0_
  6
CONTINUOUS
 62
    7
 10
1259.5827669710727
 20
1050.3236760319892
 11
1259.5827669710727
 21
180.3238585188582
  0
TEXT
  8
_0-0_
 62
    2
 10
1011.4531683019691
 20
1054.9127481001381
 40
20
 41
0.8
 50
0
  1
寸     法    (mm)
  0
LINE
  8
_0-0_
  6
CONTINUOUS
 62
    7
 10
1339.5152323954815
 20
180.3238585188582
 11
1339.5152323954815
 21
1080.3236760319892
  0
LINE
  8
_0-0_
  6
CONTINUOUS
 62
    7
 10
1459.5152571394638
 20
180.3238585188582
 11
1459.5152571394638
 21
1080.3236760319892
  0
LINE
  8
_0-0_
  6
CONTINUOUS
 62
    7
 10
859.92056356894011
 20
1080.3236760319892
 11
859.92056356894011
 21
180.3238585188582
  0
LINE
  8
_0-0_
  6
CONTINUOUS
 62
    7
 10
634.92062542889573
 20
1080.3236760319892
 11
634.92062542889573
 21
180.3238585188582
  0
LINE
  8
_0-0_
  6
CONTINUOUS
 62
    7
 10
514.92063161489125
 20
1080.3236760319892
 11
514.92063161489125
 21
180.3238585188582
  0
LINE
  8
_0-0_
  6
CONTINUOUS
 62
    7
 10
-179.34030742954718
 20
1145.2519214346712
 11
-179.34030742954718
 21
45.25192143467109
  0
LINE
  8
_0-0_
  6
CONTINUOUS
 62
    7
 10
-68.238380803564667
 20
789.91708409026842
 11
-78.238413795541248
 21
779.91717481820331
  0
LINE
  8
_0-0_
  6
CONTINUOUS
 62
    7
 10
-78.238413795541248
 20
339.91708409026813
 11
-78.238413795541248
 21
779.91717481820331
  0
LINE
  8
_0-0_
  6
CONTINUOUS
 62
    7
 10
101.76156146047674
 20
339.91708409026813
 11
-78.238413795541248
 21
339.91708409026813
  0
LINE
  8
_0-0_
  6
CONTINUOUS
 62
    7
 10
91.76152846850016
 20
789.91708409026842
 11
101.76156146047674
 21
779.91717481820331
  0
LINE
  8
_0-0_
  6
CONTINUOUS
 62
    7
 10
-68.238380803564667
 20
789.91708409026842
 11
91.76152846850016
 21
789.91708409026842
  0
LINE
  8
_0-0_
  6
CONTINUOUS
 62
    7
 10
-78.238413795541248
 20
779.91717481820331
 11
101.76156146047674
 21
779.91717481820331
  0
LINE
  8
_0-0_
  6
CONTINUOUS
 62
    7
 10
101.76156146047674
 20
339.91708409026813
 11
101.76156146047674
 21
779.91717481820331
  0
LINE
  8
_0-0_
  6
CONTINUOUS
 62
    7
 10
-38.238405547546961
 20
779.91717481820331
 11
-25.73836430757666
 21
339.91708409026813
  0
LINE
  8
_0-0_
  6
CONTINUOUS
 62
    7
 10
61.761553212482454
 20
779.91717481820331
 11
49.26163569242334
 21
339.91708409026813
  0
LINE
  8
_0-0_
  6
CONTINUOUS
 62
    7
 10
-63.23836430757666
 20
639.91708409026842
 11
-78.238413795541248
 21
589.91704285029778
  0
LINE
  8
_0-0_
  6
CONTINUOUS
 62
    7
 10
86.761511972512153
 20
639.91708409026842
 11
101.76156146047674
 21
589.91704285029778
  0
LINE
  8
_0-0_
  6
CONTINUOUS
 62
    7
 10
-63.23836430757666
 20
639.91708409026842
 11
-78.238413795541248
 21
639.91708409026842
  0
LINE
  8
_0-0_
  6
CONTINUOUS
 62
    7
 10
86.761511972512153
 20
639.91708409026842
 11
101.76156146047674
 21
639.91708409026842
  0
LINE
  8
_0-0_
  6
CONTINUOUS
 62
    7
 10
238.62267362209423
 20
640.94866881848338
 11
248.62270661407081
 21
630.94863582650703
  0
LINE
  8
_0-0_
  6
CONTINUOUS
 62
    7
 10
378.62264063011821
 20
600.94866057048932
 11
278.62280558999998
 21
600.94866057048932
  0
LINE
  8
_0-0_
  6
CONTINUOUS
 62
    7
 10
378.62264063011821
 20
500.94870181045962
 11
278.62280558999998
 21
500.94870181045962
  0
LINE
  8
_0-0_
  6
CONTINUOUS
 62
    7
 10
278.62280558999998
 20
600.94866057048932
 11
278.62280558999998
 21
500.94870181045962
  0
LINE
  8
_0-0_
  6
CONTINUOUS
 62
    7
 10
378.62264063011821
 20
600.94866057048932
 11
378.62264063011821
 21
500.94870181045962
  0
LINE
  8
_0-0_
  6
CONTINUOUS
 62
    7
 10
238.62267362209423
 20
640.94866881848338
 11
238.62267362209423
 21
460.94869356246562
  0
LINE
  8
_0-0_
  6
CONTINUOUS
 62
    7
 10
418.62277259802335
 20
640.94866881848338
 11
418.62277259802335
 21
460.94869356246562
  0
LINE
  8
_0-0_
  6
CONTINUOUS
 62
    7
 10
418.62277259802335
 20
640.94866881848338
 11
238.62267362209423
 21
640.94866881848338
  0
LINE
  8
_0-0_
  6
CONTINUOUS
 62
    7
 10
418.62277259802335
 20
460.94869356246562
 11
238.62267362209423
 21
460.94869356246562
  0
LINE
  8
_0-0_
  6
CONTINUOUS
 62
    7
 10
418.62277259802335
 20
640.94866881848338
 11
408.62273960604682
 21
630.94863582650703
  0
LINE
  8
_0-0_
  6
CONTINUOUS
 62
    7
 10
408.62273960604682
 20
470.94872655444192
 11
418.62277259802335
 21
460.94869356246562
  0
LINE
  8
_0-0_
  6
CONTINUOUS
 62
    7
 10
248.62270661407081
 20
470.94872655444192
 11
238.62267362209423
 21
460.94869356246562
  0
LINE
  8
_0-0_
  6
CONTINUOUS
 62
    7
 10
248.62270661407081
 20
630.94863582650703
 11
248.62270661407081
 21
470.94872655444192
  0
LINE
  8
_0-0_
  6
CONTINUOUS
 62
    7
 10
408.62273960604682
 20
630.94863582650703
 11
248.62270661407081
 21
630.94863582650703
  0
LINE
  8
_0-0_
  6
CONTINUOUS
 62
    7
 10
408.62273960604682
 20
470.94872655444192
 11
248.62270661407081
 21
470.94872655444192
  0
LINE
  8
_0-0_
  6
CONTINUOUS
 62
    7
 10
408.62273960604682
 20
630.94863582650703
 11
408.62273960604682
 21
470.94872655444192
  0
LINE
  8
_0-0_
  6
CONTINUOUS
 62
    7
 10
-78.238413795541248
 20
853.61786023852915
 11
-38.238405547546961
 21
853.61786023852915
  0
POINT
  8
_0-0_
 62
    4
 10
-78.238413795541248
 20
853.61786023852915
  0
POINT
  8
_0-0_
 62
    4
 10
-38.238405547546961
 20
853.61786023852915
  0
LINE
  8
_0-0_
  6
CONTINUOUS
 62
    7
 10
-78.238413795541248
 20
853.61786023852915
 11
-78.238413795541248
 21
801.97762115924002
  0
LINE
  8
_0-0_
  6
CONTINUOUS
 62
    7
 10
-38.238405547546961
 20
853.61786023852915
 11
-38.238405547546961
 21
801.97762115924002
  0
LINE
  8
_0-0_
  6
CONTINUOUS
 62
    7
 10
-38.238405547546961
 20
853.61786023852915
 11
61.761553212482454
 21
853.61786023852915
  0
POINT
  8
_0-0_
 62
    4
 10
61.761553212482454
 20
853.61786023852915
  0
LINE
  8
_0-0_
  6
CONTINUOUS
 62
    7
 10
61.761553212482454
 20
853.61786023852915
 11
61.761553212482454
 21
801.97762115924002
  0
LINE
  8
_0-0_
  6
CONTINUOUS
 62
    7
 10
61.761553212482454
 20
853.61786023852915
 11
101.76156146047674
 21
853.61786023852915
  0
POINT
  8
_0-0_
 62
    4
 10
101.76156146047674
 20
853.61786023852915
  0
LINE
  8
_0-0_
  6
CONTINUOUS
 62
    7
 10
101.76156146047674
 20
853.61786023852915
 11
101.76156146047674
 21
801.97762115924002
  0
LINE
  8
_0-0_
  6
CONTINUOUS
 62
    7
 10
-78.238413795541248
 20
823.49438744227723
 11
-68.238380803564667
 21
823.49438744227723
  0
POINT
  8
_0-0_
 62
    4
 10
-78.238413795541248
 20
823.49438744227723
  0
POINT
  8
_0-0_
 62
    4
 10
-68.238380803564667
 20
823.49438744227723
  0
LINE
  8
_0-0_
  6
CONTINUOUS
 62
    7
 10
-78.238413795541248
 20
823.49438744227723
 11
-78.238413795541248
 21
801.97762115924002
  0
LINE
  8
_0-0_
  6
CONTINUOUS
 62
    7
 10
-68.238380803564667
 20
823.49438744227723
 11
-68.238380803564667
 21
801.97762115924002
  0
LINE
  8
_0-0_
  6
CONTINUOUS
 62
    7
 10
101.76156146047674
 20
823.49438744227723
 11
91.76152846850016
 21
823.49438744227723
  0
POINT
  8
_0-0_
 62
    4
 10
101.76156146047674
 20
823.49438744227723
  0
POINT
  8
_0-0_
 62
    4
 10
91.76152846850016
 20
823.49438744227723
  0
LINE
  8
_0-0_
  6
CONTINUOUS
 62
    7
 10
101.76156146047674
 20
823.49438744227723
 11
101.76156146047674
 21
801.97762115924002
  0
LINE
  8
_0-0_
  6
CONTINUOUS
 62
    7
 10
91.76152846850016
 20
823.49438744227723
 11
91.76152846850016
 21
801.97762115924002
  0
TEXT
  8
_0-0_
 62
    3
 10
-65.488409671544048
 20
853.61786023852915
 40
15
 41
0.7999999999999999
 50
0
  1
D
  0
TEXT
  8
_0-0_
 62
    3
 10
0.2615738324676897
 20
853.61786023852915
 40
15
 41
0.7999999999999999
 50
0
  1
B
  0
TEXT
  8
_0-0_
 62
    3
 10
74.511557336479655
 20
853.61786023852915
 40
15
 41
0.7999999999999999
 50
0
  1
D
  0
TEXT
  8
_0-0_
 62
    3
 10
-70.869627305177545
 20
825.52994183984708
 40
15
 41
0.7999999999999999
 50
0
  1
E
  0
TEXT
  8
_0-0_
 62
    3
 10
84.474594538895076
 20
823.26214298080959
 40
15
 41
0.7999999999999999
 50
0
  1
E
  0
LINE
  8
_0-0_
  6
CONTINUOUS
 62
    7
 10
-121.01160499468918
 20
779.91717481820331
 11
-121.01160499468918
 21
339.91708409026813
  0
POINT
  8
_0-0_
 62
    4
 10
-121.01160499468918
 20
779.91717481820331
  0
POINT
  8
_0-0_
 62
    4
 10
-121.01160499468918
 20
339.91708409026813
  0
LINE
  8
_0-0_
  6
CONTINUOUS
 62
    7
 10
-121.01160499468918
 20
779.91717481820331
 11
-93.968103600666382
 21
779.91717481820331
  0
LINE
  8
_0-0_
  6
CONTINUOUS
 62
    7
 10
-121.01160499468918
 20
339.91708409026813
 11
-93.968103600666382
 21
339.91708409026813
  0
TEXT
  8
_0-0_
 62
    3
 10
-121.01160499468918
 20
548.41712945423569
 40
15
 41
0.7999999999999999
 50
90
  1
H
  0
LINE
  8
_0-0_
  6
CONTINUOUS
 62
    7
 10
-25.73836430757666
 20
292.77050205289186
 11
49.26163569242334
 21
292.77050205289186
  0
POINT
  8
_0-0_
 62
    4
 10
-25.73836430757666
 20
292.77050205289186
  0
POINT
  8
_0-0_
 62
    4
 10
49.26163569242334
 20
292.77050205289186
  0
LINE
  8
_0-0_
  6
CONTINUOUS
 62
    7
 10
-25.73836430757666
 20
292.77050205289186
 11
-25.73836430757666
 21
310.87774717193236
  0
LINE
  8
_0-0_
  6
CONTINUOUS
 62
    7
 10
49.26163569242334
 20
292.77050205289186
 11
49.26163569242334
 21
310.87774717193236
  0
TEXT
  8
_0-0_
 62
    3
 10
6.4183137070543239
 20
275.50634559547859
 40
15
 41
0.7999999999999999
 50
0
  1
C
  0
LINE
  8
_0-0_
  6
CONTINUOUS
 62
    7
 10
192.24348903794976
 20
640.94866881848338
 11
192.24348903794976
 21
460.94869356246562
  0
POINT
  8
_0-0_
 62
    4
 10
192.24348903794976
 20
640.94866881848338
  0
POINT
  8
_0-0_
 62
    4
 10
192.24348903794976
 20
460.94869356246562
  0
LINE
  8
_0-0_
  6
CONTINUOUS
 62
    7
 10
192.24348903794976
 20
640.94866881848338
 11
228.65290931277144
 21
640.94866881848338
  0
LINE
  8
_0-0_
  6
CONTINUOUS
 62
    7
 10
192.24348903794976
 20
460.94869356246562
 11
228.65290931277144
 21
460.94869356246562
  0
TEXT
  8
_0-0_
 62
    3
 10
192.24348903794976
 20
539.44868119047453
 40
15
 41
0.7999999999999999
 50
90
  1
A
  0
LINE
  8
_0-0_
  6
CONTINUOUS
 62
    7
 10
238.62267362209423
 20
669.7369917956438
 11
248.62270661407081
 21
669.7369917956438
  0
POINT
  8
_0-0_
 62
    4
 10
238.62267362209423
 20
669.7369917956438
  0
POINT
  8
_0-0_
 62
    4
 10
248.62270661407081
 20
669.7369917956438
  0
LINE
  8
_0-0_
  6
CONTINUOUS
 62
    7
 10
238.62267362209423
 20
669.7369917956438
 11
238.62267362209423
 21
649.22970279750916
  0
LINE
  8
_0-0_
  6
CONTINUOUS
 62
    7
 10
248.62270661407081
 20
669.7369917956438
 11
248.62270661407081
 21
649.22970279750916
  0
LINE
  8
_0-0_
  6
CONTINUOUS
 62
    7
 10
278.62280558999998
 20
669.7369917956438
 11
378.62264063011821
 21
669.7369917956438
  0
POINT
  8
_0-0_
 62
    4
 10
278.62280558999998
 20
669.7369917956438
  0
POINT
  8
_0-0_
 62
    4
 10
378.62264063011821
 20
669.7369917956438
  0
LINE
  8
_0-0_
  6
CONTINUOUS
 62
    7
 10
278.62280558999998
 20
669.7369917956438
 11
278.62280558999998
 21
649.22970279750916
  0
LINE
  8
_0-0_
  6
CONTINUOUS
 62
    7
 10
378.62264063011821
 20
669.7369917956438
 11
378.62264063011821
 21
649.22970279750916
  0
TEXT
  8
_0-0_
 62
    3
 10
236.37269011808257
 20
669.7369917956438
 40
15
 41
0.7999999999999999
 50
0
  1
E
  0
TEXT
  8
_0-0_
 62
    3
 10
317.12272311005904
 20
669.7369917956438
 40
15
 41
0.7999999999999999
 50
0
  1
B
  0
LINE
  8
_0-0_
  6
CONTINUOUS
 62
    7
 10
-179.34030742954718
 20
1195.2519214346712
 11
-179.34030742954718
 21
1145.2519214346712
  0
LINE
  8
_0-0_
  6
CONTINUOUS
 62
    7
 10
-179.34030742954718
 20
45.25192143467109
 11
1475.0064047822377
 21
45.25192143467109
  0
LINE
  8
_0-0_
  6
CONTINUOUS
 62
    7
 10
1475.0064047822377
 20
45.25192143467109
 11
1475.0064047822377
 21
1195.2519214346712
  0
LINE
  8
_0-0_
  6
CONTINUOUS
 62
    7
 10
-179.34030742954718
 20
1195.2519214346712
 11
1475.0064047822377
 21
1195.2519214346712
  0
LINE
  8
_0-0_
  6
CONTINUOUS
 62
    7
 10
-179.34030742954718
 20
95.25192143467109
 11
1475.0064047822377
 21
95.25192143467109
  0
LINE
  8
_0-0_
  6
CONTINUOUS
 62
    7
 10
-7.6548689287636762
 20
95.25192143467109
 11
-7.6548689287636762
 21
45.25192143467109
  0
LINE
  8
_0-0_
  6
CONTINUOUS
 62
    7
 10
610.99395065707824
 20
95.25192143467109
 11
610.99395065707824
 21
45.25192143467109
  0
TEXT
  8
_0-0_
 62
    6
 10
-113.01904921345013
 20
57.205231429048524
 40
25
 41
0.8
 50
0
  1
名称
  0
TEXT
  8
_0-0_
 62
    6
 10
208.19453988212103
 20
59.25117785640893
 40
25
 41
0.8
 50
0
  1
基礎ﾌﾞﾛｯｸ
  0
TEXT
  8
_0-0_
 62
    6
 10
866.98928949214576
 20
57.205231429048524
 40
25
 41
0.8
 50
0
  1
岩城ブロック工業株式会社
  0
ENDSEC
  0
EOF
