  0
SECTION
  2
HEADER
  9
$ACADVER
  1
AC1009
  9
$INSBASE
 10
0
 20
0
 30
0
  9
$EXTMIN
 10
0
 20
0
  9
$EXTMAX
 10
5940
 20
4200
  9
$LIMMIN
 10
0
 20
0
  9
$LIMMAX
 10
5940
 20
4200
  9
$LTSCALE
 40
10
  0
ENDSEC
  0
SECTION
  2
TABLES
  0
TABLE
  2
LTYPE
 70
     9
  0
LTYPE
  2
CONTINUOUS
 70
    64
  3
実線
 72
    65
 73
     0
 40
0.0
  0
LTYPE
  2
DASHED1
 70
    64
  3
--  --  --  --  --  --  --  --  
 72
    65
 73
     2
 40
2.5
 49
1.25
 49
-1.25
  0
LTYPE
  2
DASHED2
 70
    64
  3
----    ----    ----    ----    
 72
    65
 73
     2
 40
5.0
 49
2.5
 49
-2.5
  0
LTYPE
  2
DASHED3
 70
    64
  3
------  ------  ------  ------  
 72
    65
 73
     2
 40
5.0
 49
3.75
 49
-1.25
  0
LTYPE
  2
CENTER1
 70
    64
  3
----- - ----- - ----- - ----- - 
 72
    65
 73
     4
 40
10.0
 49
6.25
 49
-1.25
 49
1.25
 49
-1.25
  0
LTYPE
  2
CENTER2
 70
    64
  3
----------  --  ----------  --  
 72
    65
 73
     4
 40
20.0
 49
12.5
 49
-2.5
 49
2.5
 49
-2.5
  0
LTYPE
  2
PHANTOM1
 70
    64
  3
--- - - --- - - --- - - --- - - 
 72
    65
 73
     6
 40
10.0
 49
3.25
 49
-1.25
 49
1.25
 49
-1.25
 49
1.25
 49
-1.25
  0
LTYPE
  2
PHANTOM2
 70
    64
  3
--------  -  -  --------  -  -  
 72
    65
 73
     6
 40
20.0
 49
10.0
 49
-2.5
 49
1.25
 49
-2.5
 49
1.25
 49
-2.5
  0
LTYPE
  2
DOT
 70
    64
  3
-   -   -   -   -   -   -   -   
 72
    65
 73
     2
 40
2.5
 49
0.625
 49
-1.875
  0
LTYPE
  2
DUMMY
 70
    64
  3
ダミー
 72
    65
 73
     0
 40
0.0
  0
LTYPE
  2
RAND1
 70
    64
  3
ランダム線1
 72
    65
 73
     4
 40
10.0
 49
1.0
 49
-2.0
 49
3.0
 49
-4.0
  0
LTYPE
  2
RAND2
 70
    64
  3
ランダム線2
 72
    65
 73
     4
 40
14.0
 49
2.0
 49
-3.0
 49
4.0
 49
-5.0
  0
LTYPE
  2
RAND3
 70
    64
  3
ランダム線3
 72
    65
 73
     4
 40
18.0
 49
3.0
 49
-4.0
 49
5.0
 49
-6.0
  0
LTYPE
  2
RAND4
 70
    64
  3
ランダム線4
 72
    65
 73
     4
 40
22.0
 49
4.0
 49
-5.0
 49
6.0
 49
-7.0
  0
LTYPE
  2
RAND5
 70
    64
  3
ランダム線5
 72
    65
 73
     4
 40
26.0
 49
5.0
 49
-6.0
 49
7.0
 49
-8.0
  0
LTYPE
  2
LONG1
 70
    64
  3
----------  --  ----------  --  
 72
    65
 73
     4
 40
40.0
 49
32.5
 49
-2.5
 49
2.5
 49
-2.5
  0
LTYPE
  2
LONG2
 70
    64
  3
--------  -  -  --------  -  -  
 72
    65
 73
     6
 40
40.0
 49
30.0
 49
-2.5
 49
1.25
 49
-2.5
 49
1.25
 49
-2.5
  0
LTYPE
  2
LONG3
 70
    64
  3
+++++++++++++++..+++++++++++++++
 72
    65
 73
     2
 40
40.0
 49
37.5
 49
-2.5
  0
LTYPE
  2
LONG4
 70
    64
  3
+++++++++++++++..+++++++++++++++
 72
    65
 73
     2
 40
80.0
 49
75.0
 49
-5.0
  0
LTYPE
  2
LONG5
 70
    64
  3
----------  --  ----------  --  
 72
    65
 73
     4
 40
60.0
 49
37.5
 49
-7.5
 49
7.5
 49
-7.5
  0
LTYPE
  2
dashed
 70
   64
  3
-------   -------------   ------
 72
   65
 73
    2
 40
7.5
 49
6
 49
-1.5
  0
LTYPE
  2
dashed_spaced
 70
   64
  3
----        --------        ----
 72
   65
 73
    2
 40
12
 49
6
 49
-6
  0
LTYPE
  2
long_dashed_dotted
 70
   64
  3
------------- --- --------------
 72
   65
 73
    4
 40
15.25
 49
12
 49
-1.5
 49
0.25
 49
-1.5
  0
LTYPE
  2
long_dashed_double-dotted
 70
   64
  3
----------- --- --- ------------
 72
   65
 73
    6
 40
17
 49
12
 49
-1.5
 49
0.25
 49
-1.5
 49
0.25
 49
-1.5
  0
LTYPE
  2
long_dashed_triplicate-dotted
 70
   64
  3
--------- --- --- --- ----------
 72
   65
 73
    8
 40
18.75
 49
12
 49
-1.5
 49
0.25
 49
-1.5
 49
0.25
 49
-1.5
 49
0.25
 49
-1.5
  0
LTYPE
  2
dotted
 70
   64
  3
   -       -       -       -    
 72
   65
 73
    2
 40
1.75
 49
0.25
 49
-1.5
  0
LTYPE
  2
chain
 70
   64
  3
-------------- -- --------------
 72
   65
 73
    4
 40
18.5
 49
12
 49
-1.5
 49
3.5
 49
-1.5
  0
LTYPE
  2
chain_double_dash
 70
   64
  3
------------ -- -- -------------
 72
   65
 73
    6
 40
23.5
 49
12
 49
-1.5
 49
3.5
 49
-1.5
 49
3.5
 49
-1.5
  0
LTYPE
  2
dashed_dotted
 70
   64
  3
-----------     -     ----------
 72
   65
 73
    4
 40
9.25
 49
6
 49
-1.5
 49
0.25
 49
-1.5
  0
LTYPE
  2
double-dashed_dotted
 70
   64
  3
------   -----------   -   -----
 72
   65
 73
    6
 40
16.75
 49
6
 49
-1.5
 49
6
 49
-1.5
 49
0.25
 49
-1.5
  0
LTYPE
  2
dashed_double-dotted
 70
   64
  3
---------    -    -    ---------
 72
   65
 73
    6
 40
11
 49
6
 49
-1.5
 49
0.25
 49
-1.5
 49
0.25
 49
-1.5
  0
LTYPE
  2
double-dashed_double-dotted
 70
   64
  3
-----   ---------   -   -   ----
 72
   65
 73
    8
 40
18.5
 49
6
 49
-1.5
 49
6
 49
-1.5
 49
0.25
 49
-1.5
 49
0.25
 49
-1.5
  0
LTYPE
  2
dashed_triplicate-dotted
 70
   64
  3
-------    -    -    -    ------
 72
   65
 73
    8
 40
12.75
 49
6
 49
-1.5
 49
0.25
 49
-1.5
 49
0.25
 49
-1.5
 49
0.25
 49
-1.5
  0
LTYPE
  2
double-dashed_triplicate-dotted
 70
   64
  3
-----  ---------  -  -  -  -----
 72
   65
 73
   10
 40
20.25
 49
6
 49
-1.5
 49
6
 49
-1.5
 49
0.25
 49
-1.5
 49
0.25
 49
-1.5
 49
0.25
 49
-1.5
  0
LTYPE
  2
undefined
 70
   64
  3
--------------------------------
 72
   65
 73
    0
 40
0
  0
LTYPE
  2
_
 70
   64
  3
                                
 72
   65
 73
    0
 40
0
  0
LTYPE
  2
__18
 70
   64
  3
                                
 72
   65
 73
    0
 40
0
  0
LTYPE
  2
__19
 70
   64
  3
                                
 72
   65
 73
    0
 40
0
  0
LTYPE
  2
__20
 70
   64
  3
                                
 72
   65
 73
    0
 40
0
  0
LTYPE
  2
__21
 70
   64
  3
                                
 72
   65
 73
    0
 40
0
  0
LTYPE
  2
__22
 70
   64
  3
                                
 72
   65
 73
    0
 40
0
  0
LTYPE
  2
__23
 70
   64
  3
                                
 72
   65
 73
    0
 40
0
  0
LTYPE
  2
__24
 70
   64
  3
                                
 72
   65
 73
    0
 40
0
  0
LTYPE
  2
__25
 70
   64
  3
                                
 72
   65
 73
    0
 40
0
  0
LTYPE
  2
__26
 70
   64
  3
                                
 72
   65
 73
    0
 40
0
  0
LTYPE
  2
__27
 70
   64
  3
                                
 72
   65
 73
    0
 40
0
  0
LTYPE
  2
__28
 70
   64
  3
                                
 72
   65
 73
    0
 40
0
  0
LTYPE
  2
__29
 70
   64
  3
                                
 72
   65
 73
    0
 40
0
  0
LTYPE
  2
__30
 70
   64
  3
                                
 72
   65
 73
    0
 40
0
  0
LTYPE
  2
__31
 70
   64
  3
                                
 72
   65
 73
    0
 40
0
  0
LTYPE
  2
__32
 70
   64
  3
                                
 72
   65
 73
    0
 40
0
  0
ENDTAB
  0
TABLE
  2
STYLE
  5
3
100
AcDbSymbolTable
 70
     1
  0
STYLE
  5
10
100
AcDbSymbolTableRecord
100
AcDbTextStyleTableRecord
  2
STANDARD
 70
     0
 40
0.0
 41
1.0
 50
0.0
 71
     0
 42
0.2
  3
txt
  4
bigfont.shx
  0
STYLE
  5
26
100
AcDbSymbolTableRecord
100
AcDbTextStyleTableRecord
  2
TATEGAKI
 70
    68
 40
0.0
 41
1.0
 50
0.0
 71
     0
 42
1.0
  3
txt
  4
bigfont.shx
  0
ENDTAB
  0
TABLE
  2
LAYER
 70
    3
  0
LAYER
  2
_0-0_
 70
   64
 62
    7
  6
CONTINUOUS
  0
LAYER
  2
_1-0_
 70
   64
 62
    7
  6
CONTINUOUS
  0
LAYER
  2
ADD_LINE
 70
   64
 62
    7
  6
CONTINUOUS
  0
ENDTAB
  0
ENDSEC
  0
SECTION
  2
BLOCKS
  0
ENDSEC
  0
SECTION
  2
ENTITIES
  0
TEXT
  8
_0-0_
 62
    7
 10
1724.5726087415541
 20
2601.7684441643791
 40
40
 41
0.8
 50
0
  1
54
  0
TEXT
  8
_0-0_
 62
    7
 10
1893.8226079167545
 20
2601.7684441643791
 40
40
 41
0.8
 50
0
  1
302
  0
TEXT
  8
_0-0_
 62
    7
 10
2080.5725708007812
 20
2601.7684441643791
 40
40
 41
0.8
 50
0
  1
54
  0
TEXT
  8
_0-0_
 62
    7
 10
1670.0725959571632
 20
2670.0184095228041
 40
40
 41
0.8
 50
0
  1
55
  0
TEXT
  8
_0-0_
 62
    7
 10
1893.8226079167545
 20
2670.0184095228041
 40
40
 41
0.8
 50
0
  1
410
  0
TEXT
  8
_0-0_
 62
    7
 10
2135.0725526551941
 20
2670.0184095228041
 40
40
 41
0.8
 50
0
  1
55
  0
TEXT
  8
_0-0_
 62
    7
 10
1893.8226079167545
 20
2748.7683600348395
 40
40
 41
0.8
 50
0
  1
520
  0
TEXT
  8
_0-0_
 62
    7
 10
3419.5727126662795
 20
2748.7683600348395
 40
40
 41
0.8
 50
0
  1
2,000
  0
TEXT
  8
_1-0_
 62
    7
 10
3947.6926236539275
 20
1069.9005147573111
 40
50
 41
0.8
 50
0
  1
岩城ブロック工業株式会社
  0
TEXT
  8
_1-0_
 62
    7
 10
3318.5746525944891
 20
1072.8475539748733
 40
40
 41
0.8
 50
0
  1
参考重量
  0
TEXT
  8
_1-0_
 62
    7
 10
2936.8351638381545
 20
1069.3255573994406
 40
40
 41
0.8
 50
0
  1
図　番
  0
TEXT
  8
_1-0_
 62
    7
 10
2436.6525738690352
 20
1066.077600427576
 40
40
 41
0.8
 50
0
  1
分　類
  0
TEXT
  8
_1-0_
 62
    7
 10
1374.5765980900944
 20
1069.3257120493296
 40
40
 41
0.8
 50
0
  1
名　称
  0
TEXT
  8
_0-0_
 62
    7
 10
1523.6250016496535
 20
2848.1250989759055
 40
60
 41
0.7999999999999999
 50
-0.0000506330528652
  1
断  面  図
  0
TEXT
  8
_0-0_
 62
    7
 10
2405.6249917520603
 20
2869.1250692831822
 40
60
 41
0.7999999999999999
 50
-0.0000506330756635
  1
側  面  図
  0
TEXT
  8
_0-0_
 62
    7
 10
1819.1985791180586
 20
1920.0280596758871
 40
30
 41
0.7999999999999999
 50
0
  1
R50
  0
TEXT
  8
_0-0_
 62
    7
 10
2206.4875471785262
 20
2276.0024117134712
 40
40
 41
0.8
 50
0
  1
連結金具
  0
TEXT
  8
_0-0_
 62
    7
 10
1554.4186743963257
 20
2310.6435010755385
 40
40
 41
0.8
 50
90.000002504478004
  1
290
  0
TEXT
  8
_0-0_
 62
    7
 10
1554.418673937356
 20
2154.1435192211256
 40
40
 41
0.8
 50
90.00000250447816
  1
40
  0
TEXT
  8
_0-0_
 62
    7
 10
1554.4186743963257
 20
1948.1435423155087
 40
40
 41
0.8
 50
90.000002504478004
  1
355
  0
TEXT
  8
_0-0_
 62
    7
 10
1495.1727348838151
 20
2113.1434680835623
 40
40
 41
0.8
 50
90.000002504478004
  1
685
  0
TEXT
  8
_0-0_
 62
    7
 10
1729.3225563667917
 20
1715.4899720887879
 40
40
 41
0.8
 50
0
  1
90
  0
TEXT
  8
_0-0_
 62
    7
 10
1895.8225402832031
 20
1715.4899720887879
 40
40
 41
0.8
 50
0
  1
260
  0
TEXT
  8
_0-0_
 62
    7
 10
2079.3225666767843
 20
1715.4899720887879
 40
40
 41
0.8
 50
0
  1
90
  0
TEXT
  8
_0-0_
 62
    7
 10
1918.8225588716209
 20
2123.1435010755385
 40
40
 41
0.8
 50
90.00000250447816
  1
525
  0
TEXT
  8
_0-0_
 62
    7
 10
1913.8226656365745
 20
2427.3934804555533
 40
40
 41
0.8
 50
90.00000250447816
  1
70
  0
TEXT
  8
_0-0_
 62
    7
 10
1918.8225584126512
 20
1814.8566944019214
 40
40
 41
0.8
 50
90.00000250447816
  1
90
  0
TEXT
  8
_0-0_
 62
    7
 10
1599.7500754691461
 20
1076.2500061859955
 40
50
 41
0.8
 50
0
  1
横断側溝ＧＩ　３００Ｃ
  0
TEXT
  8
_0-0_
 62
    7
 10
3584.2500098975933
 20
1076.2500061859955
 40
50
 41
0.8
 50
0
  1
704Kg
  0
TEXT
  8
_0-0_
 62
    7
 10
1913.8226656365745
 20
2427.3934804555533
 40
40
 41
0.8
 50
90.00000250447816
  1
70
  0
LINE
  8
_0-0_
  6
CONTINUOUS
 62
    7
 10
1698.8225740999789
 20
1814.8567323426941
 11
2138.8225411080024
 21
1814.8567323426941
  0
LINE
  8
_0-0_
  6
CONTINUOUS
 62
    7
 10
2138.8225411080024
 20
2268.6434276683912
 11
2138.8225411080024
 21
2228.6435431403083
  0
LINE
  8
_0-0_
  6
CONTINUOUS
 62
    7
 10
1713.8226235879435
 20
2596.7684276683912
 11
1767.8225914207664
 21
2596.7684276683912
  0
LINE
  8
_0-0_
  6
CONTINUOUS
 62
    7
 10
1713.8226235879435
 20
2596.7684276683912
 11
1713.8226235879435
 21
2489.1434870539487
  0
LINE
  8
_0-0_
  6
CONTINUOUS
 62
    7
 10
1767.8225914207664
 20
2596.7684276683912
 11
1767.8225914207664
 21
2489.1434870539487
  0
LINE
  8
_0-0_
  6
CONTINUOUS
 62
    7
 10
1767.8225914207664
 20
2596.7684276683912
 11
2069.8225856471703
 21
2596.7684276683912
  0
LINE
  8
_0-0_
  6
CONTINUOUS
 62
    7
 10
2069.8225856471703
 20
2596.7684276683912
 11
2069.8225856471703
 21
2489.1434870539487
  0
LINE
  8
_0-0_
  6
CONTINUOUS
 62
    7
 10
2069.8225856471703
 20
2596.7684276683912
 11
2123.8226153399496
 21
2596.7684276683912
  0
LINE
  8
_0-0_
  6
CONTINUOUS
 62
    7
 10
2123.8226153399496
 20
2596.7684276683912
 11
2123.8226153399496
 21
2489.1434870539487
  0
LINE
  8
_0-0_
  6
CONTINUOUS
 62
    7
 10
1658.8226277119406
 20
2665.0185167467275
 11
1713.8226235879435
 21
2665.0185167467275
  0
LINE
  8
_0-0_
  6
CONTINUOUS
 62
    7
 10
1658.8226277119406
 20
2665.0185167467275
 11
1658.8226277119406
 21
2489.1434870539487
  0
LINE
  8
_0-0_
  6
CONTINUOUS
 62
    7
 10
1713.8226235879435
 20
2665.0185167467275
 11
1713.8226235879435
 21
2489.1434870539487
  0
LINE
  8
_0-0_
  6
CONTINUOUS
 62
    7
 10
1713.8226235879435
 20
2665.0185167467275
 11
2123.8226153399496
 21
2665.0185167467275
  0
LINE
  8
_0-0_
  6
CONTINUOUS
 62
    7
 10
2123.8226153399496
 20
2665.0185167467275
 11
2123.8226153399496
 21
2489.1434870539487
  0
LINE
  8
_0-0_
  6
CONTINUOUS
 62
    7
 10
2123.8226153399496
 20
2665.0185167467275
 11
2178.8225493559966
 21
2665.0185167467275
  0
LINE
  8
_0-0_
  6
CONTINUOUS
 62
    7
 10
2178.8225493559966
 20
2665.0185167467275
 11
2178.8225493559966
 21
2489.1434870539487
  0
LINE
  8
_0-0_
  6
CONTINUOUS
 62
    7
 10
1658.8226277119406
 20
2743.7685909786741
 11
2178.8225493559966
 21
2743.7685909786741
  0
LINE
  8
_0-0_
  6
CONTINUOUS
 62
    7
 10
1658.8226277119406
 20
2743.7685909786741
 11
1658.8226277119406
 21
2489.1434870539487
  0
LINE
  8
_0-0_
  6
CONTINUOUS
 62
    7
 10
2178.8225493559966
 20
2743.7685909786741
 11
2178.8225493559966
 21
2489.1434870539487
  0
LINE
  8
_0-0_
  6
CONTINUOUS
 62
    7
 10
1918.8225576039908
 20
2478.6435019003379
 11
1918.8225576039908
 21
2408.6435183963258
  0
LINE
  8
_0-0_
  6
CONTINUOUS
 62
    7
 10
1918.8225576039908
 20
2478.6435019003379
 11
1740.4890276934652
 21
2478.6435019003379
  0
LINE
  8
_0-0_
  6
CONTINUOUS
 62
    7
 10
1767.8225914207664
 20
2408.6435183963258
 11
1724.1748871674408
 21
2408.6435183963258
  0
LINE
  8
_0-0_
  6
CONTINUOUS
 62
    7
 10
2083.8158024968329
 20
2378.643419420397
 11
2098.8243886586783
 21
2378.643419420397
  0
LINE
  8
_0-0_
  6
CONTINUOUS
 62
    7
 10
1738.8207884092589
 20
2378.643419420397
 11
1753.8293745711043
 21
2378.643419420397
  0
LINE
  8
_0-0_
  6
CONTINUOUS
 62
    7
 10
2462.0726054423566
 20
2408.6435183963258
 11
4462.0725229624158
 21
2408.6435183963258
  0
LINE
  8
_0-0_
  6
CONTINUOUS
 62
    7
 10
1658.8226277119406
 20
2478.6435019003379
 11
1713.8226235879435
 21
2478.6435019003379
  0
LINE
  8
_0-0_
  6
CONTINUOUS
 62
    7
 10
1713.8226235879435
 20
2408.6435183963258
 11
1767.8225914207664
 21
2408.6435183963258
  0
LINE
  8
_0-0_
  6
CONTINUOUS
 62
    7
 10
2178.8225493559966
 20
2478.6435019003379
 11
2178.8225493559966
 21
2408.6435183963258
  0
LINE
  8
_0-0_
  6
CONTINUOUS
 62
    7
 10
2123.8226153399496
 20
2478.6435019003379
 11
2178.8225493559966
 21
2478.6435019003379
  0
LINE
  8
_0-0_
  6
CONTINUOUS
 62
    7
 10
2069.8225856471703
 20
2408.6435183963258
 11
2123.8226153399496
 21
2408.6435183963258
  0
LINE
  8
_0-0_
  6
CONTINUOUS
 62
    7
 10
2462.0726054423566
 20
2478.6435019003379
 11
4462.0725229624158
 21
2478.6435019003379
  0
LINE
  8
_0-0_
  6
CONTINUOUS
 62
    7
 10
2462.0726054423566
 20
2743.7685909786741
 11
4462.0725229624158
 21
2743.7685909786741
  0
LINE
  8
_0-0_
  6
CONTINUOUS
 62
    7
 10
2462.0726054423566
 20
2743.7685909786741
 11
2462.0726054423566
 21
2489.1434870539487
  0
LINE
  8
_0-0_
  6
CONTINUOUS
 62
    7
 10
4462.0725229624158
 20
2743.7685909786741
 11
4462.0725229624158
 21
2489.1434870539487
  0
LINE
  8
_0-0_
  6
CONTINUOUS
 62
    7
 10
4422.0726384343324
 20
2348.6434441643796
 11
4462.0725229624158
 21
2348.6434441643796
  0
LINE
  8
_0-0_
  6
CONTINUOUS
 62
    7
 10
4422.0726384343324
 20
2308.6435596362966
 11
4462.0725229624158
 21
2308.6435596362966
  0
LINE
  8
_0-0_
  6
CONTINUOUS
 62
    7
 10
4412.0726054423566
 20
2318.6434689083616
 11
4412.0726054423566
 21
2338.6435348923141
  0
LINE
  8
_0-0_
  6
CONTINUOUS
 62
    7
 10
1337.249988865208
 20
1041.1250573235588
 11
1337.249988865208
 21
3416.1249439136399
  0
LINE
  8
_0-0_
  6
CONTINUOUS
 62
    7
 10
1337.249988865208
 20
3416.1249439136399
 11
4712.2497723553633
 21
3416.1249439136399
  0
LINE
  8
_0-0_
  6
CONTINUOUS
 62
    7
 10
4712.2497723553633
 20
3416.1249439136399
 11
4712.2497723553633
 21
1041.1250573235588
  0
LINE
  8
_0-0_
  6
CONTINUOUS
 62
    7
 10
4712.2497723553633
 20
1041.1250573235588
 11
1337.249988865208
 21
1041.1250573235588
  0
LINE
  8
_0-0_
  6
CONTINUOUS
 62
    7
 10
3774.7497723553633
 20
1041.1250573235588
 11
3774.7497723553633
 21
1166.1250676335516
  0
LINE
  8
_0-0_
  6
CONTINUOUS
 62
    7
 10
4712.2497723553633
 20
1166.1250676335516
 11
1337.2498651452965
 21
1166.1250676335516
  0
LINE
  8
_0-0_
  6
CONTINUOUS
 62
    7
 10
1524.7500197951858
 20
1041.1250573235588
 11
1524.7500197951858
 21
1166.1250676335516
  0
LINE
  8
_0-0_
  6
CONTINUOUS
 62
    7
 10
2399.7498135953337
 20
1041.1250573235588
 11
2399.7498135953337
 21
1166.1250676335516
  0
LINE
  8
_0-0_
  6
CONTINUOUS
 62
    7
 10
2587.2498135953333
 20
1041.1250573235588
 11
2587.2498135953333
 21
1166.1250676335516
  0
LINE
  8
_0-0_
  6
CONTINUOUS
 62
    7
 10
3087.2498548353041
 20
1041.1250573235588
 11
3087.2498548353041
 21
1166.1250676335516
  0
LINE
  8
_0-0_
  6
CONTINUOUS
 62
    7
 10
2899.7498548353041
 20
1041.1250573235588
 11
2899.7498548353041
 21
1166.1250676335516
  0
LINE
  8
_0-0_
  6
CONTINUOUS
 62
    7
 10
3274.7498548353041
 20
1041.1250573235588
 11
3274.7498548353041
 21
1166.1250676335516
  0
LINE
  8
_0-0_
  6
CONTINUOUS
 62
    7
 10
3524.7499373152454
 20
1041.1250573235588
 11
3524.7499373152454
 21
1166.1250676335516
  0
LINE
  8
_0-0_
  6
CONTINUOUS
 62
    7
 10
2462.0726054423566
 20
2238.6434524123733
 11
4462.0725229624158
 21
2238.6434524123733
  0
LINE
  8
_0-0_
  6
CONTINUOUS
 62
    7
 10
2462.0726054423566
 20
2188.6434111724029
 11
4462.0725229624158
 21
2188.6434111724029
  0
LINE
  8
_0-0_
  6
CONTINUOUS
 62
    7
 10
2502.0726136903504
 20
2318.6434689083616
 11
2462.0726054423566
 21
2318.6434689083616
  0
LINE
  8
_0-0_
  6
CONTINUOUS
 62
    7
 10
2512.0726466823266
 20
2288.6434936523437
 11
2512.0726466823266
 21
2308.6435596362966
  0
LINE
  8
_0-0_
  6
CONTINUOUS
 62
    7
 10
2502.0726136903504
 20
2278.6435843802787
 11
2462.0726054423566
 21
2278.6435843802787
  0
LINE
  8
_0-0_
  6
CONTINUOUS
 62
    7
 10
1658.8226277119406
 20
2478.6435019003379
 11
1658.8226277119406
 21
2188.6435348923141
  0
LINE
  8
_0-0_
  6
CONTINUOUS
 62
    7
 10
2178.8225493559966
 20
2408.6435183963258
 11
2178.8225493559966
 21
2188.6435348923141
  0
LINE
  8
_0-0_
  6
CONTINUOUS
 62
    7
 10
1658.8226277119406
 20
2188.6435348923141
 11
1698.8225740999789
 21
2148.6435266443199
  0
LINE
  8
_0-0_
  6
CONTINUOUS
 62
    7
 10
2178.8225493559966
 20
2188.6435348923141
 11
2138.8225411080024
 21
2148.6435266443199
  0
LINE
  8
_0-0_
  6
CONTINUOUS
 62
    7
 10
2132.8224965688345
 20
2062.6435893290754
 11
2132.8224965688345
 21
2022.6435810810812
  0
LINE
  8
_0-0_
  6
CONTINUOUS
 62
    7
 10
2132.8224965688345
 20
2022.6435810810812
 11
2138.8225411080024
 21
2020.6435249947212
  0
LINE
  8
_0-0_
  6
CONTINUOUS
 62
    7
 10
2132.8224965688345
 20
2062.6435893290754
 11
2138.8225411080024
 21
2064.643645415435
  0
LINE
  8
_0-0_
  6
CONTINUOUS
 62
    7
 10
2132.8224965688345
 20
1988.6434936523437
 11
2132.8224965688345
 21
1948.6434854043498
  0
LINE
  8
_0-0_
  6
CONTINUOUS
 62
    7
 10
2132.8224965688345
 20
1988.6434936523437
 11
2138.8225411080024
 21
1990.6435497387037
  0
LINE
  8
_0-0_
  6
CONTINUOUS
 62
    7
 10
2138.8225411080024
 20
1990.6435497387037
 11
2138.8225411080024
 21
2020.6435249947212
  0
LINE
  8
_0-0_
  6
CONTINUOUS
 62
    7
 10
2138.8225411080024
 20
2020.6435249947212
 11
2138.8225411080024
 21
1990.6435497387037
  0
LINE
  8
_0-0_
  6
CONTINUOUS
 62
    7
 10
2138.8225411080024
 20
2020.6435249947212
 11
2138.8225411080024
 21
1990.6435497387037
  0
LINE
  8
_0-0_
  6
CONTINUOUS
 62
    7
 10
1698.8225740999789
 20
2064.643645415435
 11
1704.8225567791914
 21
2062.6435893290754
  0
LINE
  8
_0-0_
  6
CONTINUOUS
 62
    7
 10
1704.8225567791914
 20
2062.6435893290754
 11
1704.8225567791914
 21
2022.6435810810812
  0
LINE
  8
_0-0_
  6
CONTINUOUS
 62
    7
 10
1704.8225567791914
 20
2022.6435810810812
 11
1698.8225740999789
 21
2020.6435249947212
  0
LINE
  8
_0-0_
  6
CONTINUOUS
 62
    7
 10
1698.8225740999789
 20
1990.6435497387037
 11
1704.8225567791914
 21
1988.6434936523437
  0
LINE
  8
_0-0_
  6
CONTINUOUS
 62
    7
 10
1704.8225567791914
 20
1988.6434936523437
 11
1704.8225567791914
 21
1948.6434854043498
  0
LINE
  8
_0-0_
  6
CONTINUOUS
 62
    7
 10
1704.8225567791914
 20
1948.6434854043498
 11
1698.8225740999789
 21
1946.6434293179897
  0
LINE
  8
_0-0_
  6
CONTINUOUS
 62
    7
 10
1698.8225740999789
 20
1990.6435497387037
 11
1698.8225740999789
 21
2020.6435249947212
  0
LINE
  8
_0-0_
  6
CONTINUOUS
 62
    7
 10
1698.8225740999789
 20
2020.6435249947212
 11
1698.8225740999789
 21
1990.6435497387037
  0
LINE
  8
_0-0_
  6
CONTINUOUS
 62
    7
 10
1698.8225740999789
 20
2020.6435249947212
 11
1698.8225740999789
 21
1990.6435497387037
  0
LINE
  8
_0-0_
  6
CONTINUOUS
 62
    7
 10
1783.9567813357791
 20
1931.9521847286739
 11
1767.8225914207664
 21
2408.6435183963258
  0
LINE
  8
_0-0_
  6
CONTINUOUS
 62
    7
 10
2003.7171812315245
 20
1883.643518396326
 11
1833.9281814162795
 21
1883.643518396326
  0
LINE
  8
_0-0_
  6
CONTINUOUS
 62
    7
 10
2053.6885194520691
 20
1931.9521847286739
 11
2069.8225856471703
 21
2408.6435183963258
  0
LINE
  8
_0-0_
  6
CONTINUOUS
 62
    7
 10
1769.4558798300254
 20
1916.9521352407095
 11
1753.8293745711043
 21
2378.643419420397
  0
LINE
  8
_0-0_
  6
CONTINUOUS
 62
    7
 10
2068.1893590978675
 20
1916.9521352407095
 11
2083.8158024968329
 21
2378.643419420397
  0
LINE
  8
_0-0_
  6
CONTINUOUS
 62
    7
 10
1754.9551020441826
 20
1901.9522094726562
 11
1738.8207884092589
 21
2378.643419420397
  0
LINE
  8
_0-0_
  6
CONTINUOUS
 62
    7
 10
2082.6903224635766
 20
1901.9522094726562
 11
2098.8243886586783
 21
2378.643419420397
  0
LINE
  8
_0-0_
  6
CONTINUOUS
 62
    7
 10
1819.4272799105258
 20
1868.6434689083616
 11
2018.2180208773227
 21
1868.6434689083616
  0
LINE
  8
_0-0_
  6
CONTINUOUS
 62
    7
 10
2032.718984243032
 20
1853.6435431403083
 11
1804.9264402647277
 21
1853.6435431403083
  0
LINE
  8
_0-0_
  6
CONTINUOUS
 62
    7
 10
2018.2180208773227
 20
1868.6434689083616
 11
1819.4272799105258
 21
1868.6434689083616
  0
LINE
  8
_0-0_
  6
CONTINUOUS
 62
    7
 10
1797.6042010333089
 20
1900.896383749472
 11
1809.3723152779243
 21
1914.4130315007391
  0
LINE
  8
_0-0_
  6
CONTINUOUS
 62
    7
 10
1797.6042010333089
 20
1900.896383749472
 11
1828.2938529349662
 21
1920.7748330605998
  0
LINE
  8
_0-0_
  6
CONTINUOUS
 62
    7
 10
1698.8225740999789
 20
2148.6435266443199
 11
1698.8225740999789
 21
2064.643645415435
  0
LINE
  8
_0-0_
  6
CONTINUOUS
 62
    7
 10
1698.8225740999789
 20
1814.8567323426941
 11
1698.8225740999789
 21
1946.6434293179897
  0
LINE
  8
_0-0_
  6
CONTINUOUS
 62
    7
 10
1698.8225740999789
 20
1814.8567323426941
 11
1720.035775674356
 21
1793.6434689083616
  0
LINE
  8
_0-0_
  6
CONTINUOUS
 62
    7
 10
2117.6094013935808
 20
1793.6434689083616
 11
1720.035775674356
 21
1793.6434689083616
  0
LINE
  8
_0-0_
  6
CONTINUOUS
 62
    7
 10
2117.6094013935808
 20
1793.6434689083616
 11
2138.8225411080024
 21
1814.8567323426941
  0
LINE
  8
_0-0_
  6
CONTINUOUS
 62
    7
 10
2138.8225411080024
 20
1814.8567323426941
 11
2138.8225411080024
 21
1946.6434293179897
  0
LINE
  8
_0-0_
  6
CONTINUOUS
 62
    7
 10
2138.8225411080024
 20
2148.6435266443199
 11
2138.8225411080024
 21
2064.643645415435
  0
LINE
  8
_0-0_
  6
CONTINUOUS
 62
    7
 10
1918.8225576039908
 20
2408.6435183963258
 11
1918.8225576039908
 21
1883.643518396326
  0
LINE
  8
_0-0_
  6
CONTINUOUS
 62
    7
 10
1918.8225576039908
 20
1883.643518396326
 11
1918.8225576039908
 21
1793.6434689083616
  0
LINE
  8
_0-0_
  6
CONTINUOUS
 62
    7
 10
1918.8225576039908
 20
1793.6434689083616
 11
1791.6469017235008
 21
1793.6434689083616
  0
LINE
  8
_0-0_
  6
CONTINUOUS
 62
    7
 10
1554.4186731286954
 20
2478.6435019003379
 11
1554.4186731286954
 21
2188.6435348923141
  0
LINE
  8
_0-0_
  6
CONTINUOUS
 62
    7
 10
1554.4186731286954
 20
2478.6435019003379
 11
1649.2122505806587
 21
2478.6435019003379
  0
LINE
  8
_0-0_
  6
CONTINUOUS
 62
    7
 10
1554.4186731286954
 20
2188.6435348923141
 11
1554.4186731286954
 21
2148.6435266443199
  0
LINE
  8
_0-0_
  6
CONTINUOUS
 62
    7
 10
1554.4186731286954
 20
2148.6435266443199
 11
1554.4186731286954
 21
1793.6434689083616
  0
LINE
  8
_0-0_
  6
CONTINUOUS
 62
    7
 10
1495.1727336161845
 20
2478.6435019003379
 11
1495.1727336161845
 21
1793.6434689083616
  0
LINE
  8
_0-0_
  6
CONTINUOUS
 62
    7
 10
1918.8225576039908
 20
1883.643518396326
 11
1833.9281814162795
 21
1883.643518396326
  0
LINE
  8
_0-0_
  6
CONTINUOUS
 62
    7
 10
2138.8225411080024
 20
2268.6434276683912
 11
2178.8225493559966
 21
2268.6434276683912
  0
LINE
  8
_0-0_
  6
CONTINUOUS
 62
    7
 10
2138.8225411080024
 20
2228.6435431403083
 11
2178.8225493559966
 21
2228.6435431403083
  0
LINE
  8
_0-0_
  6
CONTINUOUS
 62
    7
 10
2161.8625290329391
 20
2247.1274216110641
 11
2206.4875587257179
 21
2276.0024117134712
  0
LINE
  8
_0-0_
  6
CONTINUOUS
 62
    7
 10
2206.4875587257179
 20
2276.0024117134712
 11
2342.9874894425674
 21
2276.0024117134712
  0
LINE
  8
_0-0_
  6
CONTINUOUS
 62
    7
 10
1658.8226277119406
 20
2268.6434276683912
 11
1698.8226359599345
 21
2268.6434276683912
  0
LINE
  8
_0-0_
  6
CONTINUOUS
 62
    7
 10
1658.8226277119406
 20
2228.6435431403083
 11
1698.8226359599345
 21
2228.6435431403083
  0
LINE
  8
_0-0_
  6
CONTINUOUS
 62
    7
 10
1698.8226359599345
 20
2268.6434276683912
 11
1698.8226359599345
 21
2228.6435431403083
  0
LINE
  8
_0-0_
  6
CONTINUOUS
 62
    7
 10
1918.8225576039908
 20
2408.6435183963258
 11
1791.6469017235008
 21
2408.6435183963258
  0
LINE
  8
_0-0_
  6
CONTINUOUS
 62
    7
 10
1918.8225576039908
 20
2408.6435183963258
 11
1791.6469017235008
 21
2408.6435183963258
  0
LINE
  8
_0-0_
  6
CONTINUOUS
 62
    7
 10
1918.8225576039908
 20
2408.6435183963258
 11
1791.6469017235008
 21
2408.6435183963258
  0
LINE
  8
_0-0_
  6
CONTINUOUS
 62
    7
 10
1554.4186731286954
 20
2148.6435266443199
 11
1649.2122505806587
 21
2148.6435266443199
  0
LINE
  8
_0-0_
  6
CONTINUOUS
 62
    7
 10
1554.4186731286954
 20
2188.6435348923141
 11
1649.2122505806587
 21
2188.6435348923141
  0
LINE
  8
_0-0_
  6
CONTINUOUS
 62
    7
 10
1554.4186731286954
 20
1793.6434689083616
 11
1649.2122505806587
 21
1793.6434689083616
  0
LINE
  8
_0-0_
  6
CONTINUOUS
 62
    7
 10
1495.1727336161845
 20
1793.6434689083616
 11
1649.2122505806587
 21
1793.6434689083616
  0
LINE
  8
_0-0_
  6
CONTINUOUS
 62
    7
 10
1495.1727336161845
 20
2478.6435019003379
 11
1649.2122505806587
 21
2478.6435019003379
  0
LINE
  8
_0-0_
  6
CONTINUOUS
 62
    7
 10
1698.8225740999789
 20
1715.4899720887879
 11
1698.8225740999789
 21
1783.98193359375
  0
LINE
  8
_0-0_
  6
CONTINUOUS
 62
    7
 10
1698.8225740999789
 20
1715.4899720887879
 11
1788.8225617279877
 21
1715.4899720887879
  0
LINE
  8
_0-0_
  6
CONTINUOUS
 62
    7
 10
1788.8225617279877
 20
1715.4899720887879
 11
1788.8225617279877
 21
1783.98193359375
  0
LINE
  8
_0-0_
  6
CONTINUOUS
 62
    7
 10
1788.8225617279877
 20
1715.4899720887879
 11
2048.8226153399496
 21
1715.4899720887879
  0
LINE
  8
_0-0_
  6
CONTINUOUS
 62
    7
 10
2048.8226153399496
 20
1715.4899720887879
 11
2048.8226153399496
 21
1783.98193359375
  0
LINE
  8
_0-0_
  6
CONTINUOUS
 62
    7
 10
2048.8226153399496
 20
1715.4899720887879
 11
2138.8225411080024
 21
1715.4899720887879
  0
LINE
  8
_0-0_
  6
CONTINUOUS
 62
    7
 10
2138.8225411080024
 20
1715.4899720887879
 11
2138.8225411080024
 21
1783.98193359375
  0
LINE
  8
_0-0_
  6
CONTINUOUS
 62
    7
 10
2462.0726054423566
 20
2066.643454061972
 11
2620.0725823479729
 21
2066.643454061972
  0
LINE
  8
_0-0_
  6
CONTINUOUS
 62
    7
 10
2462.0726054423566
 20
2022.6433336412585
 11
2620.0725823479729
 21
2022.6433336412585
  0
LINE
  8
_0-0_
  6
CONTINUOUS
 62
    7
 10
2620.0725823479729
 20
2066.643454061972
 11
2620.0725823479729
 21
2022.6433336412585
  0
LINE
  8
_0-0_
  6
CONTINUOUS
 62
    7
 10
2462.0726054423566
 20
1992.6433583852408
 11
4462.0725229624158
 21
1992.6433583852408
  0
LINE
  8
_0-0_
  6
CONTINUOUS
 62
    7
 10
2462.0726054423566
 20
1948.643237964527
 11
4462.0725229624158
 21
1948.643237964527
  0
LINE
  8
_0-0_
  6
CONTINUOUS
 62
    7
 10
2462.0726054423566
 20
1883.643518396326
 11
4462.0725229624158
 21
1883.643518396326
  0
LINE
  8
_0-0_
  6
CONTINUOUS
 62
    7
 10
2462.0726054423566
 20
1814.8567323426941
 11
2462.0726054423566
 21
2478.6435019003379
  0
LINE
  8
_0-0_
  6
CONTINUOUS
 62
    7
 10
2462.0726054423566
 20
1814.8567323426941
 11
2483.2858688766891
 21
1793.6434689083616
  0
LINE
  8
_0-0_
  6
CONTINUOUS
 62
    7
 10
4440.8592595280824
 20
1793.6434689083616
 11
2483.2858688766891
 21
1793.6434689083616
  0
LINE
  8
_0-0_
  6
CONTINUOUS
 62
    7
 10
4462.0725229624158
 20
1814.8567323426941
 11
4462.0725229624158
 21
2478.6435019003379
  0
LINE
  8
_0-0_
  6
CONTINUOUS
 62
    7
 10
4440.8592595280824
 20
1793.6434689083616
 11
4462.0725229624158
 21
1814.8567323426941
  0
LINE
  8
_0-0_
  6
CONTINUOUS
 62
    7
 10
2462.0726054423566
 20
1814.8567323426941
 11
4462.0725229624158
 21
1814.8567323426941
  0
LINE
  8
_0-0_
  6
CONTINUOUS
 62
    7
 10
1918.8225576039908
 20
2478.6435019003379
 11
1918.8225576039908
 21
2408.6435183963258
  0
LINE
  8
_0-0_
  6
CONTINUOUS
 62
    7
 10
1918.8225576039908
 20
2478.6435019003379
 11
1740.4890276934652
 21
2478.6435019003379
  0
LINE
  8
_0-0_
  6
CONTINUOUS
 62
    7
 10
1918.8225576039908
 20
2408.6435183963258
 11
1791.6469017235008
 21
2408.6435183963258
  0
LINE
  8
_0-0_
  6
CONTINUOUS
 62
    7
 10
1767.8225914207664
 20
2408.6435183963258
 11
1724.1748871674408
 21
2408.6435183963258
  0
LINE
  8
_0-0_
  6
CONTINUOUS
 62
    7
 10
1738.8207884092589
 20
2378.643419420397
 11
1753.8293745711043
 21
2378.643419420397
  0
LINE
  8
_0-0_
  6
CONTINUOUS
 62
    7
 10
1713.8226235879435
 20
2408.6435183963258
 11
1767.8225914207664
 21
2408.6435183963258
  0
LINE
  8
_0-0_
  6
CONTINUOUS
 62
    7
 10
2069.8225856471703
 20
2408.6435183963258
 11
2123.8226153399496
 21
2408.6435183963258
  0
LINE
  8
_0-0_
  6
CONTINUOUS
 62
    7
 10
1803.022576409417
 20
2473.6434854043495
 11
1803.022576409417
 21
2423.6434441643796
  0
LINE
  8
_0-0_
  6
CONTINUOUS
 62
    7
 10
2034.6225387985641
 20
2473.6434854043495
 11
2034.6225387985641
 21
2423.6434441643796
  0
LINE
  8
_0-0_
  6
CONTINUOUS
 62
    7
 10
1957.4225513355149
 20
2473.6434854043495
 11
1957.4225513355149
 21
2423.6434441643796
  0
LINE
  8
_0-0_
  6
CONTINUOUS
 62
    7
 10
1880.2225020125106
 20
2473.6434854043495
 11
1880.2225020125106
 21
2423.6434441643796
  0
LINE
  8
_0-0_
  6
CONTINUOUS
 62
    7
 10
1767.8225914207664
 20
2408.6435183963258
 11
1767.8225914207664
 21
2418.6434276683912
  0
LINE
  8
_0-0_
  6
CONTINUOUS
 62
    7
 10
2069.8225856471703
 20
2408.6435183963258
 11
2069.8225856471703
 21
2418.6434276683912
  0
LINE
  8
_0-0_
  6
CONTINUOUS
 62
    7
 10
1767.8225914207664
 20
2413.6434111724029
 11
1716.0226110509925
 21
2413.6434111724029
  0
LINE
  8
_0-0_
  6
CONTINUOUS
 62
    7
 10
2121.6226278769004
 20
2478.6435019003379
 11
1716.0226110509925
 21
2478.6435019003379
  0
LINE
  8
_0-0_
  6
CONTINUOUS
 62
    7
 10
2121.6226278769004
 20
2418.6434276683912
 11
1716.0226110509925
 21
2418.6434276683912
  0
LINE
  8
_0-0_
  6
CONTINUOUS
 62
    7
 10
2121.6226278769004
 20
2413.6434111724029
 11
2069.8225856471703
 21
2413.6434111724029
  0
LINE
  8
_0-0_
  6
CONTINUOUS
 62
    7
 10
2116.622611380912
 20
2473.6434854043495
 11
1721.0226275469808
 21
2473.6434854043495
  0
LINE
  8
_0-0_
  6
CONTINUOUS
 62
    7
 10
2116.622611380912
 20
2423.6434441643796
 11
1721.0226275469808
 21
2423.6434441643796
  0
LINE
  8
_0-0_
  6
CONTINUOUS
 62
    7
 10
1721.0226275469808
 20
2473.6434854043495
 11
1721.0226275469808
 21
2423.6434441643796
  0
LINE
  8
_0-0_
  6
CONTINUOUS
 62
    7
 10
2116.622611380912
 20
2473.6434854043495
 11
2116.622611380912
 21
2423.6434441643796
  0
LINE
  8
_0-0_
  6
CONTINUOUS
 62
    7
 10
1752.5446670119827
 20
2428.6434606603675
 11
1752.5446670119827
 21
2423.6434441643796
  0
LINE
  8
_0-0_
  6
CONTINUOUS
 62
    7
 10
1732.5446628879856
 20
2428.6434606603675
 11
1732.5446628879856
 21
2423.6434441643796
  0
LINE
  8
_0-0_
  6
CONTINUOUS
 62
    7
 10
1760.4158514899177
 20
2428.6434606603675
 11
1724.7276058712523
 21
2428.6434606603675
  0
LINE
  8
_0-0_
  6
CONTINUOUS
 62
    7
 10
1742.544695879962
 20
2428.6434606603675
 11
1742.544695879962
 21
2423.6434441643796
  0
LINE
  8
_0-0_
  6
CONTINUOUS
 62
    7
 10
2077.2292018581078
 20
2428.6434606603675
 11
2112.9174474767737
 21
2428.6434606603675
  0
LINE
  8
_0-0_
  6
CONTINUOUS
 62
    7
 10
2095.1005430479308
 20
2428.6434606603675
 11
2095.1005430479308
 21
2423.6434441643796
  0
LINE
  8
_0-0_
  6
CONTINUOUS
 62
    7
 10
2085.1005100559546
 20
2428.6434606603675
 11
2085.1005100559546
 21
2423.6434441643796
  0
LINE
  8
_0-0_
  6
CONTINUOUS
 62
    7
 10
2105.1003286000845
 20
2428.6434606603675
 11
2105.1003286000845
 21
2423.6434441643796
  0
LINE
  8
_0-0_
  6
CONTINUOUS
 62
    7
 10
1747.5446505159945
 20
2399.0109335409629
 11
1737.5446793839737
 21
2399.0109335409629
  0
LINE
  8
_0-0_
  6
CONTINUOUS
 62
    7
 10
2090.1005265519424
 20
2399.0109335409629
 11
2100.1003121040962
 21
2399.0109335409629
  0
LINE
  8
_0-0_
  6
CONTINUOUS
 62
    7
 10
1737.5446793839737
 20
2408.6435183963258
 11
1737.5446793839737
 21
2399.0109335409629
  0
LINE
  8
_0-0_
  6
CONTINUOUS
 62
    7
 10
1747.5446505159945
 20
2408.6435183963258
 11
1747.5446505159945
 21
2399.0109335409629
  0
LINE
  8
_0-0_
  6
CONTINUOUS
 62
    7
 10
2090.1005265519424
 20
2408.6435183963258
 11
2090.1005265519424
 21
2399.0109335409629
  0
LINE
  8
_0-0_
  6
CONTINUOUS
 62
    7
 10
2100.1003121040962
 20
2408.6435183963258
 11
2100.1003121040962
 21
2399.0109335409629
  0
LINE
  8
_0-0_
  6
CONTINUOUS
 62
    7
 10
1918.8225576039908
 20
2408.6435183963258
 11
1918.8225576039908
 21
2399.7345713022596
  0
ARC
  8
_0-0_
  6
CONTINUOUS
 62
    7
 10
2003.7171812315245
 20
1933.6435596362966
 40
49.999998711250924
 50
270
 51
358.06150817871093
  0
ARC
  8
_0-0_
  6
CONTINUOUS
 62
    7
 10
4422.0726384343324
 20
2338.6435348923141
 40
10.000000128874908
 50
90
 51
180
  0
ARC
  8
_0-0_
  6
CONTINUOUS
 62
    7
 10
4422.0726384343324
 20
2318.6434689083616
 40
10.000000128874908
 50
180
 51
270
  0
ARC
  8
_0-0_
  6
CONTINUOUS
 62
    7
 10
2502.0726136903504
 20
2308.6435596362966
 40
10.000000128874908
 50
0
 51
90
  0
ARC
  8
_0-0_
  6
CONTINUOUS
 62
    7
 10
2502.0726136903504
 20
2288.6434936523437
 40
10.000000128874908
 50
270
 51
0
  0
ARC
  8
_0-0_
  6
CONTINUOUS
 62
    7
 10
1833.9281814162795
 20
1933.6435596362966
 40
49.999998711250924
 50
181.93849182128909
 51
270
  0
ARC
  8
_0-0_
  6
CONTINUOUS
 62
    7
 10
1804.9264402647277
 20
1903.6434606603675
 40
49.999998711250924
 50
181.93849182128909
 51
270
  0
ARC
  8
_0-0_
  6
CONTINUOUS
 62
    7
 10
1819.4272799105258
 20
1918.643510148332
 40
49.999998711250924
 50
181.93849182128909
 51
270
  0
ARC
  8
_0-0_
  6
CONTINUOUS
 62
    7
 10
2018.2180208773227
 20
1918.643510148332
 40
49.999998711250924
 50
270
 51
358.06149291992187
  0
ARC
  8
_0-0_
  6
CONTINUOUS
 62
    7
 10
2032.718984243032
 20
1903.6434606603675
 40
49.999998711250924
 50
270
 51
358.06150817871093
  0
CIRCLE
  8
_0-0_
  6
CONTINUOUS
 62
    7
 10
2158.8226070919554
 20
2248.6434854043495
 40
10.000000128874908
  0
CIRCLE
  8
_0-0_
  6
CONTINUOUS
 62
    7
 10
1678.8226318359375
 20
2248.6434854043495
 40
10.000000128874908
  0
ARC
  8
_0-0_
  6
CONTINUOUS
 62
    7
 10
1742.5717905405406
 20
2423.57774889147
 40
18.549266377010862
 50
0.2028961181640625
 51
179.79708862304687
  0
ARC
  8
_0-0_
  6
CONTINUOUS
 62
    7
 10
2095.0734483873525
 20
2423.57774889147
 40
18.549266377010862
 50
0.2028961181640574
 51
179.79708862304687
  0
POINT
  8
_0-0_
 62
    7
 10
1713.8226235879435
 20
2596.7684276683912
  0
POINT
  8
_0-0_
 62
    7
 10
1767.8225914207664
 20
2596.7684276683912
  0
POINT
  8
_0-0_
 62
    7
 10
2069.8225856471703
 20
2596.7684276683912
  0
POINT
  8
_0-0_
 62
    7
 10
2123.8226153399496
 20
2596.7684276683912
  0
POINT
  8
_0-0_
 62
    7
 10
1658.8226277119406
 20
2665.0185167467275
  0
POINT
  8
_0-0_
 62
    7
 10
1713.8226235879435
 20
2665.0185167467275
  0
POINT
  8
_0-0_
 62
    7
 10
2123.8226153399496
 20
2665.0185167467275
  0
POINT
  8
_0-0_
 62
    7
 10
2178.8225493559966
 20
2665.0185167467275
  0
POINT
  8
_0-0_
 62
    7
 10
1658.8226277119406
 20
2743.7685909786741
  0
POINT
  8
_0-0_
 62
    7
 10
2178.8225493559966
 20
2743.7685909786741
  0
POINT
  8
_0-0_
 62
    7
 10
1918.8225576039908
 20
2478.6435019003379
  0
POINT
  8
_0-0_
 62
    7
 10
2462.0726054423566
 20
2743.7685909786741
  0
POINT
  8
_0-0_
 62
    7
 10
4462.0725229624158
 20
2743.7685909786741
  0
POINT
  8
_0-0_
 62
    7
 10
1918.8225576039908
 20
2408.6435183963258
  0
POINT
  8
_0-0_
 62
    7
 10
1918.8225576039908
 20
2408.6435183963258
  0
POINT
  8
_0-0_
 62
    7
 10
1918.8225576039908
 20
2408.6435183963258
  0
POINT
  8
_0-0_
 62
    7
 10
1918.8225576039908
 20
2408.6435183963258
  0
POINT
  8
_0-0_
 62
    7
 10
1918.8225576039908
 20
1793.6434689083616
  0
POINT
  8
_0-0_
 62
    7
 10
1918.8225576039908
 20
1883.643518396326
  0
POINT
  8
_0-0_
 62
    7
 10
1554.4186731286954
 20
2188.6435348923141
  0
POINT
  8
_0-0_
 62
    7
 10
1554.4186731286954
 20
2148.6435266443199
  0
POINT
  8
_0-0_
 62
    7
 10
1495.1727336161845
 20
1793.6434689083616
  0
POINT
  8
_0-0_
 62
    7
 10
1554.4186731286954
 20
1793.6434689083616
  0
POINT
  8
_0-0_
 62
    7
 10
1495.1727336161845
 20
2478.6435019003379
  0
POINT
  8
_0-0_
 62
    7
 10
1554.4186731286954
 20
2478.6435019003379
  0
POINT
  8
_0-0_
 62
    7
 10
1698.8225740999789
 20
1715.4899720887879
  0
POINT
  8
_0-0_
 62
    7
 10
1788.8225617279877
 20
1715.4899720887879
  0
POINT
  8
_0-0_
 62
    7
 10
2048.8226153399496
 20
1715.4899720887879
  0
POINT
  8
_0-0_
 62
    7
 10
2138.8225411080024
 20
1715.4899720887879
  0
POINT
  8
_0-0_
 62
    7
 10
1918.8225576039908
 20
2478.6435019003379
  0
POINT
  8
_0-0_
 62
    7
 10
1918.8225576039908
 20
2408.6435183963258
  0
POINT
  8
_0-0_
 62
    7
 10
1918.8225576039908
 20
2408.6435183963258
  0
LINE
  8
_0-0_
  6
CONTINUOUS
 62
    7
 10
1658.8417079499881
 20
2404.8238141420497
 11
1663.8417079499881
 21
2404.8238141420497
  0
LINE
  8
_0-0_
  6
CONTINUOUS
 62
    7
 10
1663.8417079499881
 20
2404.8238141420497
 11
1663.8417079499881
 21
2472.540693559802
  0
LINE
  8
_0-0_
  6
CONTINUOUS
 62
    7
 10
1713.8226235879435
 20
2478.6435019003379
 11
1713.8226235879435
 21
2473.6435019003379
  0
LINE
  8
_0-0_
  6
CONTINUOUS
 62
    7
 10
1663.8417079499881
 20
2472.540693559802
 11
1663.8417079499881
 21
2473.6435019003379
  0
LINE
  8
_0-0_
  6
CONTINUOUS
 62
    7
 10
1708.8226235879435
 20
2473.6435019003379
 11
1708.8226235879435
 21
2408.5045170481503
  0
LINE
  8
_0-0_
  6
CONTINUOUS
 62
    7
 10
1713.8226235879435
 20
2408.6435183963258
 11
1708.8226235879435
 21
2408.6435183963258
  0
LINE
  8
_0-0_
  6
CONTINUOUS
 62
    7
 10
1716.0226110509925
 20
2413.6434111724029
 11
1713.9797650510054
 21
2413.6434111724029
  0
LINE
  8
_0-0_
  6
CONTINUOUS
 62
    7
 10
1708.8226235879435
 20
2473.6435019003379
 11
1663.8417079499881
 21
2473.6435019003379
  0
LINE
  8
_0-0_
  6
CONTINUOUS
 62
    7
 10
1713.8226235879435
 20
2478.6435019003379
 11
1713.8226235879435
 21
2413.6434111724029
  0
LINE
  8
_0-0_
  6
CONTINUOUS
 62
    7
 10
1716.0226110509925
 20
2478.6435019003379
 11
1716.0226110509925
 21
2413.6434111724029
  0
LINE
  8
_0-0_
  6
CONTINUOUS
 62
    7
 10
1713.8226235879435
 20
2470.6435249947212
 11
1713.8226235879435
 21
2413.6434111724029
  0
LINE
  8
_0-0_
  6
CONTINUOUS
 62
    7
 10
1700.8601746244748
 20
2427.9293319255793
 11
1700.8601746244748
 21
2378.056227314621
  0
LINE
  8
_0-0_
  6
CONTINUOUS
 62
    7
 10
1700.8601746244748
 20
2378.056227314621
 11
1710.2070902046057
 21
2363.4284510398106
  0
LINE
  8
_0-0_
  6
CONTINUOUS
 62
    7
 10
1708.8601515300911
 20
2377.8913086728343
 11
1718.1015958858238
 21
2363.4284510398106
  0
LINE
  8
_0-0_
  6
CONTINUOUS
 62
    7
 10
1710.2070902046057
 20
2363.4284510398106
 11
1718.1015958858238
 21
2363.4284510398106
  0
LINE
  8
_0-0_
  6
CONTINUOUS
 62
    7
 10
1700.8601746244748
 20
2427.9293319255793
 11
1703.8601515300911
 21
2427.9293319255793
  0
LINE
  8
_0-0_
  6
CONTINUOUS
 62
    7
 10
1708.8601515300911
 20
2408.6891536369389
 11
1708.8601515300911
 21
2377.8913086728343
  0
LINE
  8
_0-0_
  6
CONTINUOUS
 62
    7
 10
1703.8601515300911
 20
2427.9293319255793
 11
1708.7498312034367
 21
2427.9293319255793
  0
LINE
  8
_0-0_
  6
CONTINUOUS
 62
    7
 10
2123.8226153399496
 20
2408.6435183963258
 11
2128.8226153399496
 21
2408.6435183963258
  0
LINE
  8
_0-0_
  6
CONTINUOUS
 62
    7
 10
2128.8226153399496
 20
2408.6435183963258
 11
2128.8226153399496
 21
2473.604801951938
  0
LINE
  8
_0-0_
  6
CONTINUOUS
 62
    7
 10
2173.7558598789628
 20
2426.1116533814915
 11
2173.7558598789628
 21
2473.604801951938
  0
LINE
  8
_0-0_
  6
CONTINUOUS
 62
    7
 10
2128.8226153399496
 20
2473.604801951938
 11
2173.7558598789628
 21
2473.604801951938
  0
LINE
  8
_0-0_
  6
CONTINUOUS
 62
    7
 10
2121.6226278769004
 20
2413.6434111724029
 11
2123.7821054897276
 21
2413.6434111724029
  0
LINE
  8
_0-0_
  6
CONTINUOUS
 62
    7
 10
2121.6226278769004
 20
2478.6435019003379
 11
2121.6226278769004
 21
2413.6434111724029
  0
LINE
  8
_0-0_
  6
CONTINUOUS
 62
    7
 10
2123.8226153399496
 20
2478.6435019003379
 11
2123.8226153399496
 21
2413.6434111724029
  0
LINE
  8
_0-0_
  6
CONTINUOUS
 62
    7
 10
2123.8226153399496
 20
2470.6435249947212
 11
2123.8226153399496
 21
2413.6434111724029
  0
LINE
  8
_0-0_
  6
CONTINUOUS
 62
    7
 10
2136.8315589892963
 20
2427.8363075961146
 11
2136.8315589892963
 21
2377.9632029851559
  0
LINE
  8
_0-0_
  6
CONTINUOUS
 62
    7
 10
2136.8315589892963
 20
2377.9632029851559
 11
2127.4846434091655
 21
2363.3354267103459
  0
LINE
  8
_0-0_
  6
CONTINUOUS
 62
    7
 10
2127.4846434091655
 20
2363.3354267103459
 11
2119.5900758679913
 21
2363.3354267103459
  0
LINE
  8
_0-0_
  6
CONTINUOUS
 62
    7
 10
2128.8315820836796
 20
2377.7982843433692
 11
2119.5900758679913
 21
2363.3354267103459
  0
LINE
  8
_0-0_
  6
CONTINUOUS
 62
    7
 10
2136.8315589892963
 20
2427.8363075961146
 11
2133.8315820836796
 21
2427.8363075961146
  0
LINE
  8
_0-0_
  6
CONTINUOUS
 62
    7
 10
2128.8315820836796
 20
2408.5961293074742
 11
2128.8315820836796
 21
2377.7982843433692
  0
LINE
  8
_0-0_
  6
CONTINUOUS
 62
    7
 10
2133.8315820836796
 20
2427.8363075961146
 11
2128.8332057688548
 21
2427.8363075961146
  0
LINE
  8
_0-0_
  6
CONTINUOUS
 62
    7
 10
2173.7558598789601
 20
2435.126709777427
 11
2178.8225493559934
 21
2440.1933992544604
  0
LINE
  8
_0-0_
  6
CONTINUOUS
 62
    7
 10
2173.7558598789637
 20
2449.268845401164
 11
2178.8225493559998
 21
2454.3355348782001
  0
LINE
  8
_0-0_
  6
CONTINUOUS
 62
    7
 10
2118.9883972503935
 20
2408.6435183963271
 11
2128.8226153399473
 21
2418.4777364858809
  0
LINE
  8
_0-0_
  6
CONTINUOUS
 62
    7
 10
2173.7558598789623
 20
2463.410981024896
 11
2178.8225493559993
 21
2468.477670501933
  0
LINE
  8
_0-0_
  6
CONTINUOUS
 62
    7
 10
2104.8462616266606
 20
2408.6435183963276
 11
2109.8461544027359
 21
2413.6434111724029
  0
LINE
  8
_0-0_
  6
CONTINUOUS
 62
    7
 10
2123.8226153399482
 20
2427.6198721096152
 11
2128.8226153399468
 21
2432.6198721096138
  0
LINE
  8
_0-0_
  6
CONTINUOUS
 62
    7
 10
2169.8075451822683
 20
2473.6048019519353
 11
2174.8462451306691
 21
2478.6435019003361
  0
LINE
  8
_0-0_
  6
CONTINUOUS
 62
    7
 10
2090.7041260029254
 20
2408.6435183963262
 11
2095.7040187790034
 21
2413.6434111724038
  0
LINE
  8
_0-0_
  6
CONTINUOUS
 62
    7
 10
2123.8226153399468
 20
2441.7620077333476
 11
2128.8226153399514
 21
2446.7620077333517
  0
LINE
  8
_0-0_
  6
CONTINUOUS
 62
    7
 10
2155.6654095585354
 20
2473.6048019519357
 11
2160.7041095069375
 21
2478.6435019003379
  0
LINE
  8
_0-0_
  6
CONTINUOUS
 62
    7
 10
2076.5619903791939
 20
2408.643518396328
 11
2081.561883155271
 21
2413.6434111724047
  0
LINE
  8
_0-0_
  6
CONTINUOUS
 62
    7
 10
2123.8226153399455
 20
2455.9041433570791
 11
2128.8226153399505
 21
2460.9041433570841
  0
LINE
  8
_0-0_
  6
CONTINUOUS
 62
    7
 10
2141.5232739348034
 20
2473.6048019519371
 11
2146.5619738832065
 21
2478.6435019003401
  0
LINE
  8
_0-0_
  6
CONTINUOUS
 62
    7
 10
2123.8226153399496
 20
2470.0462789808166
 11
2132.4198382594709
 21
2478.6435019003379
  0
LINE
  8
_0-0_
  6
CONTINUOUS
 62
    7
 10
2173.7558598789628
 20
2426.1116533814915
 11
2173.7558598789628
 21
2408.1422523884912
  0
LINE
  8
_0-0_
  6
CONTINUOUS
 62
    7
 10
2173.7558598789628
 20
2408.1422523884912
 11
2178.7062114388932
 21
2408.1422523884912
  0
LINE
  8
_0-0_
  6
CONTINUOUS
 62
    7
 10
2175.0556737374686
 20
2408.1422523884871
 11
2178.8225493560007
 21
2411.9091280070192
  0
LINE
  8
_0-0_
  6
CONTINUOUS
 62
    7
 10
2173.7558598789632
 20
2420.9845741537151
 11
2178.8225493559966
 21
2426.0512636307485
  0
LINE
  8
_0-0_
  6
CONTINUOUS
 62
    7
 10
1765.4350066571169
 20
2408.6435183963294
 11
1767.8225914207632
 21
2411.0311031599758
  0
LINE
  8
_0-0_
  6
CONTINUOUS
 62
    7
 10
1751.2928710333846
 20
2408.6435183963303
 11
1756.2927638094611
 21
2413.643411172407
  0
LINE
  8
_0-0_
  6
CONTINUOUS
 62
    7
 10
1737.150735409652
 20
2408.6435183963312
 11
1742.1506281857291
 21
2413.6434111724083
  0
LINE
  8
_0-0_
  6
CONTINUOUS
 62
    7
 10
1723.0085997859196
 20
2408.6435183963321
 11
1728.0084925619967
 21
2413.6434111724097
  0
LINE
  8
_0-0_
  6
CONTINUOUS
 62
    7
 10
1708.8664641622017
 20
2408.6435183963294
 11
1713.8663569382792
 21
2413.643411172407
  0
LINE
  8
_0-0_
  6
CONTINUOUS
 62
    7
 10
1708.8226235879437
 20
2422.7418134458048
 11
1713.8226235879392
 21
2427.7418134458002
  0
LINE
  8
_0-0_
  6
CONTINUOUS
 62
    7
 10
1708.8226235879424
 20
2436.8839490695368
 11
1713.8226235879419
 21
2441.8839490695363
  0
LINE
  8
_0-0_
  6
CONTINUOUS
 62
    7
 10
1662.6203530367206
 20
2404.8238141420488
 11
1663.8417079499881
 21
2406.0451690553163
  0
LINE
  8
_0-0_
  6
CONTINUOUS
 62
    7
 10
1708.822623587941
 20
2451.0260846932687
 11
1713.8226235879403
 21
2456.0260846932683
  0
LINE
  8
_0-0_
  6
CONTINUOUS
 62
    7
 10
1658.8226277119424
 20
2415.1682244410035
 11
1663.8417079499863
 21
2420.1873046790474
  0
LINE
  8
_0-0_
  6
CONTINUOUS
 62
    7
 10
1708.8226235879392
 20
2465.1682203170003
 11
1713.8226235879392
 21
2470.1682203170003
  0
LINE
  8
_0-0_
  6
CONTINUOUS
 62
    7
 10
1658.8226277119406
 20
2429.310360064735
 11
1663.8417079499843
 21
2434.3294403027784
  0
LINE
  8
_0-0_
  6
CONTINUOUS
 62
    7
 10
1703.1557695475494
 20
2473.6435019003438
 11
1708.1557695475487
 21
2478.6435019003429
  0
LINE
  8
_0-0_
  6
CONTINUOUS
 62
    7
 10
1658.8226277119385
 20
2443.4524956884665
 11
1663.8417079499872
 21
2448.471575926515
  0
LINE
  8
_0-0_
  6
CONTINUOUS
 62
    7
 10
1689.0136339238151
 20
2473.6435019003429
 11
1694.0136339238156
 21
2478.6435019003433
  0
LINE
  8
_0-0_
  6
CONTINUOUS
 62
    7
 10
1658.8226277119415
 20
2457.5946313121939
 11
1663.841707949989
 21
2462.613711550241
  0
LINE
  8
_0-0_
  6
CONTINUOUS
 62
    7
 10
1674.8714983000859
 20
2473.6435019003379
 11
1679.8714983000872
 21
2478.6435019003392
  0
LINE
  8
_0-0_
  6
CONTINUOUS
 62
    7
 10
1658.8226277119442
 20
2471.7367669359205
 11
1665.7293626763587
 21
2478.6435019003347
  0
TEXT
  8
_0-0_
 62
    7
 10
2169.6381538675013
 20
2006.0891397275227
 40
40
 41
0.8
 50
0
  1
ズレ止プレート
  0
LINE
  8
_0-0_
  6
CONTINUOUS
 62
    7
 10
2122.3881357219142
 20
2040.2141842666906
 11
2169.638130773118
 21
2006.0891397275227
  0
LINE
  8
_0-0_
  6
CONTINUOUS
 62
    7
 10
2132.8224965688345
 20
1948.6434854043498
 11
2138.8225411080024
 21
1946.6434293179897
  0
LINE
  8
_0-0_
  6
CONTINUOUS
 62
    7
 10
2169.638130773118
 20
2006.0891397275227
 11
2404.3154052603331
 21
2006.0891397275227
  0
LINE
  8
_0-0_
  6
CONTINUOUS
 62
    7
 10
4462.0725229624158
 20
2066.643454061972
 11
4304.0725460567991
 21
2066.643454061972
  0
LINE
  8
_0-0_
  6
CONTINUOUS
 62
    7
 10
4462.0725229624158
 20
2022.6433336412585
 11
4304.0725460567991
 21
2022.6433336412585
  0
LINE
  8
_0-0_
  6
CONTINUOUS
 62
    7
 10
4304.0725460567991
 20
2066.643454061972
 11
4304.0725460567991
 21
2022.6433336412585
  0
ENDSEC
  0
EOF
