  0
SECTION
  2
HEADER
  9
$ACADVER
  1
AC1009
  9
$INSBASE
 10
0
 20
0
 30
0
  9
$EXTMIN
 10
0
 20
0
  9
$EXTMAX
 10
5940
 20
4200
  9
$LIMMIN
 10
0
 20
0
  9
$LIMMAX
 10
5940
 20
4200
  9
$LTSCALE
 40
10
  0
ENDSEC
  0
SECTION
  2
TABLES
  0
TABLE
  2
LTYPE
 70
     9
  0
LTYPE
  2
CONTINUOUS
 70
    64
  3
実線
 72
    65
 73
     0
 40
0.0
  0
LTYPE
  2
DASHED1
 70
    64
  3
--  --  --  --  --  --  --  --  
 72
    65
 73
     2
 40
2.5
 49
1.25
 49
-1.25
  0
LTYPE
  2
DASHED2
 70
    64
  3
----    ----    ----    ----    
 72
    65
 73
     2
 40
5.0
 49
2.5
 49
-2.5
  0
LTYPE
  2
DASHED3
 70
    64
  3
------  ------  ------  ------  
 72
    65
 73
     2
 40
5.0
 49
3.75
 49
-1.25
  0
LTYPE
  2
CENTER1
 70
    64
  3
----- - ----- - ----- - ----- - 
 72
    65
 73
     4
 40
10.0
 49
6.25
 49
-1.25
 49
1.25
 49
-1.25
  0
LTYPE
  2
CENTER2
 70
    64
  3
----------  --  ----------  --  
 72
    65
 73
     4
 40
20.0
 49
12.5
 49
-2.5
 49
2.5
 49
-2.5
  0
LTYPE
  2
PHANTOM1
 70
    64
  3
--- - - --- - - --- - - --- - - 
 72
    65
 73
     6
 40
10.0
 49
3.25
 49
-1.25
 49
1.25
 49
-1.25
 49
1.25
 49
-1.25
  0
LTYPE
  2
PHANTOM2
 70
    64
  3
--------  -  -  --------  -  -  
 72
    65
 73
     6
 40
20.0
 49
10.0
 49
-2.5
 49
1.25
 49
-2.5
 49
1.25
 49
-2.5
  0
LTYPE
  2
DOT
 70
    64
  3
-   -   -   -   -   -   -   -   
 72
    65
 73
     2
 40
2.5
 49
0.625
 49
-1.875
  0
LTYPE
  2
DUMMY
 70
    64
  3
ダミー
 72
    65
 73
     0
 40
0.0
  0
LTYPE
  2
RAND1
 70
    64
  3
ランダム線1
 72
    65
 73
     4
 40
10.0
 49
1.0
 49
-2.0
 49
3.0
 49
-4.0
  0
LTYPE
  2
RAND2
 70
    64
  3
ランダム線2
 72
    65
 73
     4
 40
14.0
 49
2.0
 49
-3.0
 49
4.0
 49
-5.0
  0
LTYPE
  2
RAND3
 70
    64
  3
ランダム線3
 72
    65
 73
     4
 40
18.0
 49
3.0
 49
-4.0
 49
5.0
 49
-6.0
  0
LTYPE
  2
RAND4
 70
    64
  3
ランダム線4
 72
    65
 73
     4
 40
22.0
 49
4.0
 49
-5.0
 49
6.0
 49
-7.0
  0
LTYPE
  2
RAND5
 70
    64
  3
ランダム線5
 72
    65
 73
     4
 40
26.0
 49
5.0
 49
-6.0
 49
7.0
 49
-8.0
  0
LTYPE
  2
LONG1
 70
    64
  3
----------  --  ----------  --  
 72
    65
 73
     4
 40
40.0
 49
32.5
 49
-2.5
 49
2.5
 49
-2.5
  0
LTYPE
  2
LONG2
 70
    64
  3
--------  -  -  --------  -  -  
 72
    65
 73
     6
 40
40.0
 49
30.0
 49
-2.5
 49
1.25
 49
-2.5
 49
1.25
 49
-2.5
  0
LTYPE
  2
LONG3
 70
    64
  3
+++++++++++++++..+++++++++++++++
 72
    65
 73
     2
 40
40.0
 49
37.5
 49
-2.5
  0
LTYPE
  2
LONG4
 70
    64
  3
+++++++++++++++..+++++++++++++++
 72
    65
 73
     2
 40
80.0
 49
75.0
 49
-5.0
  0
LTYPE
  2
LONG5
 70
    64
  3
----------  --  ----------  --  
 72
    65
 73
     4
 40
60.0
 49
37.5
 49
-7.5
 49
7.5
 49
-7.5
  0
LTYPE
  2
dashed
 70
   64
  3
-------   -------------   ------
 72
   65
 73
    2
 40
7.5
 49
6
 49
-1.5
  0
LTYPE
  2
dashed_spaced
 70
   64
  3
----        --------        ----
 72
   65
 73
    2
 40
12
 49
6
 49
-6
  0
LTYPE
  2
long_dashed_dotted
 70
   64
  3
------------- --- --------------
 72
   65
 73
    4
 40
15.25
 49
12
 49
-1.5
 49
0.25
 49
-1.5
  0
LTYPE
  2
long_dashed_double-dotted
 70
   64
  3
----------- --- --- ------------
 72
   65
 73
    6
 40
17
 49
12
 49
-1.5
 49
0.25
 49
-1.5
 49
0.25
 49
-1.5
  0
LTYPE
  2
long_dashed_triplicate-dotted
 70
   64
  3
--------- --- --- --- ----------
 72
   65
 73
    8
 40
18.75
 49
12
 49
-1.5
 49
0.25
 49
-1.5
 49
0.25
 49
-1.5
 49
0.25
 49
-1.5
  0
LTYPE
  2
dotted
 70
   64
  3
   -       -       -       -    
 72
   65
 73
    2
 40
1.75
 49
0.25
 49
-1.5
  0
LTYPE
  2
chain
 70
   64
  3
-------------- -- --------------
 72
   65
 73
    4
 40
18.5
 49
12
 49
-1.5
 49
3.5
 49
-1.5
  0
LTYPE
  2
chain_double_dash
 70
   64
  3
------------ -- -- -------------
 72
   65
 73
    6
 40
23.5
 49
12
 49
-1.5
 49
3.5
 49
-1.5
 49
3.5
 49
-1.5
  0
LTYPE
  2
dashed_dotted
 70
   64
  3
-----------     -     ----------
 72
   65
 73
    4
 40
9.25
 49
6
 49
-1.5
 49
0.25
 49
-1.5
  0
LTYPE
  2
double-dashed_dotted
 70
   64
  3
------   -----------   -   -----
 72
   65
 73
    6
 40
16.75
 49
6
 49
-1.5
 49
6
 49
-1.5
 49
0.25
 49
-1.5
  0
LTYPE
  2
dashed_double-dotted
 70
   64
  3
---------    -    -    ---------
 72
   65
 73
    6
 40
11
 49
6
 49
-1.5
 49
0.25
 49
-1.5
 49
0.25
 49
-1.5
  0
LTYPE
  2
double-dashed_double-dotted
 70
   64
  3
-----   ---------   -   -   ----
 72
   65
 73
    8
 40
18.5
 49
6
 49
-1.5
 49
6
 49
-1.5
 49
0.25
 49
-1.5
 49
0.25
 49
-1.5
  0
LTYPE
  2
dashed_triplicate-dotted
 70
   64
  3
-------    -    -    -    ------
 72
   65
 73
    8
 40
12.75
 49
6
 49
-1.5
 49
0.25
 49
-1.5
 49
0.25
 49
-1.5
 49
0.25
 49
-1.5
  0
LTYPE
  2
double-dashed_triplicate-dotted
 70
   64
  3
-----  ---------  -  -  -  -----
 72
   65
 73
   10
 40
20.25
 49
6
 49
-1.5
 49
6
 49
-1.5
 49
0.25
 49
-1.5
 49
0.25
 49
-1.5
 49
0.25
 49
-1.5
  0
LTYPE
  2
undefined
 70
   64
  3
--------------------------------
 72
   65
 73
    0
 40
0
  0
LTYPE
  2
_
 70
   64
  3
                                
 72
   65
 73
    0
 40
0
  0
LTYPE
  2
__18
 70
   64
  3
                                
 72
   65
 73
    0
 40
0
  0
LTYPE
  2
__19
 70
   64
  3
                                
 72
   65
 73
    0
 40
0
  0
LTYPE
  2
__20
 70
   64
  3
                                
 72
   65
 73
    0
 40
0
  0
LTYPE
  2
__21
 70
   64
  3
                                
 72
   65
 73
    0
 40
0
  0
LTYPE
  2
__22
 70
   64
  3
                                
 72
   65
 73
    0
 40
0
  0
LTYPE
  2
__23
 70
   64
  3
                                
 72
   65
 73
    0
 40
0
  0
LTYPE
  2
__24
 70
   64
  3
                                
 72
   65
 73
    0
 40
0
  0
LTYPE
  2
__25
 70
   64
  3
                                
 72
   65
 73
    0
 40
0
  0
LTYPE
  2
__26
 70
   64
  3
                                
 72
   65
 73
    0
 40
0
  0
LTYPE
  2
__27
 70
   64
  3
                                
 72
   65
 73
    0
 40
0
  0
LTYPE
  2
__28
 70
   64
  3
                                
 72
   65
 73
    0
 40
0
  0
LTYPE
  2
__29
 70
   64
  3
                                
 72
   65
 73
    0
 40
0
  0
LTYPE
  2
__30
 70
   64
  3
                                
 72
   65
 73
    0
 40
0
  0
LTYPE
  2
__31
 70
   64
  3
                                
 72
   65
 73
    0
 40
0
  0
LTYPE
  2
__32
 70
   64
  3
                                
 72
   65
 73
    0
 40
0
  0
ENDTAB
  0
TABLE
  2
STYLE
  5
3
100
AcDbSymbolTable
 70
     1
  0
STYLE
  5
10
100
AcDbSymbolTableRecord
100
AcDbTextStyleTableRecord
  2
STANDARD
 70
     0
 40
0.0
 41
1.0
 50
0.0
 71
     0
 42
0.2
  3
txt
  4
bigfont.shx
  0
STYLE
  5
26
100
AcDbSymbolTableRecord
100
AcDbTextStyleTableRecord
  2
TATEGAKI
 70
    68
 40
0.0
 41
1.0
 50
0.0
 71
     0
 42
1.0
  3
txt
  4
bigfont.shx
  0
ENDTAB
  0
TABLE
  2
LAYER
 70
    3
  0
LAYER
  2
_0-0_
 70
   64
 62
    7
  6
CONTINUOUS
  0
LAYER
  2
_1-0_
 70
   64
 62
    7
  6
CONTINUOUS
  0
LAYER
  2
ADD_LINE
 70
   64
 62
    7
  6
CONTINUOUS
  0
ENDTAB
  0
ENDSEC
  0
SECTION
  2
BLOCKS
  0
ENDSEC
  0
SECTION
  2
ENTITIES
  0
TEXT
  8
_0-0_
 62
    7
 10
1811.8817835627376
 20
2021.8912403003591
 40
30
 41
0.7999999999999999
 50
0
  1
R50
  0
TEXT
  8
_0-0_
 62
    7
 10
1724.5726087415541
 20
2601.7684441643791
 40
40
 41
0.8
 50
0
  1
54
  0
TEXT
  8
_0-0_
 62
    7
 10
1893.8226079167545
 20
2601.7684441643791
 40
40
 41
0.8
 50
0
  1
302
  0
TEXT
  8
_0-0_
 62
    7
 10
2080.5725708007812
 20
2601.7684441643791
 40
40
 41
0.8
 50
0
  1
54
  0
TEXT
  8
_0-0_
 62
    7
 10
1670.0725959571632
 20
2670.0184095228041
 40
40
 41
0.8
 50
0
  1
55
  0
TEXT
  8
_0-0_
 62
    7
 10
1893.8226079167545
 20
2670.0184095228041
 40
40
 41
0.8
 50
0
  1
410
  0
TEXT
  8
_0-0_
 62
    7
 10
2135.0725526551941
 20
2670.0184095228041
 40
40
 41
0.8
 50
0
  1
55
  0
TEXT
  8
_0-0_
 62
    7
 10
1893.8226079167545
 20
2748.7683600348395
 40
40
 41
0.8
 50
0
  1
520
  0
TEXT
  8
_0-0_
 62
    7
 10
1913.8226656365745
 20
2427.3934804555533
 40
40
 41
0.8
 50
90.00000250447816
  1
70
  0
TEXT
  8
_0-0_
 62
    7
 10
3419.5727126662795
 20
2748.7683600348395
 40
40
 41
0.8
 50
0
  1
2,000
  0
TEXT
  8
_1-0_
 62
    7
 10
3947.6926236539275
 20
1069.9005147573111
 40
50
 41
0.8
 50
0
  1
岩城ブロック工業株式会社
  0
TEXT
  8
_1-0_
 62
    7
 10
3318.5746525944891
 20
1072.8475539748733
 40
40
 41
0.8
 50
0
  1
参考重量
  0
TEXT
  8
_1-0_
 62
    7
 10
2936.8351638381545
 20
1069.3255573994406
 40
40
 41
0.8
 50
0
  1
図　番
  0
TEXT
  8
_1-0_
 62
    7
 10
2436.6525738690352
 20
1066.077600427576
 40
40
 41
0.8
 50
0
  1
分　類
  0
TEXT
  8
_1-0_
 62
    7
 10
1374.5765980900944
 20
1069.3257120493296
 40
40
 41
0.8
 50
0
  1
名　称
  0
TEXT
  8
_0-0_
 62
    7
 10
1523.6250016496535
 20
2848.1250989759055
 40
60
 41
0.7999999999999999
 50
-0.0000506330528652
  1
断  面  図
  0
TEXT
  8
_0-0_
 62
    7
 10
2405.6249917520603
 20
2869.1250692831822
 40
60
 41
0.7999999999999999
 50
-0.0000506330756635
  1
側  面  図
  0
TEXT
  8
_0-0_
 62
    7
 10
1918.8225588716209
 20
2173.1435423155089
 40
40
 41
0.8
 50
90.00000250447816
  1
425
  0
TEXT
  8
_0-0_
 62
    7
 10
1916.6974214959495
 20
1917.2334363782726
 40
40
 41
0.8
 50
90.00000250447816
  1
90
  0
TEXT
  8
_0-0_
 62
    7
 10
1480.3938347373307
 20
2163.1435093235322
 40
40
 41
0.8
 50
90.000002504478004
  1
585
  0
TEXT
  8
_0-0_
 62
    7
 10
1558.943111553209
 20
2335.6434598355681
 40
40
 41
0.8
 50
90.000002504478004
  1
240
  0
TEXT
  8
_0-0_
 62
    7
 10
1558.9431110942393
 20
2201.6434903531462
 40
40
 41
0.8
 50
90.00000250447816
  1
45
  0
TEXT
  8
_0-0_
 62
    7
 10
1558.943111553209
 20
2020.6435340675147
 40
40
 41
0.8
 50
90.000002504478004
  1
300
  0
TEXT
  8
_0-0_
 62
    7
 10
2206.4875471785262
 20
2326.0024529534421
 40
40
 41
0.8
 50
0
  1
連結金具
  0
TEXT
  8
_0-0_
 62
    7
 10
1599.7500754691461
 20
1076.2500061859955
 40
50
 41
0.8
 50
0
  1
横断側溝ＧＩ　３００Ｂ
  0
TEXT
  8
_0-0_
 62
    7
 10
3584.2500098975933
 20
1076.2500061859955
 40
50
 41
0.8
 50
0
  1
605Kg
  0
TEXT
  8
_0-0_
 62
    7
 10
1729.3226182267474
 20
1805.6534555796031
 40
40
 41
0.8
 50
0
  1
80
  0
TEXT
  8
_0-0_
 62
    7
 10
1895.8225712131809
 20
1805.6534555796031
 40
40
 41
0.8
 50
0
  1
270
  0
TEXT
  8
_0-0_
 62
    7
 10
2079.3225048168287
 20
1805.6534555796031
 40
40
 41
0.8
 50
0
  1
80
  0
TEXT
  8
_0-0_
 62
    7
 10
1913.8226656365745
 20
2427.3934804555533
 40
40
 41
0.8
 50
90.00000250447843
  1
70
  0
LINE
  8
_0-0_
  6
CONTINUOUS
 62
    7
 10
1713.8226235879435
 20
2596.7684276683912
 11
1767.8225914207664
 21
2596.7684276683912
  0
LINE
  8
_0-0_
  6
CONTINUOUS
 62
    7
 10
1713.8226235879435
 20
2596.7684276683912
 11
1713.8226235879435
 21
2489.1434870539487
  0
LINE
  8
_0-0_
  6
CONTINUOUS
 62
    7
 10
1767.8225914207664
 20
2596.7684276683912
 11
1767.8225914207664
 21
2489.1434870539487
  0
LINE
  8
_0-0_
  6
CONTINUOUS
 62
    7
 10
1767.8225914207664
 20
2596.7684276683912
 11
2069.8225856471703
 21
2596.7684276683912
  0
LINE
  8
_0-0_
  6
CONTINUOUS
 62
    7
 10
2069.8225856471703
 20
2596.7684276683912
 11
2069.8225856471703
 21
2489.1434870539487
  0
LINE
  8
_0-0_
  6
CONTINUOUS
 62
    7
 10
2069.8225856471703
 20
2596.7684276683912
 11
2123.8226153399496
 21
2596.7684276683912
  0
LINE
  8
_0-0_
  6
CONTINUOUS
 62
    7
 10
2123.8226153399496
 20
2596.7684276683912
 11
2123.8226153399496
 21
2489.1434870539487
  0
LINE
  8
_0-0_
  6
CONTINUOUS
 62
    7
 10
1658.8226277119406
 20
2665.0185167467275
 11
1713.8226235879435
 21
2665.0185167467275
  0
LINE
  8
_0-0_
  6
CONTINUOUS
 62
    7
 10
1658.8226277119406
 20
2665.0185167467275
 11
1658.8226277119406
 21
2489.1434870539487
  0
LINE
  8
_0-0_
  6
CONTINUOUS
 62
    7
 10
1713.8226235879435
 20
2665.0185167467275
 11
1713.8226235879435
 21
2489.1434870539487
  0
LINE
  8
_0-0_
  6
CONTINUOUS
 62
    7
 10
1713.8226235879435
 20
2665.0185167467275
 11
2123.8226153399496
 21
2665.0185167467275
  0
LINE
  8
_0-0_
  6
CONTINUOUS
 62
    7
 10
2123.8226153399496
 20
2665.0185167467275
 11
2123.8226153399496
 21
2489.1434870539487
  0
LINE
  8
_0-0_
  6
CONTINUOUS
 62
    7
 10
2123.8226153399496
 20
2665.0185167467275
 11
2178.8225493559966
 21
2665.0185167467275
  0
LINE
  8
_0-0_
  6
CONTINUOUS
 62
    7
 10
2178.8225493559966
 20
2665.0185167467275
 11
2178.8225493559966
 21
2489.1434870539487
  0
LINE
  8
_0-0_
  6
CONTINUOUS
 62
    7
 10
1658.8226277119406
 20
2743.7685909786741
 11
2178.8225493559966
 21
2743.7685909786741
  0
LINE
  8
_0-0_
  6
CONTINUOUS
 62
    7
 10
1658.8226277119406
 20
2743.7685909786741
 11
1658.8226277119406
 21
2489.1434870539487
  0
LINE
  8
_0-0_
  6
CONTINUOUS
 62
    7
 10
2178.8225493559966
 20
2743.7685909786741
 11
2178.8225493559966
 21
2489.1434870539487
  0
LINE
  8
_0-0_
  6
CONTINUOUS
 62
    7
 10
1918.8225576039908
 20
2478.6435019003379
 11
1918.8225576039908
 21
2408.6435183963258
  0
LINE
  8
_0-0_
  6
CONTINUOUS
 62
    7
 10
1918.8225576039908
 20
2408.6435183963258
 11
1918.8225576039908
 21
2083.6434359163849
  0
LINE
  8
_0-0_
  6
CONTINUOUS
 62
    7
 10
1918.8225576039908
 20
2478.6435019003379
 11
1740.4890276934652
 21
2478.6435019003379
  0
LINE
  8
_0-0_
  6
CONTINUOUS
 62
    7
 10
1767.8225914207664
 20
2408.6435183963258
 11
1724.1748871674408
 21
2408.6435183963258
  0
LINE
  8
_0-0_
  6
CONTINUOUS
 62
    7
 10
2083.8158024968329
 20
2378.643419420397
 11
2098.8243886586783
 21
2378.643419420397
  0
LINE
  8
_0-0_
  6
CONTINUOUS
 62
    7
 10
1738.8207884092589
 20
2378.643419420397
 11
1753.8293745711043
 21
2378.643419420397
  0
LINE
  8
_0-0_
  6
CONTINUOUS
 62
    7
 10
2462.0726054423566
 20
2408.6435183963258
 11
4462.0725229624158
 21
2408.6435183963258
  0
LINE
  8
_0-0_
  6
CONTINUOUS
 62
    7
 10
1658.8226277119406
 20
2478.6435019003379
 11
1713.8226235879435
 21
2478.6435019003379
  0
LINE
  8
_0-0_
  6
CONTINUOUS
 62
    7
 10
1713.8226235879435
 20
2408.6435183963258
 11
1767.8225914207664
 21
2408.6435183963258
  0
LINE
  8
_0-0_
  6
CONTINUOUS
 62
    7
 10
2178.8225493559966
 20
2478.6435019003379
 11
2178.8225493559966
 21
2408.6435183963258
  0
LINE
  8
_0-0_
  6
CONTINUOUS
 62
    7
 10
2123.8226153399496
 20
2478.6435019003379
 11
2178.8225493559966
 21
2478.6435019003379
  0
LINE
  8
_0-0_
  6
CONTINUOUS
 62
    7
 10
2069.8225856471703
 20
2408.6435183963258
 11
2123.8226153399496
 21
2408.6435183963258
  0
LINE
  8
_0-0_
  6
CONTINUOUS
 62
    7
 10
2462.0726054423566
 20
2478.6435019003379
 11
4462.0725229624158
 21
2478.6435019003379
  0
LINE
  8
_0-0_
  6
CONTINUOUS
 62
    7
 10
2462.0726054423566
 20
2743.7685909786741
 11
4462.0725229624158
 21
2743.7685909786741
  0
LINE
  8
_0-0_
  6
CONTINUOUS
 62
    7
 10
2462.0726054423566
 20
2743.7685909786741
 11
2462.0726054423566
 21
2489.1434870539487
  0
LINE
  8
_0-0_
  6
CONTINUOUS
 62
    7
 10
4462.0725229624158
 20
2743.7685909786741
 11
4462.0725229624158
 21
2489.1434870539487
  0
LINE
  8
_0-0_
  6
CONTINUOUS
 62
    7
 10
4422.0726384343324
 20
2348.6434441643796
 11
4462.0725229624158
 21
2348.6434441643796
  0
LINE
  8
_0-0_
  6
CONTINUOUS
 62
    7
 10
4422.0726384343324
 20
2308.6435596362966
 11
4462.0725229624158
 21
2308.6435596362966
  0
LINE
  8
_0-0_
  6
CONTINUOUS
 62
    7
 10
4412.0726054423566
 20
2318.6434689083616
 11
4412.0726054423566
 21
2338.6435348923141
  0
LINE
  8
_0-0_
  6
CONTINUOUS
 62
    7
 10
1337.249988865208
 20
1041.1250573235588
 11
1337.249988865208
 21
3416.1249439136399
  0
LINE
  8
_0-0_
  6
CONTINUOUS
 62
    7
 10
1337.249988865208
 20
3416.1249439136399
 11
4712.2497723553633
 21
3416.1249439136399
  0
LINE
  8
_0-0_
  6
CONTINUOUS
 62
    7
 10
4712.2497723553633
 20
3416.1249439136399
 11
4712.2497723553633
 21
1041.1250573235588
  0
LINE
  8
_0-0_
  6
CONTINUOUS
 62
    7
 10
4712.2497723553633
 20
1041.1250573235588
 11
1337.249988865208
 21
1041.1250573235588
  0
LINE
  8
_0-0_
  6
CONTINUOUS
 62
    7
 10
3774.7497723553633
 20
1041.1250573235588
 11
3774.7497723553633
 21
1166.1250676335516
  0
LINE
  8
_0-0_
  6
CONTINUOUS
 62
    7
 10
4712.2497723553633
 20
1166.1250676335516
 11
1337.2498651452965
 21
1166.1250676335516
  0
LINE
  8
_0-0_
  6
CONTINUOUS
 62
    7
 10
1524.7500197951858
 20
1041.1250573235588
 11
1524.7500197951858
 21
1166.1250676335516
  0
LINE
  8
_0-0_
  6
CONTINUOUS
 62
    7
 10
2399.7498135953337
 20
1041.1250573235588
 11
2399.7498135953337
 21
1166.1250676335516
  0
LINE
  8
_0-0_
  6
CONTINUOUS
 62
    7
 10
2587.2498135953333
 20
1041.1250573235588
 11
2587.2498135953333
 21
1166.1250676335516
  0
LINE
  8
_0-0_
  6
CONTINUOUS
 62
    7
 10
3087.2498548353041
 20
1041.1250573235588
 11
3087.2498548353041
 21
1166.1250676335516
  0
LINE
  8
_0-0_
  6
CONTINUOUS
 62
    7
 10
2899.7498548353041
 20
1041.1250573235588
 11
2899.7498548353041
 21
1166.1250676335516
  0
LINE
  8
_0-0_
  6
CONTINUOUS
 62
    7
 10
3274.7498548353041
 20
1041.1250573235588
 11
3274.7498548353041
 21
1166.1250676335516
  0
LINE
  8
_0-0_
  6
CONTINUOUS
 62
    7
 10
3524.7499373152454
 20
1041.1250573235588
 11
3524.7499373152454
 21
1166.1250676335516
  0
LINE
  8
_0-0_
  6
CONTINUOUS
 62
    7
 10
2071.573964711782
 20
2016.9522177206504
 11
2083.8158024968329
 21
2378.643419420397
  0
LINE
  8
_0-0_
  6
CONTINUOUS
 62
    7
 10
1766.0712742161106
 20
2016.9522177206504
 11
1753.8293745711043
 21
2378.643419420397
  0
LINE
  8
_0-0_
  6
CONTINUOUS
 62
    7
 10
1816.042674296611
 20
1968.6435513883022
 11
2021.6026264912372
 21
1968.6435513883022
  0
LINE
  8
_0-0_
  6
CONTINUOUS
 62
    7
 10
1751.5704345703125
 20
2001.9521682326858
 11
1738.8207884092589
 21
2378.643419420397
  0
LINE
  8
_0-0_
  6
CONTINUOUS
 62
    7
 10
2036.1034661370356
 20
1953.6435019003379
 11
1801.5417727908572
 21
1953.6435019003379
  0
LINE
  8
_0-0_
  6
CONTINUOUS
 62
    7
 10
2086.0749280774916
 20
2001.9521682326858
 11
2098.8243886586783
 21
2378.643419420397
  0
LINE
  8
_0-0_
  6
CONTINUOUS
 62
    7
 10
1918.8225576039908
 20
2408.6435183963258
 11
1918.8225576039908
 21
1983.6434771563558
  0
LINE
  8
_0-0_
  6
CONTINUOUS
 62
    7
 10
1918.8225576039908
 20
1983.6434771563558
 11
1918.8225576039908
 21
1893.6435513883025
  0
LINE
  8
_0-0_
  6
CONTINUOUS
 62
    7
 10
1918.8225576039908
 20
1893.6435513883025
 11
1791.6469017235008
 21
1893.6435513883025
  0
LINE
  8
_0-0_
  6
CONTINUOUS
 62
    7
 10
1790.2874054779877
 20
2002.7595643739441
 11
1802.0555197226035
 21
2016.2762121252112
  0
LINE
  8
_0-0_
  6
CONTINUOUS
 62
    7
 10
1790.2874054779877
 20
2002.7595643739441
 11
1820.9770573796454
 21
2022.6380136850718
  0
LINE
  8
_0-0_
  6
CONTINUOUS
 62
    7
 10
1780.5721757218643
 20
2031.9521434887037
 11
1767.8225914207664
 21
2408.6435183963258
  0
LINE
  8
_0-0_
  6
CONTINUOUS
 62
    7
 10
2057.0731250659837
 20
2031.9521434887037
 11
2069.8225856471703
 21
2408.6435183963258
  0
LINE
  8
_0-0_
  6
CONTINUOUS
 62
    7
 10
1918.8225576039908
 20
1983.6434771563558
 11
1830.543575802365
 21
1983.6434771563558
  0
LINE
  8
_0-0_
  6
CONTINUOUS
 62
    7
 10
2007.1017868454391
 20
1983.6434771563558
 11
1830.543575802365
 21
1983.6434771563558
  0
LINE
  8
_0-0_
  6
CONTINUOUS
 62
    7
 10
1918.8225576039908
 20
2408.6435183963258
 11
1791.6469017235008
 21
2408.6435183963258
  0
LINE
  8
_0-0_
  6
CONTINUOUS
 62
    7
 10
1918.8225576039908
 20
2408.6435183963258
 11
1791.6469017235008
 21
2408.6435183963258
  0
LINE
  8
_0-0_
  6
CONTINUOUS
 62
    7
 10
1658.8226277119406
 20
2478.6435019003379
 11
1658.8226277119406
 21
2238.6434524123733
  0
LINE
  8
_0-0_
  6
CONTINUOUS
 62
    7
 10
2178.8225493559966
 20
2408.6435183963258
 11
2178.8225493559966
 21
2238.6434524123733
  0
LINE
  8
_0-0_
  6
CONTINUOUS
 62
    7
 10
1480.3938334697002
 20
2478.6435019003379
 11
1480.3938334697002
 21
1893.6435513883025
  0
LINE
  8
_0-0_
  6
CONTINUOUS
 62
    7
 10
1480.3938334697002
 20
2478.6435019003379
 11
1644.2002332532729
 21
2478.6435019003379
  0
LINE
  8
_0-0_
  6
CONTINUOUS
 62
    7
 10
1480.3938334697002
 20
1893.6435513883025
 11
1644.2002332532729
 21
1893.6435513883025
  0
LINE
  8
_0-0_
  6
CONTINUOUS
 62
    7
 10
1558.9431102855787
 20
2478.6435019003379
 11
1558.9431102855787
 21
2238.6434524123733
  0
LINE
  8
_0-0_
  6
CONTINUOUS
 62
    7
 10
1558.9431102855787
 20
2478.6435019003379
 11
1644.2002332532729
 21
2478.6435019003379
  0
LINE
  8
_0-0_
  6
CONTINUOUS
 62
    7
 10
1558.9431102855787
 20
2238.6434524123733
 11
1558.9431102855787
 21
2188.6435348923141
  0
LINE
  8
_0-0_
  6
CONTINUOUS
 62
    7
 10
2462.0726054423566
 20
2238.6434524123733
 11
4462.0725229624158
 21
2238.6434524123733
  0
LINE
  8
_0-0_
  6
CONTINUOUS
 62
    7
 10
2462.0726054423566
 20
2188.6434111724029
 11
4462.0725229624158
 21
2188.6434111724029
  0
LINE
  8
_0-0_
  6
CONTINUOUS
 62
    7
 10
2462.0726054423566
 20
1983.6434771563558
 11
4462.0725229624158
 21
1983.6434771563558
  0
LINE
  8
_0-0_
  6
CONTINUOUS
 62
    7
 10
2462.0726054423566
 20
1914.7434873838683
 11
4462.0725229624158
 21
1914.7434873838683
  0
LINE
  8
_0-0_
  6
CONTINUOUS
 62
    7
 10
2462.0726054423566
 20
1914.7434873838683
 11
2462.0726054423566
 21
2478.6435019003379
  0
LINE
  8
_0-0_
  6
CONTINUOUS
 62
    7
 10
2462.0726054423566
 20
1914.7434873838683
 11
2483.1725414379225
 21
1893.6435513883025
  0
LINE
  8
_0-0_
  6
CONTINUOUS
 62
    7
 10
2483.1725414379225
 20
1893.6435513883025
 11
4440.97258696685
 21
1893.6435513883025
  0
LINE
  8
_0-0_
  6
CONTINUOUS
 62
    7
 10
4462.0725229624158
 20
1914.7434873838683
 11
4462.0725229624158
 21
2478.6435019003379
  0
LINE
  8
_0-0_
  6
CONTINUOUS
 62
    7
 10
4462.0725229624158
 20
1914.7434873838683
 11
4440.97258696685
 21
1893.6435513883025
  0
LINE
  8
_0-0_
  6
CONTINUOUS
 62
    7
 10
1537.5775476404141
 20
2478.6435019003379
 11
1644.2002332532729
 21
2478.6435019003379
  0
LINE
  8
_0-0_
  6
CONTINUOUS
 62
    7
 10
2462.0726054423566
 20
2066.643454061972
 11
4462.0725229624158
 21
2066.643454061972
  0
LINE
  8
_0-0_
  6
CONTINUOUS
 62
    7
 10
2462.0726054423566
 20
2022.6433336412585
 11
4462.0725229624158
 21
2022.6433336412585
  0
LINE
  8
_0-0_
  6
CONTINUOUS
 62
    7
 10
2462.0726054423566
 20
2140.6435497387037
 11
2620.0725823479729
 21
2140.6435497387037
  0
LINE
  8
_0-0_
  6
CONTINUOUS
 62
    7
 10
2462.0726054423566
 20
2096.64342931799
 11
2620.0725823479729
 21
2096.64342931799
  0
LINE
  8
_0-0_
  6
CONTINUOUS
 62
    7
 10
2620.0725823479729
 20
2140.6435497387037
 11
2620.0725823479729
 21
2096.64342931799
  0
LINE
  8
_0-0_
  6
CONTINUOUS
 62
    7
 10
1658.8226277119406
 20
2238.6434524123733
 11
1703.8226524559227
 21
2193.6435513883025
  0
LINE
  8
_0-0_
  6
CONTINUOUS
 62
    7
 10
2178.8225493559966
 20
2238.6434524123733
 11
2133.8225246120141
 21
2193.6435513883025
  0
LINE
  8
_0-0_
  6
CONTINUOUS
 62
    7
 10
1703.8226524559227
 20
2140.6435497387037
 11
1709.8226351351352
 21
2138.6434936523437
  0
LINE
  8
_0-0_
  6
CONTINUOUS
 62
    7
 10
1709.8226351351352
 20
2138.6434936523437
 11
1709.8226351351352
 21
2098.6434854043495
  0
LINE
  8
_0-0_
  6
CONTINUOUS
 62
    7
 10
1709.8226351351352
 20
2098.6434854043495
 11
1703.8226524559227
 21
2096.64342931799
  0
LINE
  8
_0-0_
  6
CONTINUOUS
 62
    7
 10
1703.8226524559227
 20
1914.7434873838683
 11
1724.9226503114441
 21
1893.6435513883025
  0
LINE
  8
_0-0_
  6
CONTINUOUS
 62
    7
 10
1703.8226524559227
 20
2066.643454061972
 11
1709.8226351351352
 21
2064.6433979756125
  0
LINE
  8
_0-0_
  6
CONTINUOUS
 62
    7
 10
1709.8226351351352
 20
2064.6433979756125
 11
1709.8226351351352
 21
2024.6433897276183
  0
LINE
  8
_0-0_
  6
CONTINUOUS
 62
    7
 10
1709.8226351351352
 20
2024.6433897276183
 11
1703.8226524559227
 21
2022.6433336412585
  0
LINE
  8
_0-0_
  6
CONTINUOUS
 62
    7
 10
1703.8226524559227
 20
1914.7434873838683
 11
1703.8226524559227
 21
2022.6433336412585
  0
LINE
  8
_0-0_
  6
CONTINUOUS
 62
    7
 10
1703.8226524559227
 20
2066.643454061972
 11
1703.8226524559227
 21
2096.64342931799
  0
LINE
  8
_0-0_
  6
CONTINUOUS
 62
    7
 10
1703.8226524559227
 20
2140.6435497387037
 11
1703.8226524559227
 21
2193.6435513883025
  0
LINE
  8
_0-0_
  6
CONTINUOUS
 62
    7
 10
2127.8224800728462
 20
2138.6434936523437
 11
2127.8224800728462
 21
2098.6434854043495
  0
LINE
  8
_0-0_
  6
CONTINUOUS
 62
    7
 10
2127.8224800728462
 20
2138.6434936523437
 11
2133.8225246120141
 21
2140.6435497387037
  0
LINE
  8
_0-0_
  6
CONTINUOUS
 62
    7
 10
2127.8224800728462
 20
2064.6433979756125
 11
2127.8224800728462
 21
2024.6433897276183
  0
LINE
  8
_0-0_
  6
CONTINUOUS
 62
    7
 10
2127.8224800728462
 20
2064.6433979756125
 11
2133.8225246120141
 21
2066.643454061972
  0
LINE
  8
_0-0_
  6
CONTINUOUS
 62
    7
 10
2133.8225246120141
 20
1914.7434873838683
 11
2133.8225246120141
 21
2022.6433336412585
  0
LINE
  8
_0-0_
  6
CONTINUOUS
 62
    7
 10
2133.8225246120141
 20
2066.643454061972
 11
2133.8225246120141
 21
2096.64342931799
  0
LINE
  8
_0-0_
  6
CONTINUOUS
 62
    7
 10
2133.8225246120141
 20
2140.6435497387037
 11
2133.8225246120141
 21
2193.6435513883025
  0
LINE
  8
_0-0_
  6
CONTINUOUS
 62
    7
 10
2133.8225246120141
 20
1914.7434873838683
 11
2112.722464896537
 21
1893.6435513883025
  0
LINE
  8
_0-0_
  6
CONTINUOUS
 62
    7
 10
1703.8226524559227
 20
1914.7434873838683
 11
2133.8225246120141
 21
1914.7434873838683
  0
LINE
  8
_0-0_
  6
CONTINUOUS
 62
    7
 10
1724.9226503114441
 20
1893.6435513883025
 11
2112.722464896537
 21
1893.6435513883025
  0
LINE
  8
_0-0_
  6
CONTINUOUS
 62
    7
 10
1558.9431102855787
 20
2238.6434524123733
 11
1558.9431102855787
 21
2193.6435513883025
  0
LINE
  8
_0-0_
  6
CONTINUOUS
 62
    7
 10
1558.9431102855787
 20
2238.6434524123733
 11
1644.2002332532729
 21
2238.6434524123733
  0
LINE
  8
_0-0_
  6
CONTINUOUS
 62
    7
 10
1558.9431102855787
 20
2193.6435513883025
 11
1558.9431102855787
 21
1893.6435513883025
  0
LINE
  8
_0-0_
  6
CONTINUOUS
 62
    7
 10
1558.9431102855787
 20
1893.6435513883025
 11
1644.2002332532729
 21
1893.6435513883025
  0
LINE
  8
_0-0_
  6
CONTINUOUS
 62
    7
 10
1558.9431102855787
 20
2238.6434524123733
 11
1644.2002332532729
 21
2238.6434524123733
  0
LINE
  8
_0-0_
  6
CONTINUOUS
 62
    7
 10
1558.9431102855787
 20
2193.6435513883025
 11
1644.2002332532729
 21
2193.6435513883025
  0
LINE
  8
_0-0_
  6
CONTINUOUS
 62
    7
 10
1537.5775476404141
 20
1893.6435513883025
 11
1644.2002332532729
 21
1893.6435513883025
  0
LINE
  8
_0-0_
  6
CONTINUOUS
 62
    7
 10
1703.8226524559227
 20
1805.6534555796031
 11
1783.8226070919554
 21
1805.6534555796031
  0
LINE
  8
_0-0_
  6
CONTINUOUS
 62
    7
 10
2053.8225081160262
 20
1805.6534555796031
 11
2133.8225246120141
 21
1805.6534555796031
  0
LINE
  8
_0-0_
  6
CONTINUOUS
 62
    7
 10
1658.8226277119406
 20
2318.6434689083616
 11
1698.8226359599345
 21
2318.6434689083616
  0
LINE
  8
_0-0_
  6
CONTINUOUS
 62
    7
 10
1658.8226277119406
 20
2278.6435843802787
 11
1698.8226359599345
 21
2278.6435843802787
  0
LINE
  8
_0-0_
  6
CONTINUOUS
 62
    7
 10
1698.8226359599345
 20
2318.6434689083616
 11
1698.8226359599345
 21
2278.6435843802787
  0
LINE
  8
_0-0_
  6
CONTINUOUS
 62
    7
 10
2138.8225411080024
 20
2318.6434689083616
 11
2138.8225411080024
 21
2278.6435843802787
  0
LINE
  8
_0-0_
  6
CONTINUOUS
 62
    7
 10
2138.8225411080024
 20
2318.6434689083616
 11
2178.8225493559966
 21
2318.6434689083616
  0
LINE
  8
_0-0_
  6
CONTINUOUS
 62
    7
 10
2138.8225411080024
 20
2278.6435843802787
 11
2178.8225493559966
 21
2278.6435843802787
  0
LINE
  8
_0-0_
  6
CONTINUOUS
 62
    7
 10
2161.8625290329391
 20
2297.1274628510345
 11
2206.4875587257179
 21
2326.0024529534421
  0
LINE
  8
_0-0_
  6
CONTINUOUS
 62
    7
 10
2206.4875587257179
 20
2326.0024529534421
 11
2342.9874894425674
 21
2326.0024529534421
  0
LINE
  8
_0-0_
  6
CONTINUOUS
 62
    7
 10
2502.0726136903504
 20
2318.6434689083616
 11
2462.0726054423566
 21
2318.6434689083616
  0
LINE
  8
_0-0_
  6
CONTINUOUS
 62
    7
 10
2512.0726466823266
 20
2288.6434936523437
 11
2512.0726466823266
 21
2308.6435596362966
  0
LINE
  8
_0-0_
  6
CONTINUOUS
 62
    7
 10
2502.0726136903504
 20
2278.6435843802787
 11
2462.0726054423566
 21
2278.6435843802787
  0
LINE
  8
_0-0_
  6
CONTINUOUS
 62
    7
 10
2133.8225246120141
 20
1805.6534555796031
 11
2133.8225246120141
 21
1877.9710841823268
  0
LINE
  8
_0-0_
  6
CONTINUOUS
 62
    7
 10
2053.8225081160262
 20
1805.6534555796031
 11
2053.8225081160262
 21
1877.9710841823268
  0
LINE
  8
_0-0_
  6
CONTINUOUS
 62
    7
 10
1783.8226070919554
 20
1805.6534555796031
 11
2053.8225081160262
 21
1805.6534555796031
  0
LINE
  8
_0-0_
  6
CONTINUOUS
 62
    7
 10
1783.8226070919554
 20
1805.6534555796031
 11
1783.8226070919554
 21
1877.9710841823268
  0
LINE
  8
_0-0_
  6
CONTINUOUS
 62
    7
 10
1703.8226524559227
 20
1805.6534555796031
 11
1703.8226524559227
 21
1877.9710841823268
  0
ARC
  8
_0-0_
  6
CONTINUOUS
 62
    7
 10
4422.0726384343324
 20
2338.6435348923141
 40
10.000000128874908
 50
90
 51
180
  0
ARC
  8
_0-0_
  6
CONTINUOUS
 62
    7
 10
4422.0726384343324
 20
2318.6434689083616
 40
10.000000128874908
 50
180
 51
270
  0
ARC
  8
_0-0_
  6
CONTINUOUS
 62
    7
 10
1830.543575802365
 20
2033.643518396326
 40
49.999998711250924
 50
181.93849182128909
 51
270
  0
ARC
  8
_0-0_
  6
CONTINUOUS
 62
    7
 10
2007.1017868454391
 20
2033.643518396326
 40
49.999998711250924
 50
270
 51
358.06150817871093
  0
ARC
  8
_0-0_
  6
CONTINUOUS
 62
    7
 10
2021.6026264912372
 20
2018.6434689083614
 40
49.999998711250924
 50
270
 51
358.06149291992187
  0
ARC
  8
_0-0_
  6
CONTINUOUS
 62
    7
 10
1816.042674296611
 20
2018.6434689083614
 40
49.999998711250924
 50
181.93849182128909
 51
270
  0
ARC
  8
_0-0_
  6
CONTINUOUS
 62
    7
 10
1801.5417727908572
 20
2003.6435431403083
 40
49.999998711250924
 50
181.93849182128909
 51
270
  0
ARC
  8
_0-0_
  6
CONTINUOUS
 62
    7
 10
2036.1034661370356
 20
2003.6435431403083
 40
49.999998711250924
 50
270
 51
358.06149291992187
  0
CIRCLE
  8
_0-0_
  6
CONTINUOUS
 62
    7
 10
1678.8226318359375
 20
2298.6435266443204
 40
10.000000128874908
  0
CIRCLE
  8
_0-0_
  6
CONTINUOUS
 62
    7
 10
2158.8226070919554
 20
2298.6435266443204
 40
10.000000128874908
  0
ARC
  8
_0-0_
  6
CONTINUOUS
 62
    7
 10
2502.0726136903504
 20
2308.6435596362966
 40
10.000000128874908
 50
0
 51
90
  0
ARC
  8
_0-0_
  6
CONTINUOUS
 62
    7
 10
2502.0726136903504
 20
2288.6434936523437
 40
10.000000128874908
 50
270
 51
0
  0
POINT
  8
_0-0_
 62
    7
 10
1713.8226235879435
 20
2596.7684276683912
  0
POINT
  8
_0-0_
 62
    7
 10
1767.8225914207664
 20
2596.7684276683912
  0
POINT
  8
_0-0_
 62
    7
 10
2069.8225856471703
 20
2596.7684276683912
  0
POINT
  8
_0-0_
 62
    7
 10
2123.8226153399496
 20
2596.7684276683912
  0
POINT
  8
_0-0_
 62
    7
 10
1658.8226277119406
 20
2665.0185167467275
  0
POINT
  8
_0-0_
 62
    7
 10
1713.8226235879435
 20
2665.0185167467275
  0
POINT
  8
_0-0_
 62
    7
 10
2123.8226153399496
 20
2665.0185167467275
  0
POINT
  8
_0-0_
 62
    7
 10
2178.8225493559966
 20
2665.0185167467275
  0
POINT
  8
_0-0_
 62
    7
 10
1658.8226277119406
 20
2743.7685909786741
  0
POINT
  8
_0-0_
 62
    7
 10
2178.8225493559966
 20
2743.7685909786741
  0
POINT
  8
_0-0_
 62
    7
 10
1918.8225576039908
 20
2478.6435019003379
  0
POINT
  8
_0-0_
 62
    7
 10
2462.0726054423566
 20
2743.7685909786741
  0
POINT
  8
_0-0_
 62
    7
 10
4462.0725229624158
 20
2743.7685909786741
  0
POINT
  8
_0-0_
 62
    7
 10
1918.8225576039908
 20
2408.6435183963258
  0
POINT
  8
_0-0_
 62
    7
 10
1918.8225576039908
 20
2408.6435183963258
  0
POINT
  8
_0-0_
 62
    7
 10
1918.8225576039908
 20
2408.6435183963258
  0
POINT
  8
_0-0_
 62
    7
 10
1480.3938334697002
 20
2478.6435019003379
  0
POINT
  8
_0-0_
 62
    7
 10
1480.3938334697002
 20
1893.6435513883025
  0
POINT
  8
_0-0_
 62
    7
 10
1558.9431102855787
 20
2478.6435019003379
  0
POINT
  8
_0-0_
 62
    7
 10
1558.9431102855787
 20
2238.6434524123733
  0
POINT
  8
_0-0_
 62
    7
 10
1558.9431102855787
 20
1893.6435513883025
  0
POINT
  8
_0-0_
 62
    7
 10
1558.9431102855787
 20
2193.6435513883025
  0
POINT
  8
_0-0_
 62
    7
 10
1558.9431102855787
 20
2238.6434524123733
  0
POINT
  8
_0-0_
 62
    7
 10
2053.8225081160262
 20
1805.6534555796031
  0
POINT
  8
_0-0_
 62
    7
 10
2133.8225246120141
 20
1805.6534555796031
  0
POINT
  8
_0-0_
 62
    7
 10
1918.8225576039908
 20
1893.6435513883025
  0
POINT
  8
_0-0_
 62
    7
 10
1918.8225576039908
 20
1983.6434771563558
  0
POINT
  8
_0-0_
 62
    7
 10
1783.8226070919554
 20
1805.6534555796031
  0
POINT
  8
_0-0_
 62
    7
 10
1703.8226524559227
 20
1805.6534555796031
  0
LINE
  8
_0-0_
  6
CONTINUOUS
 62
    7
 10
1918.8225576039908
 20
2478.6435019003379
 11
1918.8225576039908
 21
2408.6435183963258
  0
LINE
  8
_0-0_
  6
CONTINUOUS
 62
    7
 10
1918.8225576039908
 20
2478.6435019003379
 11
1740.4890276934652
 21
2478.6435019003379
  0
LINE
  8
_0-0_
  6
CONTINUOUS
 62
    7
 10
1767.8225914207664
 20
2408.6435183963258
 11
1724.1748871674408
 21
2408.6435183963258
  0
LINE
  8
_0-0_
  6
CONTINUOUS
 62
    7
 10
1713.8226235879435
 20
2408.6435183963258
 11
1767.8225914207664
 21
2408.6435183963258
  0
LINE
  8
_0-0_
  6
CONTINUOUS
 62
    7
 10
2069.8225856471703
 20
2408.6435183963258
 11
2123.8226153399496
 21
2408.6435183963258
  0
LINE
  8
_0-0_
  6
CONTINUOUS
 62
    7
 10
1803.022576409417
 20
2473.6434854043495
 11
1803.022576409417
 21
2423.6434441643796
  0
LINE
  8
_0-0_
  6
CONTINUOUS
 62
    7
 10
2034.6225387985641
 20
2473.6434854043495
 11
2034.6225387985641
 21
2423.6434441643796
  0
LINE
  8
_0-0_
  6
CONTINUOUS
 62
    7
 10
1957.4225513355149
 20
2473.6434854043495
 11
1957.4225513355149
 21
2423.6434441643796
  0
LINE
  8
_0-0_
  6
CONTINUOUS
 62
    7
 10
1880.2225020125106
 20
2473.6434854043495
 11
1880.2225020125106
 21
2423.6434441643796
  0
LINE
  8
_0-0_
  6
CONTINUOUS
 62
    7
 10
1767.8225914207664
 20
2408.6435183963258
 11
1767.8225914207664
 21
2418.6434276683912
  0
LINE
  8
_0-0_
  6
CONTINUOUS
 62
    7
 10
2069.8225856471703
 20
2408.6435183963258
 11
2069.8225856471703
 21
2418.6434276683912
  0
LINE
  8
_0-0_
  6
CONTINUOUS
 62
    7
 10
1767.8225914207664
 20
2413.6434111724029
 11
1716.0226110509925
 21
2413.6434111724029
  0
LINE
  8
_0-0_
  6
CONTINUOUS
 62
    7
 10
2121.6226278769004
 20
2478.6435019003379
 11
1716.0226110509925
 21
2478.6435019003379
  0
LINE
  8
_0-0_
  6
CONTINUOUS
 62
    7
 10
2121.6226278769004
 20
2418.6434276683912
 11
1716.0226110509925
 21
2418.6434276683912
  0
LINE
  8
_0-0_
  6
CONTINUOUS
 62
    7
 10
2121.6226278769004
 20
2413.6434111724029
 11
2069.8225856471703
 21
2413.6434111724029
  0
LINE
  8
_0-0_
  6
CONTINUOUS
 62
    7
 10
2116.622611380912
 20
2473.6434854043495
 11
1721.0226275469808
 21
2473.6434854043495
  0
LINE
  8
_0-0_
  6
CONTINUOUS
 62
    7
 10
2116.622611380912
 20
2423.6434441643796
 11
1721.0226275469808
 21
2423.6434441643796
  0
LINE
  8
_0-0_
  6
CONTINUOUS
 62
    7
 10
1721.0226275469808
 20
2473.6434854043495
 11
1721.0226275469808
 21
2423.6434441643796
  0
LINE
  8
_0-0_
  6
CONTINUOUS
 62
    7
 10
2116.622611380912
 20
2473.6434854043495
 11
2116.622611380912
 21
2423.6434441643796
  0
LINE
  8
_0-0_
  6
CONTINUOUS
 62
    7
 10
1752.5446670119827
 20
2428.6434606603675
 11
1752.5446670119827
 21
2423.6434441643796
  0
LINE
  8
_0-0_
  6
CONTINUOUS
 62
    7
 10
1732.5446628879856
 20
2428.6434606603675
 11
1732.5446628879856
 21
2423.6434441643796
  0
LINE
  8
_0-0_
  6
CONTINUOUS
 62
    7
 10
1760.4158514899177
 20
2428.6434606603675
 11
1724.7276058712523
 21
2428.6434606603675
  0
LINE
  8
_0-0_
  6
CONTINUOUS
 62
    7
 10
1742.544695879962
 20
2428.6434606603675
 11
1742.544695879962
 21
2423.6434441643796
  0
LINE
  8
_0-0_
  6
CONTINUOUS
 62
    7
 10
2077.2292018581078
 20
2428.6434606603675
 11
2112.9174474767737
 21
2428.6434606603675
  0
LINE
  8
_0-0_
  6
CONTINUOUS
 62
    7
 10
2095.1005430479308
 20
2428.6434606603675
 11
2095.1005430479308
 21
2423.6434441643796
  0
LINE
  8
_0-0_
  6
CONTINUOUS
 62
    7
 10
2085.1005100559546
 20
2428.6434606603675
 11
2085.1005100559546
 21
2423.6434441643796
  0
LINE
  8
_0-0_
  6
CONTINUOUS
 62
    7
 10
2105.1003286000845
 20
2428.6434606603675
 11
2105.1003286000845
 21
2423.6434441643796
  0
LINE
  8
_0-0_
  6
CONTINUOUS
 62
    7
 10
1747.5446505159945
 20
2399.0109335409629
 11
1737.5446793839737
 21
2399.0109335409629
  0
LINE
  8
_0-0_
  6
CONTINUOUS
 62
    7
 10
2090.1005265519424
 20
2399.0109335409629
 11
2100.1003121040962
 21
2399.0109335409629
  0
LINE
  8
_0-0_
  6
CONTINUOUS
 62
    7
 10
1737.5446793839737
 20
2408.6435183963258
 11
1737.5446793839737
 21
2399.0109335409629
  0
LINE
  8
_0-0_
  6
CONTINUOUS
 62
    7
 10
1747.5446505159945
 20
2408.6435183963258
 11
1747.5446505159945
 21
2399.0109335409629
  0
LINE
  8
_0-0_
  6
CONTINUOUS
 62
    7
 10
2090.1005265519424
 20
2408.6435183963258
 11
2090.1005265519424
 21
2399.0109335409629
  0
LINE
  8
_0-0_
  6
CONTINUOUS
 62
    7
 10
2100.1003121040962
 20
2408.6435183963258
 11
2100.1003121040962
 21
2399.0109335409629
  0
LINE
  8
_0-0_
  6
CONTINUOUS
 62
    7
 10
1918.8225576039908
 20
2408.6435183963258
 11
1918.8225576039908
 21
2399.7345713022596
  0
ARC
  8
_0-0_
  6
CONTINUOUS
 62
    7
 10
1742.5717905405406
 20
2423.57774889147
 40
18.549266377010866
 50
0.2028961181640625
 51
179.79708862304687
  0
ARC
  8
_0-0_
  6
CONTINUOUS
 62
    7
 10
2095.0734483873525
 20
2423.57774889147
 40
18.549266377010866
 50
0.2028961181640574
 51
179.79708862304687
  0
POINT
  8
_0-0_
 62
    7
 10
1918.8225576039908
 20
2478.6435019003379
  0
POINT
  8
_0-0_
 62
    7
 10
1918.8225576039908
 20
2408.6435183963258
  0
POINT
  8
_0-0_
 62
    7
 10
1918.8225576039908
 20
2408.6435183963258
  0
LINE
  8
_0-0_
  6
CONTINUOUS
 62
    7
 10
1918.8225576039908
 20
2408.6435183963258
 11
1791.6469017235008
 21
2408.6435183963258
  0
LINE
  8
_0-0_
  6
CONTINUOUS
 62
    7
 10
1659.0068412361406
 20
2406.7891041155176
 11
1664.0068412361406
 21
2406.7891041155176
  0
LINE
  8
_0-0_
  6
CONTINUOUS
 62
    7
 10
1713.8226235879435
 20
2478.6435019003379
 11
1713.8226235879435
 21
2473.6435019003379
  0
LINE
  8
_0-0_
  6
CONTINUOUS
 62
    7
 10
1708.8226235879435
 20
2473.6435019003379
 11
1708.8226235879435
 21
2408.3548123101477
  0
LINE
  8
_0-0_
  6
CONTINUOUS
 62
    7
 10
1713.8226235879435
 20
2408.6435183963258
 11
1708.8226235879435
 21
2408.6435183963258
  0
LINE
  8
_0-0_
  6
CONTINUOUS
 62
    7
 10
1716.0226110509925
 20
2413.6434111724029
 11
1714.067579413966
 21
2413.6434111724029
  0
LINE
  8
_0-0_
  6
CONTINUOUS
 62
    7
 10
1700.7603553207509
 20
2427.9131074512865
 11
1700.7603553207509
 21
2378.0400028403282
  0
LINE
  8
_0-0_
  6
CONTINUOUS
 62
    7
 10
1700.7603553207509
 20
2378.0400028403282
 11
1710.1072709008815
 21
2363.4122265655178
  0
LINE
  8
_0-0_
  6
CONTINUOUS
 62
    7
 10
1708.7603322263669
 20
2377.8750841985415
 11
1718.0017765820998
 21
2363.4122265655178
  0
LINE
  8
_0-0_
  6
CONTINUOUS
 62
    7
 10
1710.1072709008815
 20
2363.4122265655178
 11
1718.0017765820998
 21
2363.4122265655178
  0
LINE
  8
_0-0_
  6
CONTINUOUS
 62
    7
 10
1700.7603553207509
 20
2427.9131074512865
 11
1708.7603322263669
 21
2427.9131074512865
  0
LINE
  8
_0-0_
  6
CONTINUOUS
 62
    7
 10
1664.0068412361406
 20
2406.7891041155176
 11
1664.0068412361406
 21
2473.6435019003379
  0
LINE
  8
_0-0_
  6
CONTINUOUS
 62
    7
 10
1708.8226235879435
 20
2473.6435019003379
 11
1664.0068412361406
 21
2473.6435019003379
  0
LINE
  8
_0-0_
  6
CONTINUOUS
 62
    7
 10
1713.8226235879435
 20
2478.6435019003379
 11
1713.8226235879435
 21
2413.6434111724029
  0
LINE
  8
_0-0_
  6
CONTINUOUS
 62
    7
 10
1716.0226110509925
 20
2478.6435019003379
 11
1716.0226110509925
 21
2413.6434111724029
  0
LINE
  8
_0-0_
  6
CONTINUOUS
 62
    7
 10
2178.5138942687458
 20
2408.0558055368678
 11
2173.5138942687458
 21
2408.0558055368678
  0
LINE
  8
_0-0_
  6
CONTINUOUS
 62
    7
 10
2173.5138942687458
 20
2408.0558055368678
 11
2173.5138942687458
 21
2472.6412685653599
  0
LINE
  8
_0-0_
  6
CONTINUOUS
 62
    7
 10
2123.8226153399496
 20
2478.6435019003379
 11
2123.8226153399496
 21
2473.6435019003379
  0
LINE
  8
_0-0_
  6
CONTINUOUS
 62
    7
 10
2173.5138942687458
 20
2472.6412685653599
 11
2173.5138942687458
 21
2473.6435019003379
  0
LINE
  8
_0-0_
  6
CONTINUOUS
 62
    7
 10
2128.8226153399496
 20
2473.6435019003379
 11
2128.8226153399496
 21
2408.8386596341829
  0
LINE
  8
_0-0_
  6
CONTINUOUS
 62
    7
 10
2128.80265908924
 20
2408.8386596341829
 11
2128.80265908924
 21
2406.0986702935801
  0
LINE
  8
_0-0_
  6
CONTINUOUS
 62
    7
 10
2123.8226153399496
 20
2408.6435183963258
 11
2128.80265908924
 21
2408.6435183963258
  0
LINE
  8
_0-0_
  6
CONTINUOUS
 62
    7
 10
2136.8805420969456
 20
2427.8552271280059
 11
2128.8805651913289
 21
2427.8552271280059
  0
LINE
  8
_0-0_
  6
CONTINUOUS
 62
    7
 10
2136.8805420969456
 20
2377.9821225170471
 11
2127.5336265168148
 21
2363.3543462422371
  0
LINE
  8
_0-0_
  6
CONTINUOUS
 62
    7
 10
2127.5336265168148
 20
2363.3543462422371
 11
2119.6390589756406
 21
2363.3543462422371
  0
LINE
  8
_0-0_
  6
CONTINUOUS
 62
    7
 10
2128.8805651913289
 20
2377.8172038752609
 11
2119.6390589756406
 21
2363.3543462422371
  0
LINE
  8
_0-0_
  6
CONTINUOUS
 62
    7
 10
2136.8805420969456
 20
2427.8552271280059
 11
2136.8805420969456
 21
2377.9821225170471
  0
LINE
  8
_0-0_
  6
CONTINUOUS
 62
    7
 10
2128.8226153399496
 20
2473.6435019003379
 11
2173.5138942687458
 21
2473.6435019003379
  0
LINE
  8
_0-0_
  6
CONTINUOUS
 62
    7
 10
2123.8226153399496
 20
2478.6435019003379
 11
2123.8226153399496
 21
2413.6434111724029
  0
LINE
  8
_0-0_
  6
CONTINUOUS
 62
    7
 10
2121.6226278769004
 20
2478.6435019003379
 11
2121.6226278769004
 21
2413.6434111724029
  0
LINE
  8
_0-0_
  6
CONTINUOUS
 62
    7
 10
2121.6226278769004
 20
2413.6434111724029
 11
2123.8226153399496
 21
2413.6434111724029
  0
LINE
  8
_0-0_
  6
CONTINUOUS
 62
    7
 10
1708.8226235879435
 20
2408.6435183963258
 11
1708.8226235879435
 21
2377.8750841985415
  0
LINE
  8
_0-0_
  6
CONTINUOUS
 62
    7
 10
2128.80265908924
 20
2406.0986702935801
 11
2128.80265908924
 21
2377.8172038752609
  0
LINE
  8
_0-0_
  6
CONTINUOUS
 62
    7
 10
1764.0207930947474
 20
2408.6435183963262
 11
1767.822591420763
 21
2412.4453167223414
  0
LINE
  8
_0-0_
  6
CONTINUOUS
 62
    7
 10
1754.1212981581327
 20
2408.6435183963285
 11
1759.1211909342091
 21
2413.6434111724047
  0
LINE
  8
_0-0_
  6
CONTINUOUS
 62
    7
 10
1744.2218032215182
 20
2408.6435183963308
 11
1749.2216959975951
 21
2413.6434111724074
  0
LINE
  8
_0-0_
  6
CONTINUOUS
 62
    7
 10
1734.3223082849112
 20
2408.6435183963317
 11
1739.3222010609856
 21
2413.6434111724061
  0
LINE
  8
_0-0_
  6
CONTINUOUS
 62
    7
 10
1724.4228133482986
 20
2408.6435183963267
 11
1729.4227061243757
 21
2413.6434111724038
  0
LINE
  8
_0-0_
  6
CONTINUOUS
 62
    7
 10
1714.5233184116841
 20
2408.6435183963294
 11
1719.5232111877612
 21
2413.6434111724065
  0
LINE
  8
_0-0_
  6
CONTINUOUS
 62
    7
 10
1708.8226235879374
 20
2412.8423185091996
 11
1713.8226235879369
 21
2417.8423185091992
  0
LINE
  8
_0-0_
  6
CONTINUOUS
 62
    7
 10
1708.8226235879437
 20
2422.7418134458048
 11
1713.8226235879392
 21
2427.7418134458002
  0
LINE
  8
_0-0_
  6
CONTINUOUS
 62
    7
 10
1708.822623587941
 20
2432.641308382419
 11
1713.8226235879403
 21
2437.6413083824181
  0
LINE
  8
_0-0_
  6
CONTINUOUS
 62
    7
 10
1708.822623587938
 20
2442.5408033190333
 11
1713.8226235879378
 21
2447.5408033190328
  0
LINE
  8
_0-0_
  6
CONTINUOUS
 62
    7
 10
1663.171429447821
 20
2406.7891041155148
 11
1664.0068412361426
 21
2407.6245159038362
  0
LINE
  8
_0-0_
  6
CONTINUOUS
 62
    7
 10
1708.822623587939
 20
2452.440298255633
 11
1713.8226235879387
 21
2457.4402982556325
  0
LINE
  8
_0-0_
  6
CONTINUOUS
 62
    7
 10
1658.8226277119429
 20
2412.3397973162536
 11
1664.0068412361395
 21
2417.5240108404505
  0
LINE
  8
_0-0_
  6
CONTINUOUS
 62
    7
 10
1708.8226235879415
 20
2462.3397931922522
 11
1713.8226235879412
 21
2467.3397931922518
  0
LINE
  8
_0-0_
  6
CONTINUOUS
 62
    7
 10
1658.8226277119401
 20
2422.2392922528679
 11
1664.0068412361415
 21
2427.4235057770697
  0
LINE
  8
_0-0_
  6
CONTINUOUS
 62
    7
 10
1708.8226235879383
 20
2472.2392881288665
 11
1713.8226235879383
 21
2477.2392881288665
  0
LINE
  8
_0-0_
  6
CONTINUOUS
 62
    7
 10
1658.8226277119406
 20
2432.1387871894853
 11
1664.006841236144
 21
2437.3230007136889
  0
LINE
  8
_0-0_
  6
CONTINUOUS
 62
    7
 10
1700.3273424227947
 20
2473.6435019003392
 11
1705.3273424228
 21
2478.6435019003451
  0
LINE
  8
_0-0_
  6
CONTINUOUS
 62
    7
 10
1658.8226277119433
 20
2442.0382821260868
 11
1664.0068412361395
 21
2447.2224956502832
  0
LINE
  8
_0-0_
  6
CONTINUOUS
 62
    7
 10
1690.427847486196
 20
2473.6435019003392
 11
1695.4278474861944
 21
2478.6435019003379
  0
LINE
  8
_0-0_
  6
CONTINUOUS
 62
    7
 10
1658.8226277119406
 20
2451.9377770627011
 11
1664.0068412361365
 21
2457.121990586897
  0
LINE
  8
_0-0_
  6
CONTINUOUS
 62
    7
 10
1680.5283525495817
 20
2473.6435019003424
 11
1685.5283525495794
 21
2478.6435019003401
  0
LINE
  8
_0-0_
  6
CONTINUOUS
 62
    7
 10
1658.8226277119388
 20
2461.8372719993167
 11
1664.0068412361392
 21
2467.0214855235167
  0
LINE
  8
_0-0_
  6
CONTINUOUS
 62
    7
 10
1670.6288576129632
 20
2473.6435019003411
 11
1675.6288576129645
 21
2478.643501900342
  0
LINE
  8
_0-0_
  6
CONTINUOUS
 62
    7
 10
1658.822627711944
 20
2471.73676693592
 11
1665.7293626763587
 21
2478.6435019003347
  0
LINE
  8
_0-0_
  6
CONTINUOUS
 62
    7
 10
2173.5138942687426
 20
2412.2573271692435
 11
2178.8225493559984
 21
2417.5659822564994
  0
LINE
  8
_0-0_
  6
CONTINUOUS
 62
    7
 10
2173.5138942687444
 20
2422.1568221058623
 11
2178.8225493559998
 21
2427.4654771931177
  0
LINE
  8
_0-0_
  6
CONTINUOUS
 62
    7
 10
2173.5138942687408
 20
2432.0563170424757
 11
2178.8225493559966
 21
2437.3649721297315
  0
LINE
  8
_0-0_
  6
CONTINUOUS
 62
    7
 10
2173.5138942687444
 20
2441.9558119790781
 11
2178.8225493559975
 21
2447.2644670663312
  0
LINE
  8
_0-0_
  6
CONTINUOUS
 62
    7
 10
2173.5138942687422
 20
2451.8553069156928
 11
2178.8225493559984
 21
2457.1639620029491
  0
LINE
  8
_0-0_
  6
CONTINUOUS
 62
    7
 10
2120.4026108127586
 20
2408.6435183963262
 11
2128.8226153399491
 21
2417.0635229235167
  0
LINE
  8
_0-0_
  6
CONTINUOUS
 62
    7
 10
2173.5138942687403
 20
2461.7548018523079
 11
2178.8225493559966
 21
2467.0634569395642
  0
LINE
  8
_0-0_
  6
CONTINUOUS
 62
    7
 10
2110.5031158761444
 20
2408.643518396329
 11
2115.5030086522192
 21
2413.6434111724038
  0
LINE
  8
_0-0_
  6
CONTINUOUS
 62
    7
 10
2123.8226153399491
 20
2421.9630178601337
 11
2128.8226153399464
 21
2426.963017860131
  0
LINE
  8
_0-0_
  6
CONTINUOUS
 62
    7
 10
2173.5138942687426
 20
2471.6542967889272
 11
2178.8225493559939
 21
2476.9629518761785
  0
LINE
  8
_0-0_
  6
CONTINUOUS
 62
    7
 10
2100.6036209395424
 20
2408.6435183963258
 11
2105.6035137156181
 21
2413.6434111724015
  0
LINE
  8
_0-0_
  6
CONTINUOUS
 62
    7
 10
2123.8226153399496
 20
2431.8625127967329
 11
2128.8226153399473
 21
2436.8625127967306
  0
LINE
  8
_0-0_
  6
CONTINUOUS
 62
    7
 10
2165.6036044435568
 20
2473.6435019003401
 11
2170.6036044435513
 21
2478.6435019003347
  0
LINE
  8
_0-0_
  6
CONTINUOUS
 62
    7
 10
2090.7041260029254
 20
2408.6435183963262
 11
2095.7040187790034
 21
2413.6434111724038
  0
LINE
  8
_0-0_
  6
CONTINUOUS
 62
    7
 10
2123.8226153399468
 20
2441.7620077333476
 11
2128.8226153399496
 21
2446.7620077333499
  0
LINE
  8
_0-0_
  6
CONTINUOUS
 62
    7
 10
2155.7041095069407
 20
2473.6435019003411
 11
2160.7041095069375
 21
2478.6435019003379
  0
LINE
  8
_0-0_
  6
CONTINUOUS
 62
    7
 10
2080.8046310663116
 20
2408.643518396329
 11
2085.8045238423874
 21
2413.6434111724047
  0
LINE
  8
_0-0_
  6
CONTINUOUS
 62
    7
 10
2123.8226153399496
 20
2451.6615026699669
 11
2128.8226153399464
 21
2456.6615026699637
  0
LINE
  8
_0-0_
  6
CONTINUOUS
 62
    7
 10
2145.8046145703233
 20
2473.6435019003406
 11
2150.804614570321
 21
2478.6435019003388
  0
LINE
  8
_0-0_
  6
CONTINUOUS
 62
    7
 10
2070.9051361297069
 20
2408.643518396323
 11
2075.9050289057886
 21
2413.6434111724047
  0
LINE
  8
_0-0_
  6
CONTINUOUS
 62
    7
 10
2123.8226153399491
 20
2461.5609976065652
 11
2128.8226153399477
 21
2466.5609976065638
  0
LINE
  8
_0-0_
  6
CONTINUOUS
 62
    7
 10
2135.9051196337231
 20
2473.6435019003397
 11
2140.9051196337195
 21
2478.6435019003356
  0
LINE
  8
_0-0_
  6
CONTINUOUS
 62
    7
 10
2123.8226153399477
 20
2471.4604925431808
 11
2131.0056246971062
 21
2478.6435019003392
  0
LINE
  8
_0-0_
  6
CONTINUOUS
 62
    7
 10
2127.8224800728462
 20
2024.6433897276183
 11
2133.8225246120141
 21
2022.6433336412585
  0
TEXT
  8
_0-0_
 62
    7
 10
2167.9645293067305
 20
2089.7332929335525
 40
40
 41
0.8
 50
0
  1
ズレ止プレート
  0
LINE
  8
_0-0_
  6
CONTINUOUS
 62
    7
 10
2120.7145111611434
 20
2123.8583374727209
 11
2167.9645062123472
 21
2089.7332929335525
  0
LINE
  8
_0-0_
  6
CONTINUOUS
 62
    7
 10
2167.9645062123472
 20
2089.7332929335525
 11
2412.089501263551
 21
2089.7332929335525
  0
LINE
  8
_0-0_
  6
CONTINUOUS
 62
    7
 10
2133.8225246120141
 20
2096.64342931799
 11
2127.8224800728462
 21
2098.6434854043495
  0
LINE
  8
_0-0_
  6
CONTINUOUS
 62
    7
 10
4462.0725229624158
 20
2140.6435497387037
 11
4304.0725460567991
 21
2140.6435497387037
  0
LINE
  8
_0-0_
  6
CONTINUOUS
 62
    7
 10
4462.0725229624158
 20
2096.64342931799
 11
4304.0725460567991
 21
2096.64342931799
  0
LINE
  8
_0-0_
  6
CONTINUOUS
 62
    7
 10
4304.0725460567991
 20
2140.6435497387037
 11
4304.0725460567991
 21
2096.64342931799
  0
ENDSEC
  0
EOF
