  0
SECTION
  2
HEADER
  9
$ACADVER
  1
AC1009
  9
$INSBASE
 10
0
 20
0
 30
0
  9
$EXTMIN
 10
0
 20
0
  9
$EXTMAX
 10
5940
 20
4200
  9
$LIMMIN
 10
0
 20
0
  9
$LIMMAX
 10
5940
 20
4200
  9
$LTSCALE
 40
10
  0
ENDSEC
  0
SECTION
  2
TABLES
  0
TABLE
  2
LTYPE
 70
     9
  0
LTYPE
  2
CONTINUOUS
 70
    64
  3
実線
 72
    65
 73
     0
 40
0.0
  0
LTYPE
  2
DASHED1
 70
    64
  3
--  --  --  --  --  --  --  --  
 72
    65
 73
     2
 40
2.5
 49
1.25
 49
-1.25
  0
LTYPE
  2
DASHED2
 70
    64
  3
----    ----    ----    ----    
 72
    65
 73
     2
 40
5.0
 49
2.5
 49
-2.5
  0
LTYPE
  2
DASHED3
 70
    64
  3
------  ------  ------  ------  
 72
    65
 73
     2
 40
5.0
 49
3.75
 49
-1.25
  0
LTYPE
  2
CENTER1
 70
    64
  3
----- - ----- - ----- - ----- - 
 72
    65
 73
     4
 40
10.0
 49
6.25
 49
-1.25
 49
1.25
 49
-1.25
  0
LTYPE
  2
CENTER2
 70
    64
  3
----------  --  ----------  --  
 72
    65
 73
     4
 40
20.0
 49
12.5
 49
-2.5
 49
2.5
 49
-2.5
  0
LTYPE
  2
PHANTOM1
 70
    64
  3
--- - - --- - - --- - - --- - - 
 72
    65
 73
     6
 40
10.0
 49
3.25
 49
-1.25
 49
1.25
 49
-1.25
 49
1.25
 49
-1.25
  0
LTYPE
  2
PHANTOM2
 70
    64
  3
--------  -  -  --------  -  -  
 72
    65
 73
     6
 40
20.0
 49
10.0
 49
-2.5
 49
1.25
 49
-2.5
 49
1.25
 49
-2.5
  0
LTYPE
  2
DOT
 70
    64
  3
-   -   -   -   -   -   -   -   
 72
    65
 73
     2
 40
2.5
 49
0.625
 49
-1.875
  0
LTYPE
  2
DUMMY
 70
    64
  3
ダミー
 72
    65
 73
     0
 40
0.0
  0
LTYPE
  2
RAND1
 70
    64
  3
ランダム線1
 72
    65
 73
     4
 40
10.0
 49
1.0
 49
-2.0
 49
3.0
 49
-4.0
  0
LTYPE
  2
RAND2
 70
    64
  3
ランダム線2
 72
    65
 73
     4
 40
14.0
 49
2.0
 49
-3.0
 49
4.0
 49
-5.0
  0
LTYPE
  2
RAND3
 70
    64
  3
ランダム線3
 72
    65
 73
     4
 40
18.0
 49
3.0
 49
-4.0
 49
5.0
 49
-6.0
  0
LTYPE
  2
RAND4
 70
    64
  3
ランダム線4
 72
    65
 73
     4
 40
22.0
 49
4.0
 49
-5.0
 49
6.0
 49
-7.0
  0
LTYPE
  2
RAND5
 70
    64
  3
ランダム線5
 72
    65
 73
     4
 40
26.0
 49
5.0
 49
-6.0
 49
7.0
 49
-8.0
  0
LTYPE
  2
LONG1
 70
    64
  3
----------  --  ----------  --  
 72
    65
 73
     4
 40
40.0
 49
32.5
 49
-2.5
 49
2.5
 49
-2.5
  0
LTYPE
  2
LONG2
 70
    64
  3
--------  -  -  --------  -  -  
 72
    65
 73
     6
 40
40.0
 49
30.0
 49
-2.5
 49
1.25
 49
-2.5
 49
1.25
 49
-2.5
  0
LTYPE
  2
LONG3
 70
    64
  3
+++++++++++++++..+++++++++++++++
 72
    65
 73
     2
 40
40.0
 49
37.5
 49
-2.5
  0
LTYPE
  2
LONG4
 70
    64
  3
+++++++++++++++..+++++++++++++++
 72
    65
 73
     2
 40
80.0
 49
75.0
 49
-5.0
  0
LTYPE
  2
LONG5
 70
    64
  3
----------  --  ----------  --  
 72
    65
 73
     4
 40
60.0
 49
37.5
 49
-7.5
 49
7.5
 49
-7.5
  0
LTYPE
  2
dashed
 70
   64
  3
-------   -------------   ------
 72
   65
 73
    2
 40
7.5
 49
6
 49
-1.5
  0
LTYPE
  2
dashed_spaced
 70
   64
  3
----        --------        ----
 72
   65
 73
    2
 40
12
 49
6
 49
-6
  0
LTYPE
  2
long_dashed_dotted
 70
   64
  3
------------- --- --------------
 72
   65
 73
    4
 40
15.25
 49
12
 49
-1.5
 49
0.25
 49
-1.5
  0
LTYPE
  2
long_dashed_double-dotted
 70
   64
  3
----------- --- --- ------------
 72
   65
 73
    6
 40
17
 49
12
 49
-1.5
 49
0.25
 49
-1.5
 49
0.25
 49
-1.5
  0
LTYPE
  2
long_dashed_triplicate-dotted
 70
   64
  3
--------- --- --- --- ----------
 72
   65
 73
    8
 40
18.75
 49
12
 49
-1.5
 49
0.25
 49
-1.5
 49
0.25
 49
-1.5
 49
0.25
 49
-1.5
  0
LTYPE
  2
dotted
 70
   64
  3
   -       -       -       -    
 72
   65
 73
    2
 40
1.75
 49
0.25
 49
-1.5
  0
LTYPE
  2
chain
 70
   64
  3
-------------- -- --------------
 72
   65
 73
    4
 40
18.5
 49
12
 49
-1.5
 49
3.5
 49
-1.5
  0
LTYPE
  2
chain_double_dash
 70
   64
  3
------------ -- -- -------------
 72
   65
 73
    6
 40
23.5
 49
12
 49
-1.5
 49
3.5
 49
-1.5
 49
3.5
 49
-1.5
  0
LTYPE
  2
dashed_dotted
 70
   64
  3
-----------     -     ----------
 72
   65
 73
    4
 40
9.25
 49
6
 49
-1.5
 49
0.25
 49
-1.5
  0
LTYPE
  2
double-dashed_dotted
 70
   64
  3
------   -----------   -   -----
 72
   65
 73
    6
 40
16.75
 49
6
 49
-1.5
 49
6
 49
-1.5
 49
0.25
 49
-1.5
  0
LTYPE
  2
dashed_double-dotted
 70
   64
  3
---------    -    -    ---------
 72
   65
 73
    6
 40
11
 49
6
 49
-1.5
 49
0.25
 49
-1.5
 49
0.25
 49
-1.5
  0
LTYPE
  2
double-dashed_double-dotted
 70
   64
  3
-----   ---------   -   -   ----
 72
   65
 73
    8
 40
18.5
 49
6
 49
-1.5
 49
6
 49
-1.5
 49
0.25
 49
-1.5
 49
0.25
 49
-1.5
  0
LTYPE
  2
dashed_triplicate-dotted
 70
   64
  3
-------    -    -    -    ------
 72
   65
 73
    8
 40
12.75
 49
6
 49
-1.5
 49
0.25
 49
-1.5
 49
0.25
 49
-1.5
 49
0.25
 49
-1.5
  0
LTYPE
  2
double-dashed_triplicate-dotted
 70
   64
  3
-----  ---------  -  -  -  -----
 72
   65
 73
   10
 40
20.25
 49
6
 49
-1.5
 49
6
 49
-1.5
 49
0.25
 49
-1.5
 49
0.25
 49
-1.5
 49
0.25
 49
-1.5
  0
LTYPE
  2
undefined
 70
   64
  3
--------------------------------
 72
   65
 73
    0
 40
0
  0
LTYPE
  2
_
 70
   64
  3
                                
 72
   65
 73
    0
 40
0
  0
LTYPE
  2
__18
 70
   64
  3
                                
 72
   65
 73
    0
 40
0
  0
LTYPE
  2
__19
 70
   64
  3
                                
 72
   65
 73
    0
 40
0
  0
LTYPE
  2
__20
 70
   64
  3
                                
 72
   65
 73
    0
 40
0
  0
LTYPE
  2
__21
 70
   64
  3
                                
 72
   65
 73
    0
 40
0
  0
LTYPE
  2
__22
 70
   64
  3
                                
 72
   65
 73
    0
 40
0
  0
LTYPE
  2
__23
 70
   64
  3
                                
 72
   65
 73
    0
 40
0
  0
LTYPE
  2
__24
 70
   64
  3
                                
 72
   65
 73
    0
 40
0
  0
LTYPE
  2
__25
 70
   64
  3
                                
 72
   65
 73
    0
 40
0
  0
LTYPE
  2
__26
 70
   64
  3
                                
 72
   65
 73
    0
 40
0
  0
LTYPE
  2
__27
 70
   64
  3
                                
 72
   65
 73
    0
 40
0
  0
LTYPE
  2
__28
 70
   64
  3
                                
 72
   65
 73
    0
 40
0
  0
LTYPE
  2
__29
 70
   64
  3
                                
 72
   65
 73
    0
 40
0
  0
LTYPE
  2
__30
 70
   64
  3
                                
 72
   65
 73
    0
 40
0
  0
LTYPE
  2
__31
 70
   64
  3
                                
 72
   65
 73
    0
 40
0
  0
LTYPE
  2
__32
 70
   64
  3
                                
 72
   65
 73
    0
 40
0
  0
ENDTAB
  0
TABLE
  2
STYLE
  5
3
100
AcDbSymbolTable
 70
     1
  0
STYLE
  5
10
100
AcDbSymbolTableRecord
100
AcDbTextStyleTableRecord
  2
STANDARD
 70
     0
 40
0.0
 41
1.0
 50
0.0
 71
     0
 42
0.2
  3
txt
  4
bigfont.shx
  0
STYLE
  5
26
100
AcDbSymbolTableRecord
100
AcDbTextStyleTableRecord
  2
TATEGAKI
 70
    68
 40
0.0
 41
1.0
 50
0.0
 71
     0
 42
1.0
  3
txt
  4
bigfont.shx
  0
ENDTAB
  0
TABLE
  2
LAYER
 70
    3
  0
LAYER
  2
_0-0_
 70
   64
 62
    7
  6
CONTINUOUS
  0
LAYER
  2
_1-0_
 70
   64
 62
    7
  6
CONTINUOUS
  0
LAYER
  2
ADD_LINE
 70
   64
 62
    7
  6
CONTINUOUS
  0
ENDTAB
  0
ENDSEC
  0
SECTION
  2
BLOCKS
  0
ENDSEC
  0
SECTION
  2
ENTITIES
  0
LINE
  8
_0-0_
  6
CONTINUOUS
 62
    7
 10
1713.8226235879435
 20
2478.6435019003379
 11
1713.8226235879435
 21
2413.6434111724029
  0
LINE
  8
_0-0_
  6
CONTINUOUS
 62
    7
 10
2173.8225328600087
 20
2473.6434854043495
 11
2173.8225328600087
 21
2408.6435183963258
  0
LINE
  8
_0-0_
  6
CONTINUOUS
 62
    7
 10
2123.8226153399496
 20
2478.6435019003379
 11
2123.8226153399496
 21
2413.6434111724029
  0
LINE
  8
_0-0_
  6
CONTINUOUS
 62
    7
 10
1658.8226277119406
 20
2478.6435019003379
 11
1713.8226235879435
 21
2478.6435019003379
  0
LINE
  8
_0-0_
  6
CONTINUOUS
 62
    7
 10
1658.8226277119406
 20
2478.6435019003379
 11
1658.8226277119406
 21
2258.6435183963258
  0
LINE
  8
_0-0_
  6
CONTINUOUS
 62
    7
 10
1663.8226442079285
 20
2473.6434854043495
 11
1663.8226442079285
 21
2408.6435183963258
  0
LINE
  8
_0-0_
  6
CONTINUOUS
 62
    7
 10
1663.8226442079285
 20
2473.6434854043495
 11
1708.8226070919554
 21
2473.6434854043495
  0
LINE
  8
_0-0_
  6
CONTINUOUS
 62
    7
 10
1708.8226070919554
 20
2470.6435249947212
 11
1708.8226070919554
 21
2408.6435183963258
  0
LINE
  8
_0-0_
  6
CONTINUOUS
 62
    7
 10
1708.8226070919554
 20
2408.6435183963258
 11
1708.8226070919554
 21
2402.750412075924
  0
LINE
  8
_0-0_
  6
CONTINUOUS
 62
    7
 10
1708.8226070919554
 20
2402.750412075924
 11
1767.7010885854213
 21
2402.750412075924
  0
LINE
  8
_0-0_
  6
CONTINUOUS
 62
    7
 10
1708.8226070919554
 20
2473.6434854043495
 11
1708.8226070919554
 21
2408.6435183963258
  0
LINE
  8
_0-0_
  6
CONTINUOUS
 62
    7
 10
1663.8226442079285
 20
2408.6435183963258
 11
1658.8226277119406
 21
2408.6435183963258
  0
TEXT
  8
_0-0_
 62
    7
 10
1724.5726087415541
 20
2601.7684441643791
 40
40
 41
0.8
 50
0
  1
54
  0
TEXT
  8
_0-0_
 62
    7
 10
1893.8226079167545
 20
2601.7684441643791
 40
40
 41
0.8
 50
0
  1
302
  0
TEXT
  8
_0-0_
 62
    7
 10
2080.5725708007812
 20
2601.7684441643791
 40
40
 41
0.8
 50
0
  1
54
  0
TEXT
  8
_0-0_
 62
    7
 10
1670.0725959571632
 20
2670.0184095228041
 40
40
 41
0.8
 50
0
  1
55
  0
TEXT
  8
_0-0_
 62
    7
 10
1893.8226079167545
 20
2670.0184095228041
 40
40
 41
0.8
 50
0
  1
410
  0
TEXT
  8
_0-0_
 62
    7
 10
2135.0725526551941
 20
2670.0184095228041
 40
40
 41
0.8
 50
0
  1
55
  0
TEXT
  8
_0-0_
 62
    7
 10
1893.8226079167545
 20
2748.7683600348395
 40
40
 41
0.8
 50
0
  1
520
  0
TEXT
  8
_0-0_
 62
    7
 10
1535.6846342648855
 20
2343.6434367411848
 40
40
 41
0.8
 50
90.000002504478004
  1
220
  0
TEXT
  8
_0-0_
 62
    7
 10
1535.6846338059158
 20
2217.3934062236066
 40
40
 41
0.8
 50
90.00000250447816
  1
50
  0
TEXT
  8
_0-0_
 62
    7
 10
1535.6846342648855
 20
2076.1434202451964
 40
40
 41
0.8
 50
90.000002504478004
  1
215
  0
TEXT
  8
_0-0_
 62
    7
 10
1486.0926831523961
 20
2211.1434944771431
 40
40
 41
0.8
 50
90.000002504478004
  1
485
  0
TEXT
  8
_0-0_
 62
    7
 10
1913.8226656365745
 20
2427.3934804555533
 40
40
 41
0.8
 50
90.00000250447816
  1
70
  0
TEXT
  8
_0-0_
 62
    7
 10
1913.8226660955442
 20
2221.1434656091641
 40
40
 41
0.8
 50
90.00000250447816
  1
325
  0
TEXT
  8
_0-0_
 62
    7
 10
1913.8226656365745
 20
2022.3935051995354
 40
40
 41
0.8
 50
90.00000250447816
  1
90
  0
TEXT
  8
_0-0_
 62
    7
 10
1727.5726000811605
 20
1884.186153927365
 40
40
 41
0.8
 50
0
  1
70
  0
TEXT
  8
_0-0_
 62
    7
 10
1893.8226079167545
 20
1884.186153927365
 40
40
 41
0.8
 50
0
  1
280
  0
TEXT
  8
_0-0_
 62
    7
 10
2077.5726103911529
 20
1884.186153927365
 40
40
 41
0.8
 50
0
  1
70
  0
TEXT
  8
_0-0_
 62
    7
 10
1811.8817835627376
 20
2119.0040712098816
 40
30
 41
0.7999999999999999
 50
0
  1
R50
  0
TEXT
  8
_0-0_
 62
    7
 10
3419.5727126662795
 20
2748.7683600348395
 40
40
 41
0.8
 50
0
  1
2,000
  0
TEXT
  8
_1-0_
 62
    7
 10
3947.6926236539275
 20
1069.9005147573111
 40
50
 41
0.8
 50
0
  1
岩城ブロック工業株式会社
  0
TEXT
  8
_1-0_
 62
    7
 10
3318.5746525944891
 20
1072.8475539748733
 40
40
 41
0.8
 50
0
  1
参考重量
  0
TEXT
  8
_1-0_
 62
    7
 10
2936.8351638381545
 20
1069.3255573994406
 40
40
 41
0.8
 50
0
  1
図　番
  0
TEXT
  8
_1-0_
 62
    7
 10
2436.6525738690352
 20
1066.077600427576
 40
40
 41
0.8
 50
0
  1
分　類
  0
TEXT
  8
_1-0_
 62
    7
 10
1374.5765980900944
 20
1069.3257120493296
 40
40
 41
0.8
 50
0
  1
名　称
  0
TEXT
  8
_0-0_
 62
    7
 10
1523.6250016496535
 20
2848.1250989759055
 40
60
 41
0.7999999999999999
 50
-0.0000506330528652
  1
断  面  図
  0
TEXT
  8
_0-0_
 62
    7
 10
2405.6249917520603
 20
2869.1250692831822
 40
60
 41
0.7999999999999999
 50
-0.0000506330756635
  1
側  面  図
  0
TEXT
  8
_0-0_
 62
    7
 10
2216.6250329919762
 20
2357.2500197951858
 40
40
 41
0.8
 50
0
  1
連結金具
  0
TEXT
  8
_0-0_
 62
    7
 10
2174.6250032991979
 20
2089.499965358425
 40
40
 41
0.8
 50
0
  1
ズレ止プレート
  0
TEXT
  8
_0-0_
 62
    7
 10
3584.2500098975933
 20
1076.2500061859955
 40
50
 41
0.8
 50
0
  1
525Kg
  0
TEXT
  8
_0-0_
 62
    7
 10
1599.7500754691461
 20
1076.2500061859955
 40
50
 41
0.8
 50
0
  1
横断側溝ＧＩ　３００Ａ
  0
LINE
  8
_0-0_
  6
CONTINUOUS
 62
    7
 10
4462.0725229624158
 20
2083.6434359163849
 11
2462.0726054423566
 21
2083.6434359163849
  0
LINE
  8
_0-0_
  6
CONTINUOUS
 62
    7
 10
1713.8226235879435
 20
2596.7684276683912
 11
1767.8225914207664
 21
2596.7684276683912
  0
LINE
  8
_0-0_
  6
CONTINUOUS
 62
    7
 10
1713.8226235879435
 20
2596.7684276683912
 11
1713.8226235879435
 21
2489.1434870539487
  0
LINE
  8
_0-0_
  6
CONTINUOUS
 62
    7
 10
1767.8225914207664
 20
2596.7684276683912
 11
1767.8225914207664
 21
2489.1434870539487
  0
LINE
  8
_0-0_
  6
CONTINUOUS
 62
    7
 10
1767.8225914207664
 20
2596.7684276683912
 11
2069.8225856471703
 21
2596.7684276683912
  0
LINE
  8
_0-0_
  6
CONTINUOUS
 62
    7
 10
2069.8225856471703
 20
2596.7684276683912
 11
2069.8225856471703
 21
2489.1434870539487
  0
LINE
  8
_0-0_
  6
CONTINUOUS
 62
    7
 10
2069.8225856471703
 20
2596.7684276683912
 11
2123.8226153399496
 21
2596.7684276683912
  0
LINE
  8
_0-0_
  6
CONTINUOUS
 62
    7
 10
2123.8226153399496
 20
2596.7684276683912
 11
2123.8226153399496
 21
2489.1434870539487
  0
LINE
  8
_0-0_
  6
CONTINUOUS
 62
    7
 10
1658.8226277119406
 20
2665.0185167467275
 11
1713.8226235879435
 21
2665.0185167467275
  0
LINE
  8
_0-0_
  6
CONTINUOUS
 62
    7
 10
1658.8226277119406
 20
2665.0185167467275
 11
1658.8226277119406
 21
2489.1434870539487
  0
LINE
  8
_0-0_
  6
CONTINUOUS
 62
    7
 10
1713.8226235879435
 20
2665.0185167467275
 11
1713.8226235879435
 21
2489.1434870539487
  0
LINE
  8
_0-0_
  6
CONTINUOUS
 62
    7
 10
1713.8226235879435
 20
2665.0185167467275
 11
2123.8226153399496
 21
2665.0185167467275
  0
LINE
  8
_0-0_
  6
CONTINUOUS
 62
    7
 10
2123.8226153399496
 20
2665.0185167467275
 11
2123.8226153399496
 21
2489.1434870539487
  0
LINE
  8
_0-0_
  6
CONTINUOUS
 62
    7
 10
2123.8226153399496
 20
2665.0185167467275
 11
2178.8225493559966
 21
2665.0185167467275
  0
LINE
  8
_0-0_
  6
CONTINUOUS
 62
    7
 10
2178.8225493559966
 20
2665.0185167467275
 11
2178.8225493559966
 21
2489.1434870539487
  0
LINE
  8
_0-0_
  6
CONTINUOUS
 62
    7
 10
1658.8226277119406
 20
2743.7685909786741
 11
2178.8225493559966
 21
2743.7685909786741
  0
LINE
  8
_0-0_
  6
CONTINUOUS
 62
    7
 10
1658.8226277119406
 20
2743.7685909786741
 11
1658.8226277119406
 21
2489.1434870539487
  0
LINE
  8
_0-0_
  6
CONTINUOUS
 62
    7
 10
2178.8225493559966
 20
2743.7685909786741
 11
2178.8225493559966
 21
2489.1434870539487
  0
LINE
  8
_0-0_
  6
CONTINUOUS
 62
    7
 10
1540.6846494932433
 20
2478.6435019003379
 11
1540.6846494932433
 21
2258.6435183963258
  0
LINE
  8
_0-0_
  6
CONTINUOUS
 62
    7
 10
1540.6846494932433
 20
2478.6435019003379
 11
1647.307335106102
 21
2478.6435019003379
  0
LINE
  8
_0-0_
  6
CONTINUOUS
 62
    7
 10
1540.6846494932433
 20
2258.6435183963258
 11
1647.307335106102
 21
2258.6435183963258
  0
LINE
  8
_0-0_
  6
CONTINUOUS
 62
    7
 10
1540.6846494932433
 20
2258.6435183963258
 11
1540.6846494932433
 21
2208.6434771563558
  0
LINE
  8
_0-0_
  6
CONTINUOUS
 62
    7
 10
1540.6846494932433
 20
2208.6434771563558
 11
1647.307335106102
 21
2208.6434771563558
  0
LINE
  8
_0-0_
  6
CONTINUOUS
 62
    7
 10
1540.6846494932433
 20
2208.6434771563558
 11
1540.6846494932433
 21
1993.643510148332
  0
LINE
  8
_0-0_
  6
CONTINUOUS
 62
    7
 10
1540.6846494932433
 20
1993.643510148332
 11
1647.307335106102
 21
1993.643510148332
  0
LINE
  8
_0-0_
  6
CONTINUOUS
 62
    7
 10
1491.0926983807539
 20
2478.6435019003379
 11
1491.0926983807539
 21
1993.643510148332
  0
LINE
  8
_0-0_
  6
CONTINUOUS
 62
    7
 10
1491.0926983807539
 20
2478.6435019003379
 11
1647.307335106102
 21
2478.6435019003379
  0
LINE
  8
_0-0_
  6
CONTINUOUS
 62
    7
 10
1491.0926983807539
 20
1993.643510148332
 11
1647.307335106102
 21
1993.643510148332
  0
LINE
  8
_0-0_
  6
CONTINUOUS
 62
    7
 10
1918.8225576039908
 20
2478.6435019003379
 11
1918.8225576039908
 21
2408.6435183963258
  0
LINE
  8
_0-0_
  6
CONTINUOUS
 62
    7
 10
1918.8225576039908
 20
2083.6434359163849
 11
1918.8225576039908
 21
1993.643510148332
  0
LINE
  8
_0-0_
  6
CONTINUOUS
 62
    7
 10
1708.8226070919554
 20
1879.1861374313766
 11
1778.822590595967
 21
1879.1861374313766
  0
LINE
  8
_0-0_
  6
CONTINUOUS
 62
    7
 10
1708.8226070919554
 20
1879.1861374313766
 11
1708.8226070919554
 21
1980.8496341189822
  0
LINE
  8
_0-0_
  6
CONTINUOUS
 62
    7
 10
1778.822590595967
 20
1879.1861374313766
 11
1778.822590595967
 21
1980.8496341189822
  0
LINE
  8
_0-0_
  6
CONTINUOUS
 62
    7
 10
1778.822590595967
 20
1879.1861374313766
 11
2058.8226483319258
 21
1879.1861374313766
  0
LINE
  8
_0-0_
  6
CONTINUOUS
 62
    7
 10
2058.8226483319258
 20
1879.1861374313766
 11
2058.8226483319258
 21
1980.8496341189822
  0
LINE
  8
_0-0_
  6
CONTINUOUS
 62
    7
 10
2058.8226483319258
 20
1879.1861374313766
 11
2128.8226318359375
 21
1879.1861374313766
  0
LINE
  8
_0-0_
  6
CONTINUOUS
 62
    7
 10
2128.8226318359375
 20
1879.1861374313766
 11
2128.8226318359375
 21
1980.8496341189822
  0
LINE
  8
_0-0_
  6
CONTINUOUS
 62
    7
 10
1918.8225576039908
 20
2408.6435183963258
 11
1791.6469017235008
 21
2408.6435183963258
  0
LINE
  8
_0-0_
  6
CONTINUOUS
 62
    7
 10
1767.8225914207664
 20
2408.6435183963258
 11
1724.1748871674408
 21
2408.6435183963258
  0
LINE
  8
_0-0_
  6
CONTINUOUS
 62
    7
 10
1747.2047300596495
 20
2130.9373515361066
 11
1738.8207884092589
 21
2378.643419420397
  0
LINE
  8
_0-0_
  6
CONTINUOUS
 62
    7
 10
2075.4491197740712
 20
2131.4447268924195
 11
2083.8158024968329
 21
2378.643419420397
  0
LINE
  8
_0-0_
  6
CONTINUOUS
 62
    7
 10
2090.4405088682433
 20
2130.9373515361066
 11
2098.8243886586783
 21
2378.643419420397
  0
LINE
  8
_0-0_
  6
CONTINUOUS
 62
    7
 10
2083.8158024968329
 20
2378.643419420397
 11
2098.8243886586783
 21
2378.643419420397
  0
LINE
  8
_0-0_
  6
CONTINUOUS
 62
    7
 10
1738.8207884092589
 20
2378.643419420397
 11
1753.8293745711043
 21
2378.643419420397
  0
LINE
  8
_0-0_
  6
CONTINUOUS
 62
    7
 10
1762.1961191538218
 20
2131.4447268924195
 11
1753.8293745711043
 21
2378.643419420397
  0
LINE
  8
_0-0_
  6
CONTINUOUS
 62
    7
 10
2010.4862687394424
 20
2053.6434606603675
 11
1827.1589083284945
 21
2053.6434606603675
  0
LINE
  8
_0-0_
  6
CONTINUOUS
 62
    7
 10
2010.4862687394424
 20
2068.643510148332
 11
1827.1589083284945
 21
2068.643510148332
  0
LINE
  8
_0-0_
  6
CONTINUOUS
 62
    7
 10
2462.0726054423566
 20
2408.6435183963258
 11
4462.0725229624158
 21
2408.6435183963258
  0
LINE
  8
_0-0_
  6
CONTINUOUS
 62
    7
 10
1790.2874054779877
 20
2099.872395283467
 11
1802.0555197226035
 21
2113.3890430347341
  0
LINE
  8
_0-0_
  6
CONTINUOUS
 62
    7
 10
1790.2874054779877
 20
2099.872395283467
 11
1820.9770573796454
 21
2119.750844594595
  0
LINE
  8
_0-0_
  6
CONTINUOUS
 62
    7
 10
1777.1875701079497
 20
2131.9521022487328
 11
1767.8225914207664
 21
2408.6435183963258
  0
LINE
  8
_0-0_
  6
CONTINUOUS
 62
    7
 10
1658.8226277119406
 20
2258.6435183963258
 11
1708.8226070919554
 21
2208.6434771563558
  0
LINE
  8
_0-0_
  6
CONTINUOUS
 62
    7
 10
1708.8226070919554
 20
2014.8566498627533
 11
1730.0358086663322
 21
1993.643510148332
  0
LINE
  8
_0-0_
  6
CONTINUOUS
 62
    7
 10
1708.8226070919554
 20
2014.8566498627533
 11
2128.8226318359375
 21
2014.8566498627533
  0
LINE
  8
_0-0_
  6
CONTINUOUS
 62
    7
 10
2107.6093684016045
 20
1993.643510148332
 11
1730.0358086663322
 21
1993.643510148332
  0
LINE
  8
_0-0_
  6
CONTINUOUS
 62
    7
 10
2107.6093684016045
 20
1993.643510148332
 11
2128.8226318359375
 21
2014.8566498627533
  0
LINE
  8
_0-0_
  6
CONTINUOUS
 62
    7
 10
2178.8225493559966
 20
2258.6435183963258
 11
2128.8226318359375
 21
2208.6434771563558
  0
LINE
  8
_0-0_
  6
CONTINUOUS
 62
    7
 10
2178.8225493559966
 20
2408.6435183963258
 11
2178.8225493559966
 21
2258.6435183963258
  0
LINE
  8
_0-0_
  6
CONTINUOUS
 62
    7
 10
2178.8225493559966
 20
2478.6435019003379
 11
2178.8225493559966
 21
2408.6435183963258
  0
LINE
  8
_0-0_
  6
CONTINUOUS
 62
    7
 10
2123.8226153399496
 20
2478.6435019003379
 11
2178.8225493559966
 21
2478.6435019003379
  0
LINE
  8
_0-0_
  6
CONTINUOUS
 62
    7
 10
2069.8225856471703
 20
2408.6435183963258
 11
2123.8226153399496
 21
2408.6435183963258
  0
LINE
  8
_0-0_
  6
CONTINUOUS
 62
    7
 10
2060.4577306798987
 20
2131.9521022487328
 11
2069.8225856471703
 21
2408.6435183963258
  0
LINE
  8
_0-0_
  6
CONTINUOUS
 62
    7
 10
2010.4862687394424
 20
2083.6434359163849
 11
1827.1589083284945
 21
2083.6434359163849
  0
LINE
  8
_0-0_
  6
CONTINUOUS
 62
    7
 10
2462.0726054423566
 20
2478.6435019003379
 11
4462.0725229624158
 21
2478.6435019003379
  0
LINE
  8
_0-0_
  6
CONTINUOUS
 62
    7
 10
4462.0725229624158
 20
2014.8566498627533
 11
4462.0725229624158
 21
2478.6435019003379
  0
LINE
  8
_0-0_
  6
CONTINUOUS
 62
    7
 10
2462.0726054423566
 20
2258.6435183963258
 11
4462.0725229624158
 21
2258.6435183963258
  0
LINE
  8
_0-0_
  6
CONTINUOUS
 62
    7
 10
2462.0726054423566
 20
2208.6434771563558
 11
4462.0725229624158
 21
2208.6434771563558
  0
LINE
  8
_0-0_
  6
CONTINUOUS
 62
    7
 10
2462.0726054423566
 20
2014.8566498627533
 11
2483.2858688766891
 21
1993.643510148332
  0
LINE
  8
_0-0_
  6
CONTINUOUS
 62
    7
 10
4440.8595069679058
 20
1993.643510148332
 11
2483.2858688766891
 21
1993.643510148332
  0
LINE
  8
_0-0_
  6
CONTINUOUS
 62
    7
 10
2462.0726054423566
 20
2014.8566498627533
 11
4462.0725229624158
 21
2014.8566498627533
  0
LINE
  8
_0-0_
  6
CONTINUOUS
 62
    7
 10
4462.0725229624158
 20
2014.8566498627533
 11
4440.8595069679058
 21
1993.643510148332
  0
LINE
  8
_0-0_
  6
CONTINUOUS
 62
    7
 10
2462.0726054423566
 20
2743.7685909786741
 11
4462.0725229624158
 21
2743.7685909786741
  0
LINE
  8
_0-0_
  6
CONTINUOUS
 62
    7
 10
2462.0726054423566
 20
2743.7685909786741
 11
2462.0726054423566
 21
2489.1434870539487
  0
LINE
  8
_0-0_
  6
CONTINUOUS
 62
    7
 10
4462.0725229624158
 20
2743.7685909786741
 11
4462.0725229624158
 21
2489.1434870539487
  0
LINE
  8
_0-0_
  6
CONTINUOUS
 62
    7
 10
1708.8226070919554
 20
2014.8566498627533
 11
1708.8226070919554
 21
2096.64342931799
  0
LINE
  8
_0-0_
  6
CONTINUOUS
 62
    7
 10
1708.8226070919554
 20
2140.6435497387037
 11
1708.8226070919554
 21
2208.6434771563558
  0
LINE
  8
_0-0_
  6
CONTINUOUS
 62
    7
 10
2128.8226318359375
 20
2140.6435497387037
 11
2128.8226318359375
 21
2208.6434771563558
  0
LINE
  8
_0-0_
  6
CONTINUOUS
 62
    7
 10
2128.8226318359375
 20
2014.8566498627533
 11
2128.8226318359375
 21
2096.64342931799
  0
LINE
  8
_0-0_
  6
CONTINUOUS
 62
    7
 10
1708.8226070919554
 20
2140.6435497387037
 11
1714.8225897711677
 21
2138.6434936523437
  0
LINE
  8
_0-0_
  6
CONTINUOUS
 62
    7
 10
1714.8225897711677
 20
2138.6434936523437
 11
1714.8225897711677
 21
2098.6434854043495
  0
LINE
  8
_0-0_
  6
CONTINUOUS
 62
    7
 10
1714.8225897711677
 20
2098.6434854043495
 11
1708.8226070919554
 21
2096.64342931799
  0
LINE
  8
_0-0_
  6
CONTINUOUS
 62
    7
 10
2122.8225872967695
 20
2138.6434936523437
 11
2122.8225872967695
 21
2098.6434854043495
  0
LINE
  8
_0-0_
  6
CONTINUOUS
 62
    7
 10
2122.8225872967695
 20
2098.6434854043495
 11
2128.8226318359375
 21
2096.64342931799
  0
LINE
  8
_0-0_
  6
CONTINUOUS
 62
    7
 10
2122.8225872967695
 20
2138.6434936523437
 11
2128.8226318359375
 21
2140.6435497387037
  0
LINE
  8
_0-0_
  6
CONTINUOUS
 62
    7
 10
1337.249988865208
 20
1041.1250573235588
 11
1337.249988865208
 21
3416.1249439136399
  0
LINE
  8
_0-0_
  6
CONTINUOUS
 62
    7
 10
1337.249988865208
 20
3416.1249439136399
 11
4712.2497723553633
 21
3416.1249439136399
  0
LINE
  8
_0-0_
  6
CONTINUOUS
 62
    7
 10
4712.2497723553633
 20
3416.1249439136399
 11
4712.2497723553633
 21
1041.1250573235588
  0
LINE
  8
_0-0_
  6
CONTINUOUS
 62
    7
 10
4712.2497723553633
 20
1041.1250573235588
 11
1337.249988865208
 21
1041.1250573235588
  0
LINE
  8
_0-0_
  6
CONTINUOUS
 62
    7
 10
3774.7497723553633
 20
1041.1250573235588
 11
3774.7497723553633
 21
1166.1250676335516
  0
LINE
  8
_0-0_
  6
CONTINUOUS
 62
    7
 10
4712.2497723553633
 20
1166.1250676335516
 11
1337.2498651452965
 21
1166.1250676335516
  0
LINE
  8
_0-0_
  6
CONTINUOUS
 62
    7
 10
1524.7500197951858
 20
1041.1250573235588
 11
1524.7500197951858
 21
1166.1250676335516
  0
LINE
  8
_0-0_
  6
CONTINUOUS
 62
    7
 10
2399.7498135953337
 20
1041.1250573235588
 11
2399.7498135953337
 21
1166.1250676335516
  0
LINE
  8
_0-0_
  6
CONTINUOUS
 62
    7
 10
2587.2498135953333
 20
1041.1250573235588
 11
2587.2498135953333
 21
1166.1250676335516
  0
LINE
  8
_0-0_
  6
CONTINUOUS
 62
    7
 10
3087.2498548353041
 20
1041.1250573235588
 11
3087.2498548353041
 21
1166.1250676335516
  0
LINE
  8
_0-0_
  6
CONTINUOUS
 62
    7
 10
2899.7498548353041
 20
1041.1250573235588
 11
2899.7498548353041
 21
1166.1250676335516
  0
LINE
  8
_0-0_
  6
CONTINUOUS
 62
    7
 10
3274.7498548353041
 20
1041.1250573235588
 11
3274.7498548353041
 21
1166.1250676335516
  0
LINE
  8
_0-0_
  6
CONTINUOUS
 62
    7
 10
3524.7499373152454
 20
1041.1250573235588
 11
3524.7499373152454
 21
1166.1250676335516
  0
LINE
  8
_0-0_
  6
CONTINUOUS
 62
    7
 10
2172.0000148463891
 20
2328.3750296927787
 11
2216.6250445391683
 21
2357.2500197951858
  0
LINE
  8
_0-0_
  6
CONTINUOUS
 62
    7
 10
2216.6250445391683
 20
2357.2500197951858
 11
2353.1249752560179
 21
2357.2500197951858
  0
LINE
  8
_0-0_
  6
CONTINUOUS
 62
    7
 10
2127.3749851536108
 20
2123.6250098975929
 11
2174.6249802048141
 21
2089.499965358425
  0
LINE
  8
_0-0_
  6
CONTINUOUS
 62
    7
 10
2174.6249802048141
 20
2089.499965358425
 11
2418.7499752560179
 21
2089.499965358425
  0
LINE
  8
_0-0_
  6
CONTINUOUS
 62
    7
 10
1918.8225576039908
 20
2329.9252401815879
 11
1918.8225576039908
 21
2083.6434359163849
  0
LINE
  8
_0-0_
  6
CONTINUOUS
 62
    7
 10
2173.8225328600087
 20
2408.6435183963258
 11
2178.8225493559966
 21
2408.6435183963258
  0
LINE
  8
_0-0_
  6
CONTINUOUS
 62
    7
 10
2173.8225328600087
 20
2473.6434854043495
 11
2128.8225081160262
 21
2473.6434854043495
  0
ARC
  8
_0-0_
  6
CONTINUOUS
 62
    7
 10
1827.1589083284945
 20
2133.6434771563558
 40
80.000001030999271
 50
181.93849182128909
 51
270
  0
ARC
  8
_0-0_
  6
CONTINUOUS
 62
    7
 10
2010.4862687394424
 20
2133.6434771563558
 40
80.000001030999271
 50
270
 51
358.06149291992187
  0
ARC
  8
_0-0_
  6
CONTINUOUS
 62
    7
 10
1827.1589083284945
 20
2133.6434771563558
 40
64.999997938001484
 50
181.93849182128909
 51
270
  0
ARC
  8
_0-0_
  6
CONTINUOUS
 62
    7
 10
2010.4862687394424
 20
2133.6434771563558
 40
64.999997938001484
 50
270
 51
358.06149291992187
  0
ARC
  8
_0-0_
  6
CONTINUOUS
 62
    7
 10
2010.4862687394424
 20
2133.6434771563558
 40
49.999998711250924
 50
270
 51
358.06149291992187
  0
ARC
  8
_0-0_
  6
CONTINUOUS
 62
    7
 10
1827.1589083284945
 20
2133.6434771563558
 40
49.999998711250924
 50
181.93849182128909
 51
270
  0
POINT
  8
_0-0_
 62
    7
 10
1713.8226235879435
 20
2596.7684276683912
  0
POINT
  8
_0-0_
 62
    7
 10
1767.8225914207664
 20
2596.7684276683912
  0
POINT
  8
_0-0_
 62
    7
 10
2069.8225856471703
 20
2596.7684276683912
  0
POINT
  8
_0-0_
 62
    7
 10
2123.8226153399496
 20
2596.7684276683912
  0
POINT
  8
_0-0_
 62
    7
 10
1658.8226277119406
 20
2665.0185167467275
  0
POINT
  8
_0-0_
 62
    7
 10
1713.8226235879435
 20
2665.0185167467275
  0
POINT
  8
_0-0_
 62
    7
 10
2123.8226153399496
 20
2665.0185167467275
  0
POINT
  8
_0-0_
 62
    7
 10
2178.8225493559966
 20
2665.0185167467275
  0
POINT
  8
_0-0_
 62
    7
 10
1658.8226277119406
 20
2743.7685909786741
  0
POINT
  8
_0-0_
 62
    7
 10
2178.8225493559966
 20
2743.7685909786741
  0
POINT
  8
_0-0_
 62
    7
 10
1540.6846494932433
 20
2478.6435019003379
  0
POINT
  8
_0-0_
 62
    7
 10
1540.6846494932433
 20
2258.6435183963258
  0
POINT
  8
_0-0_
 62
    7
 10
1540.6846494932433
 20
2208.6434771563558
  0
POINT
  8
_0-0_
 62
    7
 10
1540.6846494932433
 20
1993.643510148332
  0
POINT
  8
_0-0_
 62
    7
 10
1491.0926983807539
 20
2478.6435019003379
  0
POINT
  8
_0-0_
 62
    7
 10
1491.0926983807539
 20
1993.643510148332
  0
POINT
  8
_0-0_
 62
    7
 10
1918.8225576039908
 20
2408.6435183963258
  0
POINT
  8
_0-0_
 62
    7
 10
1918.8225576039908
 20
2408.6435183963258
  0
POINT
  8
_0-0_
 62
    7
 10
1918.8225576039908
 20
2083.6434359163849
  0
POINT
  8
_0-0_
 62
    7
 10
1918.8225576039908
 20
1993.643510148332
  0
POINT
  8
_0-0_
 62
    7
 10
1708.8226070919554
 20
1879.1861374313766
  0
POINT
  8
_0-0_
 62
    7
 10
1778.822590595967
 20
1879.1861374313766
  0
POINT
  8
_0-0_
 62
    7
 10
2058.8226483319258
 20
1879.1861374313766
  0
POINT
  8
_0-0_
 62
    7
 10
2128.8226318359375
 20
1879.1861374313766
  0
POINT
  8
_0-0_
 62
    7
 10
2462.0726054423566
 20
2743.7685909786741
  0
POINT
  8
_0-0_
 62
    7
 10
4462.0725229624158
 20
2743.7685909786741
  0
LINE
  8
_0-0_
  6
CONTINUOUS
 62
    7
 10
2128.8225081160262
 20
2473.6434854043495
 11
2128.8225081160262
 21
2408.6435183963258
  0
LINE
  8
_0-0_
  6
CONTINUOUS
 62
    7
 10
1767.8225914207664
 20
2408.6435183963258
 11
1767.8225914207664
 21
2413.7148043737461
  0
LINE
  8
_0-0_
  6
CONTINUOUS
 62
    7
 10
1713.8226235879435
 20
2413.6434111724029
 11
1713.8226235879435
 21
2408.6653097000821
  0
LINE
  8
_0-0_
  6
CONTINUOUS
 62
    7
 10
1713.8226235879435
 20
2408.6435183963258
 11
1767.8225914207664
 21
2408.6435183963258
  0
LINE
  8
_0-0_
  6
CONTINUOUS
 62
    7
 10
2128.8225081160262
 20
2408.6435183963258
 11
2128.8225081160262
 21
2404.0402894464928
  0
LINE
  8
_0-0_
  6
CONTINUOUS
 62
    7
 10
2128.8225081160262
 20
2404.0402894464928
 11
2069.7156792456635
 21
2404.0402894464928
  0
LINE
  8
_0-0_
  6
CONTINUOUS
 62
    7
 10
2123.8226153399496
 20
2413.6434111724029
 11
2123.8224916200379
 21
2413.6434111724029
  0
LINE
  8
_0-0_
  6
CONTINUOUS
 62
    7
 10
2123.8226153399496
 20
2408.6435183963258
 11
2069.8225856471703
 21
2408.6435183963258
  0
LINE
  8
_0-0_
  6
CONTINUOUS
 62
    7
 10
2123.8226153399496
 20
2413.6434111724029
 11
2123.8226153399496
 21
2408.6435183963258
  0
LINE
  8
_0-0_
  6
CONTINUOUS
 62
    7
 10
1759.5419003367101
 20
2402.7504120759231
 11
1765.4350066571169
 21
2408.6435183963294
  0
LINE
  8
_0-0_
  6
CONTINUOUS
 62
    7
 10
1745.3997647129781
 20
2402.750412075924
 11
1751.2928710333849
 21
2408.6435183963308
  0
LINE
  8
_0-0_
  6
CONTINUOUS
 62
    7
 10
1731.2576290892461
 20
2402.7504120759253
 11
1737.1507354096527
 21
2408.6435183963321
  0
LINE
  8
_0-0_
  6
CONTINUOUS
 62
    7
 10
1717.1154934655096
 20
2402.7504120759222
 11
1723.0085997859209
 21
2408.6435183963335
  0
LINE
  8
_0-0_
  6
CONTINUOUS
 62
    7
 10
1708.822607091954
 20
2422.7417969498151
 11
1713.8226235879426
 21
2427.7418134458039
  0
LINE
  8
_0-0_
  6
CONTINUOUS
 62
    7
 10
1708.8226070919529
 20
2436.883932573547
 11
1713.8226235879415
 21
2441.8839490695359
  0
LINE
  8
_0-0_
  6
CONTINUOUS
 62
    7
 10
1708.8226070919572
 20
2451.0260681972849
 11
1713.8226235879403
 21
2456.0260846932678
  0
LINE
  8
_0-0_
  6
CONTINUOUS
 62
    7
 10
1658.8226277119401
 20
2415.1682244410012
 11
1663.8226442079294
 21
2420.1682409369905
  0
LINE
  8
_0-0_
  6
CONTINUOUS
 62
    7
 10
1708.8226070919561
 20
2465.1682038210174
 11
1713.8226235879392
 21
2470.1682203170003
  0
LINE
  8
_0-0_
  6
CONTINUOUS
 62
    7
 10
1658.8226277119385
 20
2429.3103600647332
 11
1663.8226442079298
 21
2434.3103765607243
  0
LINE
  8
_0-0_
  6
CONTINUOUS
 62
    7
 10
1703.1557530515551
 20
2473.6434854043495
 11
1708.1557695475487
 21
2478.6435019003429
  0
LINE
  8
_0-0_
  6
CONTINUOUS
 62
    7
 10
1658.8226277119372
 20
2443.4524956884652
 11
1663.8226442079298
 21
2448.4525121844576
  0
LINE
  8
_0-0_
  6
CONTINUOUS
 62
    7
 10
1689.0136174278186
 20
2473.6434854043463
 11
1694.0136339238156
 21
2478.6435019003433
  0
LINE
  8
_0-0_
  6
CONTINUOUS
 62
    7
 10
1658.8226277119406
 20
2457.594631312193
 11
1663.8226442079289
 21
2462.5946478081809
  0
LINE
  8
_0-0_
  6
CONTINUOUS
 62
    7
 10
1674.8714818040962
 20
2473.6434854043482
 11
1679.8714983000872
 21
2478.6435019003392
  0
LINE
  8
_0-0_
  6
CONTINUOUS
 62
    7
 10
1658.822627711944
 20
2471.73676693592
 11
1665.7293626763587
 21
2478.6435019003347
  0
LINE
  8
_0-0_
  6
CONTINUOUS
 62
    7
 10
2175.5569397453086
 20
2408.6435183963271
 11
2178.8225493559957
 21
2411.9091280070142
  0
LINE
  8
_0-0_
  6
CONTINUOUS
 62
    7
 10
2173.8225328600069
 20
2421.0512471347587
 11
2178.8225493559948
 21
2426.0512636307466
  0
LINE
  8
_0-0_
  6
CONTINUOUS
 62
    7
 10
2173.822532860011
 20
2435.193382758478
 11
2178.8225493559916
 21
2440.1933992544586
  0
LINE
  8
_0-0_
  6
CONTINUOUS
 62
    7
 10
2128.5273039242929
 20
2404.0402894464932
 11
2128.8225081160258
 21
2404.3354936382261
  0
LINE
  8
_0-0_
  6
CONTINUOUS
 62
    7
 10
2173.8225328600128
 20
2449.3355183822131
 11
2178.8225493560012
 21
2454.3355348782015
  0
LINE
  8
_0-0_
  6
CONTINUOUS
 62
    7
 10
2114.3851683005605
 20
2404.0402894464941
 11
2118.9883972503921
 21
2408.6435183963258
  0
LINE
  8
_0-0_
  6
CONTINUOUS
 62
    7
 10
2123.8226153399491
 20
2413.4777364858828
 11
2128.8225081160248
 21
2418.4776292619585
  0
LINE
  8
_0-0_
  6
CONTINUOUS
 62
    7
 10
2173.8225328600119
 20
2463.4776540059456
 11
2178.8225493559998
 21
2468.4776705019335
  0
LINE
  8
_0-0_
  6
CONTINUOUS
 62
    7
 10
2100.243032676828
 20
2404.040289446495
 11
2104.8462616266597
 21
2408.6435183963267
  0
LINE
  8
_0-0_
  6
CONTINUOUS
 62
    7
 10
2123.8226153399477
 20
2427.6198721096147
 11
2128.8225081160235
 21
2432.6197648856905
  0
LINE
  8
_0-0_
  6
CONTINUOUS
 62
    7
 10
2169.8462286346812
 20
2473.6434854043482
 11
2174.8462451306691
 21
2478.6435019003361
  0
LINE
  8
_0-0_
  6
CONTINUOUS
 62
    7
 10
2086.1008970530961
 20
2404.0402894464964
 11
2090.7041260029272
 21
2408.6435183963276
  0
LINE
  8
_0-0_
  6
CONTINUOUS
 62
    7
 10
2123.8226153399464
 20
2441.7620077333467
 11
2128.8225081160262
 21
2446.7619005094265
  0
LINE
  8
_0-0_
  6
CONTINUOUS
 62
    7
 10
2155.7040930109446
 20
2473.643485404345
 11
2160.7041095069375
 21
2478.6435019003379
  0
LINE
  8
_0-0_
  6
CONTINUOUS
 62
    7
 10
2071.9587614293636
 20
2404.0402894464973
 11
2076.5619903791948
 21
2408.6435183963285
  0
LINE
  8
_0-0_
  6
CONTINUOUS
 62
    7
 10
2123.8226153399455
 20
2455.9041433570791
 11
2128.8225081160317
 21
2460.9040361331653
  0
LINE
  8
_0-0_
  6
CONTINUOUS
 62
    7
 10
2141.5619573872099
 20
2473.6434854043436
 11
2146.5619738832065
 21
2478.6435019003401
  0
LINE
  8
_0-0_
  6
CONTINUOUS
 62
    7
 10
2123.8226153399496
 20
2470.0462789808166
 11
2132.4198382594709
 21
2478.6435019003379
  0
LINE
  8
_0-0_
  6
CONTINUOUS
 62
    7
 10
1759.5419003367101
 20
2402.7504120759231
 11
1765.4350066571169
 21
2408.6435183963294
  0
LINE
  8
_0-0_
  6
CONTINUOUS
 62
    7
 10
1745.3997647129781
 20
2402.750412075924
 11
1751.2928710333849
 21
2408.6435183963308
  0
LINE
  8
_0-0_
  6
CONTINUOUS
 62
    7
 10
1731.2576290892461
 20
2402.7504120759253
 11
1737.1507354096527
 21
2408.6435183963321
  0
LINE
  8
_0-0_
  6
CONTINUOUS
 62
    7
 10
1717.1154934655096
 20
2402.7504120759222
 11
1723.0085997859209
 21
2408.6435183963335
  0
LINE
  8
_0-0_
  6
CONTINUOUS
 62
    7
 10
1708.822607091954
 20
2422.7417969498151
 11
1713.8226235879426
 21
2427.7418134458039
  0
LINE
  8
_0-0_
  6
CONTINUOUS
 62
    7
 10
1708.8226070919529
 20
2436.883932573547
 11
1713.8226235879415
 21
2441.8839490695359
  0
LINE
  8
_0-0_
  6
CONTINUOUS
 62
    7
 10
1708.8226070919572
 20
2451.0260681972849
 11
1713.8226235879403
 21
2456.0260846932678
  0
LINE
  8
_0-0_
  6
CONTINUOUS
 62
    7
 10
1658.8226277119401
 20
2415.1682244410012
 11
1663.8226442079294
 21
2420.1682409369905
  0
LINE
  8
_0-0_
  6
CONTINUOUS
 62
    7
 10
1708.8226070919561
 20
2465.1682038210174
 11
1713.8226235879392
 21
2470.1682203170003
  0
LINE
  8
_0-0_
  6
CONTINUOUS
 62
    7
 10
1658.8226277119385
 20
2429.3103600647332
 11
1663.8226442079298
 21
2434.3103765607243
  0
LINE
  8
_0-0_
  6
CONTINUOUS
 62
    7
 10
1703.1557530515551
 20
2473.6434854043495
 11
1708.1557695475487
 21
2478.6435019003429
  0
LINE
  8
_0-0_
  6
CONTINUOUS
 62
    7
 10
1658.8226277119372
 20
2443.4524956884652
 11
1663.8226442079298
 21
2448.4525121844576
  0
LINE
  8
_0-0_
  6
CONTINUOUS
 62
    7
 10
1689.0136174278186
 20
2473.6434854043463
 11
1694.0136339238156
 21
2478.6435019003433
  0
LINE
  8
_0-0_
  6
CONTINUOUS
 62
    7
 10
1658.8226277119406
 20
2457.594631312193
 11
1663.8226442079289
 21
2462.5946478081809
  0
LINE
  8
_0-0_
  6
CONTINUOUS
 62
    7
 10
1674.8714818040962
 20
2473.6434854043482
 11
1679.8714983000872
 21
2478.6435019003392
  0
LINE
  8
_0-0_
  6
CONTINUOUS
 62
    7
 10
1658.822627711944
 20
2471.73676693592
 11
1665.7293626763587
 21
2478.6435019003347
  0
LINE
  8
_0-0_
  6
CONTINUOUS
 62
    7
 10
2462.0710952484591
 20
2378.1435019003379
 11
2462.0710952484591
 21
2371.1435019003379
  0
LINE
  8
_0-0_
  6
CONTINUOUS
 62
    7
 10
2462.0726054423566
 20
2014.8566498627533
 11
2462.0726054423566
 21
2303.421578883845
  0
LINE
  8
_0-0_
  6
CONTINUOUS
 62
    7
 10
2462.0726054423566
 20
2303.421578883845
 11
2462.0726054423566
 21
2478.6435019003379
  0
LINE
  8
_0-0_
  6
CONTINUOUS
 62
    7
 10
2462.0710952484591
 20
2371.1435019003379
 11
2462.0710952484591
 21
2305.1435019003379
  0
LINE
  8
_0-0_
  6
CONTINUOUS
 62
    7
 10
4462.0619324351218
 20
2297.8207889889554
 11
4462.0619324351218
 21
2304.8207889889549
  0
LINE
  8
_0-0_
  6
CONTINUOUS
 62
    7
 10
4462.0604222412248
 20
2377.8207889889554
 11
4462.0604222412248
 21
2370.8207889889554
  0
LINE
  8
_0-0_
  6
CONTINUOUS
 62
    7
 10
4462.0619324351218
 20
2304.8207889889549
 11
4462.0619324351218
 21
2370.8207889889554
  0
LINE
  8
_0-0_
  6
CONTINUOUS
 62
    7
 10
1918.8225576039908
 20
2473.6436091242608
 11
1740.4890276934652
 21
2473.6436091242608
  0
POINT
  8
_0-0_
 62
    7
 10
1918.8225576039908
 20
2473.6436091242608
  0
LINE
  8
_0-0_
  6
CONTINUOUS
 62
    7
 10
1918.8225576039908
 20
2473.6436091242608
 11
1740.4890276934652
 21
2473.6436091242608
  0
LINE
  8
_0-0_
  6
CONTINUOUS
 62
    7
 10
1803.022576409417
 20
2468.6435926282729
 11
1803.022576409417
 21
2418.6435513883025
  0
LINE
  8
_0-0_
  6
CONTINUOUS
 62
    7
 10
2034.6225387985641
 20
2468.6435926282729
 11
2034.6225387985641
 21
2418.6435513883025
  0
LINE
  8
_0-0_
  6
CONTINUOUS
 62
    7
 10
1957.4225513355149
 20
2468.6435926282729
 11
1957.4225513355149
 21
2418.6435513883025
  0
LINE
  8
_0-0_
  6
CONTINUOUS
 62
    7
 10
1880.2225020125106
 20
2468.6435926282729
 11
1880.2225020125106
 21
2418.6435513883025
  0
LINE
  8
_0-0_
  6
CONTINUOUS
 62
    7
 10
1767.8225914207664
 20
2408.6435183963258
 11
1716.0226110509925
 21
2408.6435183963258
  0
LINE
  8
_0-0_
  6
CONTINUOUS
 62
    7
 10
2121.6226278769004
 20
2473.6436091242608
 11
1716.0226110509925
 21
2473.6436091242608
  0
LINE
  8
_0-0_
  6
CONTINUOUS
 62
    7
 10
2121.6226278769004
 20
2413.6435348923141
 11
1716.0226110509925
 21
2413.6435348923141
  0
LINE
  8
_0-0_
  6
CONTINUOUS
 62
    7
 10
2121.6226278769004
 20
2408.6435183963258
 11
2069.8225856471703
 21
2408.6435183963258
  0
LINE
  8
_0-0_
  6
CONTINUOUS
 62
    7
 10
2116.622611380912
 20
2468.6435926282729
 11
1721.0226275469808
 21
2468.6435926282729
  0
LINE
  8
_0-0_
  6
CONTINUOUS
 62
    7
 10
2116.622611380912
 20
2418.6435513883025
 11
1721.0226275469808
 21
2418.6435513883025
  0
LINE
  8
_0-0_
  6
CONTINUOUS
 62
    7
 10
1721.0226275469808
 20
2468.6435926282729
 11
1721.0226275469808
 21
2418.6435513883025
  0
LINE
  8
_0-0_
  6
CONTINUOUS
 62
    7
 10
2116.622611380912
 20
2468.6435926282729
 11
2116.622611380912
 21
2418.6435513883025
  0
LINE
  8
_0-0_
  6
CONTINUOUS
 62
    7
 10
1752.5446670119827
 20
2423.6435678842908
 11
1752.5446670119827
 21
2418.6435513883025
  0
LINE
  8
_0-0_
  6
CONTINUOUS
 62
    7
 10
1732.5446628879856
 20
2423.6435678842908
 11
1732.5446628879856
 21
2418.6435513883025
  0
LINE
  8
_0-0_
  6
CONTINUOUS
 62
    7
 10
1760.4158514899177
 20
2423.6435678842908
 11
1724.7276058712523
 21
2423.6435678842908
  0
LINE
  8
_0-0_
  6
CONTINUOUS
 62
    7
 10
1742.544695879962
 20
2423.6435678842908
 11
1742.544695879962
 21
2418.6435513883025
  0
LINE
  8
_0-0_
  6
CONTINUOUS
 62
    7
 10
2077.2292018581078
 20
2423.6435678842908
 11
2112.9174474767737
 21
2423.6435678842908
  0
LINE
  8
_0-0_
  6
CONTINUOUS
 62
    7
 10
2095.1005430479308
 20
2423.6435678842908
 11
2095.1005430479308
 21
2418.6435513883025
  0
LINE
  8
_0-0_
  6
CONTINUOUS
 62
    7
 10
2085.1005100559546
 20
2423.6435678842908
 11
2085.1005100559546
 21
2418.6435513883025
  0
LINE
  8
_0-0_
  6
CONTINUOUS
 62
    7
 10
2105.1003286000845
 20
2423.6435678842908
 11
2105.1003286000845
 21
2418.6435513883025
  0
ARC
  8
_0-0_
  6
CONTINUOUS
 62
    7
 10
1742.5717905405406
 20
2418.5778561153929
 40
18.549266377010866
 50
0.2028961181640625
 51
179.79708862304687
  0
ARC
  8
_0-0_
  6
CONTINUOUS
 62
    7
 10
2095.0734483873525
 20
2418.5778561153929
 40
18.549266377010866
 50
0.2028961181640574
 51
179.79708862304687
  0
POINT
  8
_0-0_
 62
    7
 10
1918.8225576039908
 20
2473.6436091242608
  0
LINE
  8
_0-0_
  6
CONTINUOUS
 62
    7
 10
1716.0226110509925
 20
2473.6436091242608
 11
1716.0226110509925
 21
2408.6435183963258
  0
LINE
  8
_0-0_
  6
CONTINUOUS
 62
    7
 10
2123.8226153399496
 20
2473.6436091242608
 11
2123.8226153399496
 21
2468.6436091242608
  0
LINE
  8
_0-0_
  6
CONTINUOUS
 62
    7
 10
2123.8226153399496
 20
2473.6436091242608
 11
2123.8226153399496
 21
2408.6435183963258
  0
LINE
  8
_0-0_
  6
CONTINUOUS
 62
    7
 10
2121.6226278769004
 20
2473.6436091242608
 11
2121.6226278769004
 21
2408.6435183963258
  0
LINE
  8
_0-0_
  6
CONTINUOUS
 62
    7
 10
2121.6226278769004
 20
2408.6435183963258
 11
2123.8226153399496
 21
2408.6435183963258
  0
LINE
  8
_0-0_
  6
CONTINUOUS
 62
    7
 10
1658.8226277119406
 20
2321.5865109010046
 11
1698.8226359599348
 21
2321.5865109010046
  0
LINE
  8
_0-0_
  6
CONTINUOUS
 62
    7
 10
1658.8226277119406
 20
2281.5866263729221
 11
1698.8226359599348
 21
2281.5866263729221
  0
LINE
  8
_0-0_
  6
CONTINUOUS
 62
    7
 10
1698.8226359599348
 20
2321.5865109010046
 11
1698.8226359599348
 21
2281.5866263729221
  0
CIRCLE
  8
_0-0_
  6
CONTINUOUS
 62
    7
 10
1678.8226318359375
 20
2301.5865686369634
 40
10.000000128874908
  0
LINE
  8
_0-0_
  6
CONTINUOUS
 62
    7
 10
2138.8225411080024
 20
2321.5865109010046
 11
2138.8225411080024
 21
2281.5866263729221
  0
LINE
  8
_0-0_
  6
CONTINUOUS
 62
    7
 10
2138.8225411080024
 20
2321.5865109010046
 11
2178.8225493559966
 21
2321.5865109010046
  0
LINE
  8
_0-0_
  6
CONTINUOUS
 62
    7
 10
2138.8225411080024
 20
2281.5866263729221
 11
2178.8225493559966
 21
2281.5866263729221
  0
CIRCLE
  8
_0-0_
  6
CONTINUOUS
 62
    7
 10
2158.8226070919554
 20
2301.5865686369634
 40
10.000000128874908
  0
LINE
  8
_0-0_
  6
CONTINUOUS
 62
    7
 10
2462.0726054423566
 20
2321.0866098769338
 11
2462.0726054423566
 21
2328.0866098769338
  0
LINE
  8
_0-0_
  6
CONTINUOUS
 62
    7
 10
2502.0726136903504
 20
2321.5865109010046
 11
2462.0726054423566
 21
2321.5865109010046
  0
LINE
  8
_0-0_
  6
CONTINUOUS
 62
    7
 10
2512.0726466823271
 20
2291.5865356449867
 11
2512.0726466823271
 21
2311.5866016289396
  0
LINE
  8
_0-0_
  6
CONTINUOUS
 62
    7
 10
2502.0726136903504
 20
2281.5866263729221
 11
2462.0726054423566
 21
2281.5866263729221
  0
ARC
  8
_0-0_
  6
CONTINUOUS
 62
    7
 10
2502.0726136903504
 20
2311.5866016289396
 40
10.000000128874908
 50
0
 51
90
  0
ARC
  8
_0-0_
  6
CONTINUOUS
 62
    7
 10
2502.0726136903504
 20
2291.5865356449867
 40
10.000000128874908
 50
270
 51
0
  0
LINE
  8
_0-0_
  6
CONTINUOUS
 62
    7
 10
4422.0726384343324
 20
2321.5865109010046
 11
4462.0725229624158
 21
2321.5865109010046
  0
LINE
  8
_0-0_
  6
CONTINUOUS
 62
    7
 10
4422.0726384343324
 20
2281.5866263729221
 11
4462.0725229624158
 21
2281.5866263729221
  0
LINE
  8
_0-0_
  6
CONTINUOUS
 62
    7
 10
4412.0726054423557
 20
2291.5865356449867
 11
4412.0726054423557
 21
2311.5866016289396
  0
ARC
  8
_0-0_
  6
CONTINUOUS
 62
    7
 10
4422.0726384343324
 20
2311.5866016289396
 40
10.000000128874908
 50
90
 51
180
  0
ARC
  8
_0-0_
  6
CONTINUOUS
 62
    7
 10
4422.0726384343324
 20
2291.5865356449867
 40
10.000000128874908
 50
180
 51
270
  0
LINE
  8
_0-0_
  6
CONTINUOUS
 62
    7
 10
1713.7479455603411
 20
2402.6567112175303
 11
1708.7479455603411
 21
2402.6567112175303
  0
LINE
  8
_0-0_
  6
CONTINUOUS
 62
    7
 10
1700.6856772931485
 20
2421.926300272491
 11
1700.6856772931485
 21
2372.0531956615322
  0
LINE
  8
_0-0_
  6
CONTINUOUS
 62
    7
 10
1700.6856772931485
 20
2372.0531956615322
 11
1710.032592873279
 21
2357.4254193867222
  0
LINE
  8
_0-0_
  6
CONTINUOUS
 62
    7
 10
1708.6856541987644
 20
2371.8882770197456
 11
1717.9270985544974
 21
2357.4254193867222
  0
LINE
  8
_0-0_
  6
CONTINUOUS
 62
    7
 10
1700.6856772931485
 20
2421.926300272491
 11
1708.6856541987644
 21
2421.926300272491
  0
LINE
  8
_0-0_
  6
CONTINUOUS
 62
    7
 10
1708.7479455603411
 20
2402.6567112175303
 11
1708.7479455603411
 21
2371.8882770197456
  0
LINE
  8
_0-0_
  6
CONTINUOUS
 62
    7
 10
1708.7479455603352
 20
2406.8555113304041
 11
1713.7479455603347
 21
2411.8555113304037
  0
LINE
  8
_0-0_
  6
CONTINUOUS
 62
    7
 10
1708.7479455603415
 20
2416.7550062670088
 11
1713.747945560337
 21
2421.7550062670043
  0
LINE
  8
_0-0_
  6
CONTINUOUS
 62
    7
 10
2128.9902932496861
 20
2404.3688877930535
 11
2128.9902932496861
 21
2401.6288984524508
  0
LINE
  8
_0-0_
  6
CONTINUOUS
 62
    7
 10
2124.0102495003957
 20
2404.1737465551968
 11
2128.9902932496861
 21
2404.1737465551968
  0
LINE
  8
_0-0_
  6
CONTINUOUS
 62
    7
 10
2137.0681762573917
 20
2423.385455286877
 11
2129.068199351775
 21
2423.385455286877
  0
LINE
  8
_0-0_
  6
CONTINUOUS
 62
    7
 10
2137.0681762573917
 20
2373.5123506759182
 11
2127.7212606772609
 21
2358.8845744011082
  0
LINE
  8
_0-0_
  6
CONTINUOUS
 62
    7
 10
2129.068199351775
 20
2373.3474320341315
 11
2119.8266931360867
 21
2358.8845744011082
  0
LINE
  8
_0-0_
  6
CONTINUOUS
 62
    7
 10
2137.0681762573917
 20
2423.385455286877
 11
2137.0681762573917
 21
2373.5123506759182
  0
LINE
  8
_0-0_
  6
CONTINUOUS
 62
    7
 10
2128.9902932496861
 20
2401.6288984524508
 11
2128.9902932496861
 21
2373.3474320341315
  0
LINE
  8
_0-0_
  6
CONTINUOUS
 62
    7
 10
1710.032592873279
 20
2357.4254193867222
 11
1717.9270985544974
 21
2357.4254193867222
  0
LINE
  8
_0-0_
  6
CONTINUOUS
 62
    7
 10
2119.8266931360867
 20
2358.8845744011082
 11
2127.7212606772609
 21
2358.8845744011082
  0
LINE
  8
_0-0_
  6
CONTINUOUS
 62
    7
 10
2462.0726054423566
 20
2140.6435497387037
 11
2644.5275362318843
 21
2140.6435497387037
  0
LINE
  8
_0-0_
  6
CONTINUOUS
 62
    7
 10
2462.0726054423566
 20
2140.6435497387037
 11
2644.5275362318843
 21
2140.6435497387037
  0
LINE
  8
_0-0_
  6
CONTINUOUS
 62
    7
 10
2462.0726054423566
 20
2096.64342931799
 11
2644.5275362318843
 21
2096.64342931799
  0
LINE
  8
_0-0_
  6
CONTINUOUS
 62
    7
 10
2644.5275362318843
 20
2140.6435497387037
 11
2644.5275362318843
 21
2096.64342931799
  0
LINE
  8
_0-0_
  6
CONTINUOUS
 62
    7
 10
4462.0725229624158
 20
2140.6435497387037
 11
4279.6175921728881
 21
2140.6435497387037
  0
LINE
  8
_0-0_
  6
CONTINUOUS
 62
    7
 10
4462.0725229624158
 20
2140.6435497387037
 11
4279.6175921728881
 21
2140.6435497387037
  0
LINE
  8
_0-0_
  6
CONTINUOUS
 62
    7
 10
4462.0725229624158
 20
2096.64342931799
 11
4279.6175921728881
 21
2096.64342931799
  0
LINE
  8
_0-0_
  6
CONTINUOUS
 62
    7
 10
4279.6175921728881
 20
2140.6435497387037
 11
4279.6175921728881
 21
2096.64342931799
  0
LINE
  8
_0-0_
  6
CONTINUOUS
 62
    7
 10
1918.8225576039908
 20
2408.6435183963258
 11
1918.8225576039908
 21
2329.9252401815879
  0
ENDSEC
  0
EOF
