  0
SECTION
  2
HEADER
  9
$ACADVER
  1
AC1009
  9
$INSBASE
 10
0
 20
0
 30
0
  9
$EXTMIN
 10
0
 20
0
  9
$EXTMAX
 10
21000
 20
14850
  9
$LIMMIN
 10
0
 20
0
  9
$LIMMAX
 10
21000
 20
14850
  9
$LTSCALE
 40
50
  0
ENDSEC
  0
SECTION
  2
TABLES
  0
TABLE
  2
LTYPE
 70
     9
  0
LTYPE
  2
CONTINUOUS
 70
    64
  3
実線
 72
    65
 73
     0
 40
0.0
  0
LTYPE
  2
DASHED1
 70
    64
  3
--  --  --  --  --  --  --  --  
 72
    65
 73
     2
 40
2.5
 49
1.25
 49
-1.25
  0
LTYPE
  2
DASHED2
 70
    64
  3
----    ----    ----    ----    
 72
    65
 73
     2
 40
5.0
 49
2.5
 49
-2.5
  0
LTYPE
  2
DASHED3
 70
    64
  3
------  ------  ------  ------  
 72
    65
 73
     2
 40
5.0
 49
3.75
 49
-1.25
  0
LTYPE
  2
CENTER1
 70
    64
  3
----- - ----- - ----- - ----- - 
 72
    65
 73
     4
 40
10.0
 49
6.25
 49
-1.25
 49
1.25
 49
-1.25
  0
LTYPE
  2
CENTER2
 70
    64
  3
----------  --  ----------  --  
 72
    65
 73
     4
 40
20.0
 49
12.5
 49
-2.5
 49
2.5
 49
-2.5
  0
LTYPE
  2
PHANTOM1
 70
    64
  3
--- - - --- - - --- - - --- - - 
 72
    65
 73
     6
 40
10.0
 49
3.25
 49
-1.25
 49
1.25
 49
-1.25
 49
1.25
 49
-1.25
  0
LTYPE
  2
PHANTOM2
 70
    64
  3
--------  -  -  --------  -  -  
 72
    65
 73
     6
 40
20.0
 49
10.0
 49
-2.5
 49
1.25
 49
-2.5
 49
1.25
 49
-2.5
  0
LTYPE
  2
DOT
 70
    64
  3
-   -   -   -   -   -   -   -   
 72
    65
 73
     2
 40
2.5
 49
0.625
 49
-1.875
  0
LTYPE
  2
DUMMY
 70
    64
  3
ダミー
 72
    65
 73
     0
 40
0.0
  0
LTYPE
  2
RAND1
 70
    64
  3
ランダム線1
 72
    65
 73
     4
 40
10.0
 49
1.0
 49
-2.0
 49
3.0
 49
-4.0
  0
LTYPE
  2
RAND2
 70
    64
  3
ランダム線2
 72
    65
 73
     4
 40
14.0
 49
2.0
 49
-3.0
 49
4.0
 49
-5.0
  0
LTYPE
  2
RAND3
 70
    64
  3
ランダム線3
 72
    65
 73
     4
 40
18.0
 49
3.0
 49
-4.0
 49
5.0
 49
-6.0
  0
LTYPE
  2
RAND4
 70
    64
  3
ランダム線4
 72
    65
 73
     4
 40
22.0
 49
4.0
 49
-5.0
 49
6.0
 49
-7.0
  0
LTYPE
  2
RAND5
 70
    64
  3
ランダム線5
 72
    65
 73
     4
 40
26.0
 49
5.0
 49
-6.0
 49
7.0
 49
-8.0
  0
LTYPE
  2
LONG1
 70
    64
  3
----------  --  ----------  --  
 72
    65
 73
     4
 40
40.0
 49
32.5
 49
-2.5
 49
2.5
 49
-2.5
  0
LTYPE
  2
LONG2
 70
    64
  3
--------  -  -  --------  -  -  
 72
    65
 73
     6
 40
40.0
 49
30.0
 49
-2.5
 49
1.25
 49
-2.5
 49
1.25
 49
-2.5
  0
LTYPE
  2
LONG3
 70
    64
  3
+++++++++++++++..+++++++++++++++
 72
    65
 73
     2
 40
40.0
 49
37.5
 49
-2.5
  0
LTYPE
  2
LONG4
 70
    64
  3
+++++++++++++++..+++++++++++++++
 72
    65
 73
     2
 40
80.0
 49
75.0
 49
-5.0
  0
LTYPE
  2
LONG5
 70
    64
  3
----------  --  ----------  --  
 72
    65
 73
     4
 40
60.0
 49
37.5
 49
-7.5
 49
7.5
 49
-7.5
  0
LTYPE
  2
dashed
 70
   64
  3
-------   -------------   ------
 72
   65
 73
    2
 40
7.5
 49
6
 49
-1.5
  0
LTYPE
  2
dashed_spaced
 70
   64
  3
----        --------        ----
 72
   65
 73
    2
 40
12
 49
6
 49
-6
  0
LTYPE
  2
long_dashed_dotted
 70
   64
  3
------------- --- --------------
 72
   65
 73
    4
 40
15.25
 49
12
 49
-1.5
 49
0.25
 49
-1.5
  0
LTYPE
  2
long_dashed_double-dotted
 70
   64
  3
----------- --- --- ------------
 72
   65
 73
    6
 40
17
 49
12
 49
-1.5
 49
0.25
 49
-1.5
 49
0.25
 49
-1.5
  0
LTYPE
  2
long_dashed_triplicate-dotted
 70
   64
  3
--------- --- --- --- ----------
 72
   65
 73
    8
 40
18.75
 49
12
 49
-1.5
 49
0.25
 49
-1.5
 49
0.25
 49
-1.5
 49
0.25
 49
-1.5
  0
LTYPE
  2
dotted
 70
   64
  3
   -       -       -       -    
 72
   65
 73
    2
 40
1.75
 49
0.25
 49
-1.5
  0
LTYPE
  2
chain
 70
   64
  3
-------------- -- --------------
 72
   65
 73
    4
 40
18.5
 49
12
 49
-1.5
 49
3.5
 49
-1.5
  0
LTYPE
  2
chain_double_dash
 70
   64
  3
------------ -- -- -------------
 72
   65
 73
    6
 40
23.5
 49
12
 49
-1.5
 49
3.5
 49
-1.5
 49
3.5
 49
-1.5
  0
LTYPE
  2
dashed_dotted
 70
   64
  3
-----------     -     ----------
 72
   65
 73
    4
 40
9.25
 49
6
 49
-1.5
 49
0.25
 49
-1.5
  0
LTYPE
  2
double-dashed_dotted
 70
   64
  3
------   -----------   -   -----
 72
   65
 73
    6
 40
16.75
 49
6
 49
-1.5
 49
6
 49
-1.5
 49
0.25
 49
-1.5
  0
LTYPE
  2
dashed_double-dotted
 70
   64
  3
---------    -    -    ---------
 72
   65
 73
    6
 40
11
 49
6
 49
-1.5
 49
0.25
 49
-1.5
 49
0.25
 49
-1.5
  0
LTYPE
  2
double-dashed_double-dotted
 70
   64
  3
-----   ---------   -   -   ----
 72
   65
 73
    8
 40
18.5
 49
6
 49
-1.5
 49
6
 49
-1.5
 49
0.25
 49
-1.5
 49
0.25
 49
-1.5
  0
LTYPE
  2
dashed_triplicate-dotted
 70
   64
  3
-------    -    -    -    ------
 72
   65
 73
    8
 40
12.75
 49
6
 49
-1.5
 49
0.25
 49
-1.5
 49
0.25
 49
-1.5
 49
0.25
 49
-1.5
  0
LTYPE
  2
double-dashed_triplicate-dotted
 70
   64
  3
-----  ---------  -  -  -  -----
 72
   65
 73
   10
 40
20.25
 49
6
 49
-1.5
 49
6
 49
-1.5
 49
0.25
 49
-1.5
 49
0.25
 49
-1.5
 49
0.25
 49
-1.5
  0
LTYPE
  2
undefined
 70
   64
  3
--------------------------------
 72
   65
 73
    0
 40
0
  0
LTYPE
  2
_
 70
   64
  3
                                
 72
   65
 73
    0
 40
0
  0
LTYPE
  2
__18
 70
   64
  3
                                
 72
   65
 73
    0
 40
0
  0
LTYPE
  2
__19
 70
   64
  3
                                
 72
   65
 73
    0
 40
0
  0
LTYPE
  2
__20
 70
   64
  3
                                
 72
   65
 73
    0
 40
0
  0
LTYPE
  2
__21
 70
   64
  3
                                
 72
   65
 73
    0
 40
0
  0
LTYPE
  2
__22
 70
   64
  3
                                
 72
   65
 73
    0
 40
0
  0
LTYPE
  2
__23
 70
   64
  3
                                
 72
   65
 73
    0
 40
0
  0
LTYPE
  2
__24
 70
   64
  3
                                
 72
   65
 73
    0
 40
0
  0
LTYPE
  2
__25
 70
   64
  3
                                
 72
   65
 73
    0
 40
0
  0
LTYPE
  2
__26
 70
   64
  3
                                
 72
   65
 73
    0
 40
0
  0
LTYPE
  2
__27
 70
   64
  3
                                
 72
   65
 73
    0
 40
0
  0
LTYPE
  2
__28
 70
   64
  3
                                
 72
   65
 73
    0
 40
0
  0
LTYPE
  2
__29
 70
   64
  3
                                
 72
   65
 73
    0
 40
0
  0
LTYPE
  2
__30
 70
   64
  3
                                
 72
   65
 73
    0
 40
0
  0
LTYPE
  2
__31
 70
   64
  3
                                
 72
   65
 73
    0
 40
0
  0
LTYPE
  2
__32
 70
   64
  3
                                
 72
   65
 73
    0
 40
0
  0
ENDTAB
  0
TABLE
  2
STYLE
  5
3
100
AcDbSymbolTable
 70
     1
  0
STYLE
  5
10
100
AcDbSymbolTableRecord
100
AcDbTextStyleTableRecord
  2
STANDARD
 70
     0
 40
0.0
 41
1.0
 50
0.0
 71
     0
 42
0.2
  3
txt
  4
bigfont.shx
  0
STYLE
  5
26
100
AcDbSymbolTableRecord
100
AcDbTextStyleTableRecord
  2
TATEGAKI
 70
    68
 40
0.0
 41
1.0
 50
0.0
 71
     0
 42
1.0
  3
txt
  4
bigfont.shx
  0
ENDTAB
  0
TABLE
  2
LAYER
 70
    2
  0
LAYER
  2
_0-0_
 70
   64
 62
    7
  6
CONTINUOUS
  0
LAYER
  2
ADD_LINE
 70
   64
 62
    7
  6
CONTINUOUS
  0
ENDTAB
  0
ENDSEC
  0
SECTION
  2
BLOCKS
  0
ENDSEC
  0
SECTION
  2
ENTITIES
  0
LINE
  8
_0-0_
  6
CONTINUOUS
 62
    7
 10
8539.0593980217563
 20
1935.8132175515081
 11
8539.0593980217563
 21
-2164.1867824486353
  0
LINE
  8
_0-0_
  6
CONTINUOUS
 62
    7
 10
3939.0593980217618
 20
1935.8132175515081
 11
3939.0593980208805
 21
-2164.1867824486353
  0
LINE
  8
_0-0_
  6
CONTINUOUS
 62
    7
 10
29711.894409937292
 20
-1141.7072910665269
 11
29741.8944099373
 21
-1171.7072910664498
  0
LINE
  8
_0-0_
  6
CONTINUOUS
 62
    7
 10
29711.894409937292
 20
-1601.7072910665206
 11
29741.8944099373
 21
-1571.7072910663773
  0
LINE
  8
_0-0_
  6
CONTINUOUS
 62
    7
 10
29741.8944099373
 20
-1571.7072910665265
 11
29741.8944099373
 21
-1171.7072910666702
  0
LINE
  8
_0-0_
  6
CONTINUOUS
 62
    7
 10
29711.894409937292
 20
-1601.7072910665206
 11
29711.894409937292
 21
-1141.7072910665269
  0
LINE
  8
_0-0_
  6
CONTINUOUS
 62
    7
 10
31291.894409937292
 20
-1141.7072910664487
 11
29711.894409937292
 21
-1141.7072910665269
  0
LINE
  8
_0-0_
  6
CONTINUOUS
 62
    7
 10
31291.894409937292
 20
-1171.7072910664498
 11
29741.8944099373
 21
-1171.7072910666702
  0
LINE
  8
_0-0_
  6
CONTINUOUS
 62
    7
 10
31291.894409937292
 20
-1571.7072910665265
 11
29741.8944099373
 21
-1571.7072910665265
  0
LINE
  8
_0-0_
  6
CONTINUOUS
 62
    7
 10
31291.894409937292
 20
-1601.7072910663785
 11
29711.894409937292
 21
-1601.7072910665206
  0
LINE
  8
_0-0_
  6
CONTINUOUS
 62
    7
 10
11291.894409938175
 20
-1601.7072910663785
 11
12871.894409938158
 21
-1601.7072910665206
  0
LINE
  8
_0-0_
  6
CONTINUOUS
 62
    7
 10
11291.894409938175
 20
-1571.7072910665265
 11
12841.894409937305
 21
-1571.7072910665265
  0
LINE
  8
_0-0_
  6
CONTINUOUS
 62
    7
 10
11291.894409938175
 20
-1171.7072910664498
 11
12841.894409938156
 21
-1171.7072910666702
  0
LINE
  8
_0-0_
  6
CONTINUOUS
 62
    7
 10
11291.894409938175
 20
-1141.7072910664487
 11
12871.894409938158
 21
-1141.7072910665269
  0
LINE
  8
_0-0_
  6
CONTINUOUS
 62
    7
 10
12871.894409938158
 20
-1601.7072910665206
 11
12871.894409938158
 21
-1141.7072910665269
  0
LINE
  8
_0-0_
  6
CONTINUOUS
 62
    7
 10
12841.894409937305
 20
-1571.7072910665265
 11
12841.894409938156
 21
-1171.7072910666702
  0
LINE
  8
_0-0_
  6
CONTINUOUS
 62
    7
 10
12871.894409938158
 20
-1601.7072910665206
 11
12841.894409938156
 21
-1571.7072910663773
  0
LINE
  8
_0-0_
  6
CONTINUOUS
 62
    7
 10
12871.894409938158
 20
-1141.7072910665269
 11
12841.894409938156
 21
-1171.7072910664498
  0
LINE
  8
_0-0_
  6
CONTINUOUS
 62
    7
 10
11291.894409938175
 20
-2171.707291066521
 11
31291.894409938173
 21
-2171.707291066521
  0
LINE
  8
_0-0_
  6
CONTINUOUS
 62
    7
 10
31091.894409938173
 20
-2371.7072910665237
 11
31291.894409938173
 21
-2171.707291066521
  0
LINE
  8
_0-0_
  6
CONTINUOUS
 62
    7
 10
11491.894409938162
 20
-2371.7072910665237
 11
11291.894409938175
 21
-2171.707291066521
  0
LINE
  8
_0-0_
  6
CONTINUOUS
 62
    7
 10
11491.894409938162
 20
-2371.7072910665237
 11
31091.894409938173
 21
-2371.7072910665237
  0
LINE
  8
_0-0_
  6
CONTINUOUS
 62
    7
 10
11291.894409938175
 20
1328.2927089334791
 11
31291.894409938173
 21
1328.2927089334791
  0
LINE
  8
_0-0_
  6
CONTINUOUS
 62
    7
 10
11291.894409938175
 20
-1471.7072910665251
 11
31291.894409938173
 21
-1471.7072910665251
  0
LINE
  8
_0-0_
  6
CONTINUOUS
 62
    7
 10
11291.894409938175
 20
1328.2927089334791
 11
11391.894409938169
 21
1328.2927089334791
  0
LINE
  8
_0-0_
  6
CONTINUOUS
 62
    7
 10
11291.894409938175
 20
168.29270893354646
 11
11291.894409938175
 21
-511.7072910665243
  0
LINE
  8
_0-0_
  6
CONTINUOUS
 62
    7
 10
31291.894409938173
 20
168.29270893354646
 11
31291.894409938173
 21
-511.7072910665243
  0
LINE
  8
_0-0_
  6
CONTINUOUS
 62
    7
 10
31291.894409938173
 20
1328.2927089334791
 11
31291.894409938173
 21
-2171.707291066521
  0
LINE
  8
_0-0_
  6
CONTINUOUS
 62
    3
 10
11291.894409938175
 20
3009.5342002646148
 11
31291.894409938173
 21
3009.5342002646148
  0
POINT
  8
_0-0_
 62
    3
 10
11291.894409938175
 20
3009.5342002646148
  0
POINT
  8
_0-0_
 62
    3
 10
31291.894409938173
 20
3009.5342002646148
  0
LINE
  8
_0-0_
  6
CONTINUOUS
 62
    4
 10
11291.894409938175
 20
3009.5342002646148
 11
11291.894409938175
 21
2110.908017893817
  0
LINE
  8
_0-0_
  6
CONTINUOUS
 62
    4
 10
31291.894409938173
 20
3009.5342002646148
 11
31291.894409938173
 21
2110.908017893817
  0
LINE
  8
_0-0_
  6
CONTINUOUS
 62
    7
 10
11291.894409938175
 20
1928.2927089334805
 11
31291.894409938173
 21
1928.2927089334805
  0
LINE
  8
_0-0_
  6
CONTINUOUS
 62
    7
 10
11291.894409938175
 20
1928.2927089334805
 11
11291.894409938175
 21
1328.2927089334791
  0
LINE
  8
_0-0_
  6
CONTINUOUS
 62
    7
 10
31291.894409938173
 20
1928.2927089334805
 11
31291.894409938173
 21
1328.2927089334791
  0
LINE
  8
_0-0_
  6
CONTINUOUS
 62
    7
 10
4740.6382379308024
 20
1125.8132175515129
 11
4760.273310048753
 21
1135.8132175515108
  0
LINE
  8
_0-0_
  6
CONTINUOUS
 62
    7
 10
4620.1726328127178
 20
1135.8132175512905
 11
4640.5663256186717
 21
1125.8132175515129
  0
LINE
  8
_0-0_
  6
CONTINUOUS
 62
    7
 10
7689.8606421847616
 20
398.03097161569951
 11
7637.1407710667326
 21
-991.85653965902247
  0
LINE
  8
_0-0_
  6
CONTINUOUS
 62
    7
 10
7829.9127302519264
 20
396.74998442900317
 11
7777.040166177876
 21
-997.16306843922529
  0
ARC
  8
_0-0_
  6
CONTINUOUS
 62
    7
 10
6907.6653537049214
 20
-964.1867824487108
 40
800
 50
270
 51
357.82775319506112
  0
ARC
  8
_0-0_
  6
CONTINUOUS
 62
    7
 10
6907.6653537049214
 20
-964.1867824487108
 40
750
 50
270
 51
357.82775319506112
  0
ARC
  8
_0-0_
  6
CONTINUOUS
 62
    7
 10
6907.6653537049214
 20
-964.1867824487108
 40
850
 50
270
 51
357.82775319506112
  0
ARC
  8
_0-0_
  6
CONTINUOUS
 62
    7
 10
6907.6653537049214
 20
-964.1867824487108
 40
730.00000000000011
 50
270
 51
357.82775319506112
  0
ARC
  8
_0-0_
  6
CONTINUOUS
 62
    7
 10
6907.6653537049214
 20
-964.1867824487108
 40
870.00000000000011
 50
270
 51
357.82775319506112
  0
LINE
  8
_0-0_
  6
CONTINUOUS
 62
    7
 10
6908.3165620878116
 20
-1834.186782448708
 11
6239.0593980229095
 21
-1834.1867824488504
  0
LINE
  8
_0-0_
  6
CONTINUOUS
 62
    7
 10
6908.3165620878116
 20
-1694.1867824484872
 11
6239.0593980229095
 21
-1694.1867824488497
  0
LINE
  8
_0-0_
  6
CONTINUOUS
 62
    7
 10
6908.3165620878116
 20
-1814.1867824484918
 11
6239.0593980229095
 21
-1814.1867824488542
  0
LINE
  8
_0-0_
  6
CONTINUOUS
 62
    7
 10
6908.3165620878116
 20
-1714.1867824487108
 11
6239.0593980229095
 21
-1714.1867824488529
  0
LINE
  8
_0-0_
  6
CONTINUOUS
 62
    7
 10
6908.3165620878116
 20
-1764.1867824488499
 11
6239.0593980229095
 21
-1764.1867824488499
  0
LINE
  8
_0-0_
  6
CONTINUOUS
 62
    7
 10
4620.1726328127178
 20
1135.8132175512905
 11
4701.0786298667781
 21
-997.16306843922529
  0
LINE
  8
_0-0_
  6
CONTINUOUS
 62
    7
 10
4760.273310048753
 20
1135.8132175515108
 11
4840.9780249779214
 21
-991.85653965902247
  0
ARC
  8
_0-0_
  6
CONTINUOUS
 62
    7
 10
5570.4534423409268
 20
-964.1867824487108
 40
870.00000000000011
 50
182.1722468049389
 51
270
  0
ARC
  8
_0-0_
  6
CONTINUOUS
 62
    7
 10
5570.4534423409268
 20
-964.1867824487108
 40
730.00000000000011
 50
182.1722468049389
 51
270
  0
LINE
  8
_0-0_
  6
CONTINUOUS
 62
    7
 10
4640.5663256186717
 20
1125.8132175515129
 11
4721.0642577399039
 21
-996.40499289922672
  0
LINE
  8
_0-0_
  6
CONTINUOUS
 62
    7
 10
4740.6382379308024
 20
1125.8132175515838
 11
4820.9923971048237
 21
-992.61461519909198
  0
ARC
  8
_0-0_
  6
CONTINUOUS
 62
    7
 10
5570.4534423409268
 20
-964.1867824487108
 40
850
 50
182.1722468049389
 51
270
  0
ARC
  8
_0-0_
  6
CONTINUOUS
 62
    7
 10
5570.4534423409268
 20
-964.1867824487108
 40
750
 50
182.1722468049389
 51
270
  0
LINE
  8
_0-0_
  6
CONTINUOUS
 62
    7
 10
4690.2229714308778
 20
1135.8132175515108
 11
4771.0283274229323
 21
-994.50980404919846
  0
ARC
  8
_0-0_
  6
CONTINUOUS
 62
    7
 10
5570.4534423409268
 20
-964.1867824487108
 40
800
 50
182.1722468049389
 51
270
  0
LINE
  8
_0-0_
  6
CONTINUOUS
 62
    7
 10
7499.0593980229004
 20
1335.8132175515138
 11
7407.3060505278153
 21
-983.13867094901468
  0
ARC
  8
_0-0_
  6
CONTINUOUS
 62
    7
 10
6907.6653537037554
 20
-964.1867824487108
 40
500
 50
270
 51
357.82775319506112
  0
LINE
  8
_0-0_
  6
CONTINUOUS
 62
    7
 10
6907.6653537037554
 20
-1464.1867824487108
 11
6239.0593980229095
 21
-1464.1867824484904
  0
LINE
  8
_0-0_
  6
CONTINUOUS
 62
    7
 10
5570.4534423409268
 20
-1464.1867824487108
 11
6239.0593980217445
 21
-1464.1867824484904
  0
ARC
  8
_0-0_
  6
CONTINUOUS
 62
    7
 10
5570.4534423409268
 20
-964.1867824487108
 40
500
 50
182.1722468049389
 51
270
  0
LINE
  8
_0-0_
  6
CONTINUOUS
 62
    7
 10
4979.0593980217536
 20
1335.8132175515138
 11
5070.8127455168678
 21
-983.13867094901468
  0
LINE
  8
_0-0_
  6
CONTINUOUS
 62
    7
 10
4439.0593980217618
 20
1935.8132175515081
 11
4439.0593980217618
 21
1335.8132175515138
  0
LINE
  8
_0-0_
  6
CONTINUOUS
 62
    7
 10
4439.0593980217618
 20
1935.8132175515081
 11
3939.0593980217618
 21
1935.8132175515081
  0
LINE
  8
_0-0_
  6
CONTINUOUS
 62
    7
 10
4409.0593980208795
 20
1920.8132175515074
 11
3969.0593980208818
 21
1920.8132175515074
  0
LINE
  8
_0-0_
  6
CONTINUOUS
 62
    7
 10
4439.0593980217618
 20
1335.8132175515138
 11
4979.0593980217536
 21
1335.8132175515138
  0
LINE
  8
_0-0_
  6
CONTINUOUS
 62
    7
 10
4439.0593980208805
 20
1905.813217551514
 11
4439.0593980217618
 21
1335.8132175515138
  0
LINE
  8
_0-0_
  6
CONTINUOUS
 62
    7
 10
4407.0593980219218
 20
1888.8132175514683
 11
3971.0593980206922
 21
1888.8132175514683
  0
LINE
  8
_0-0_
  6
CONTINUOUS
 62
    7
 10
4407.0593980219218
 20
1888.8132175514683
 11
4407.0593980219218
 21
1333.8132175516107
  0
LINE
  8
_0-0_
  6
CONTINUOUS
 62
    7
 10
4437.0593980219227
 20
1303.8132175514674
 11
4979.0593980217536
 21
1303.8132175514674
  0
LINE
  8
_0-0_
  6
CONTINUOUS
 62
    7
 10
3939.0593980208805
 20
1890.8132175515133
 11
3939.0593980217618
 21
1670.8132175515074
  0
LINE
  8
_0-0_
  6
CONTINUOUS
 62
    7
 10
3939.0593980217618
 20
1670.8132175515074
 11
3971.0593980218577
 21
1670.8132175515074
  0
LINE
  8
_0-0_
  6
CONTINUOUS
 62
    7
 10
3971.0593980218577
 20
1670.8132175515074
 11
3971.0593980206922
 21
1888.8132175514683
  0
LINE
  8
_0-0_
  6
CONTINUOUS
 62
    7
 10
4979.0593980217536
 20
1335.8132175515138
 11
4979.0593980217536
 21
1303.8132175514674
  0
ARC
  8
_0-0_
  6
CONTINUOUS
 62
    7
 10
3969.0593980208818
 20
1890.8132175515133
 40
30.000000000000003
 50
90
 51
180
  0
ARC
  8
_0-0_
  6
CONTINUOUS
 62
    7
 10
4409.0593980208795
 20
1890.8132175515133
 40
30.000000000000003
 50
0
 51
90
  0
ARC
  8
_0-0_
  6
CONTINUOUS
 62
    7
 10
4437.0593980219227
 20
1333.8132175516107
 40
30.000000000000003
 50
180
 51
270
  0
ARC
  8
_0-0_
  6
CONTINUOUS
 62
    7
 10
4031.6540084848852
 20
1920.8132175515074
 40
15.000000000000001
 50
90
 51
180
  0
ARC
  8
_0-0_
  6
CONTINUOUS
 62
    7
 10
4066.1828493667044
 20
1920.8132175515074
 40
15.000000000000001
 50
0
 51
90
  0
LINE
  8
_0-0_
  6
CONTINUOUS
 62
    7
 10
4031.6540084848852
 20
1935.8132175515081
 11
4066.1828493667044
 21
1935.8132175515081
  0
LINE
  8
_0-0_
  6
CONTINUOUS
 62
    7
 10
4336.4647875597838
 20
1935.8132175515081
 11
4301.9359466759187
 21
1935.8132175515081
  0
ARC
  8
_0-0_
  6
CONTINUOUS
 62
    7
 10
4301.9359466759187
 20
1920.8132175515074
 40
15.000000000000001
 50
90
 51
180
  0
ARC
  8
_0-0_
  6
CONTINUOUS
 62
    7
 10
4336.4647875597838
 20
1920.8132175515074
 40
15.000000000000001
 50
0
 51
90
  0
ARC
  8
_0-0_
  6
CONTINUOUS
 62
    7
 10
4244.0593980217399
 20
1920.8132175515074
 40
15.000000000000001
 50
0
 51
90
  0
ARC
  8
_0-0_
  6
CONTINUOUS
 62
    7
 10
4124.0593980217354
 20
1920.8132175515074
 40
15.000000000000001
 50
90
 51
180
  0
LINE
  8
_0-0_
  6
CONTINUOUS
 62
    7
 10
4244.0593980217399
 20
1935.8132175515081
 11
4124.0593980217354
 21
1935.8132175515081
  0
LINE
  8
_0-0_
  6
CONTINUOUS
 62
    7
 10
5569.8022339577237
 20
-1764.1867824488499
 11
6239.0593980217445
 21
-1764.1867824488499
  0
LINE
  8
_0-0_
  6
CONTINUOUS
 62
    7
 10
5569.8022339577237
 20
-1714.1867824487108
 11
6239.0593980217445
 21
-1714.1867824488529
  0
LINE
  8
_0-0_
  6
CONTINUOUS
 62
    7
 10
5569.8022339568424
 20
-1814.1867824484918
 11
6239.0593980217445
 21
-1814.1867824488542
  0
LINE
  8
_0-0_
  6
CONTINUOUS
 62
    7
 10
5569.8022339568424
 20
-1694.1867824484872
 11
6239.0593980217445
 21
-1694.1867824488497
  0
LINE
  8
_0-0_
  6
CONTINUOUS
 62
    7
 10
5569.8022339568424
 20
-1834.186782448708
 11
6239.0593980217445
 21
-1834.1867824488504
  0
LINE
  8
_0-0_
  6
CONTINUOUS
 62
    7
 10
4139.0593980208695
 20
-2364.1867824487094
 11
6239.0593980217445
 21
-2364.1867824484888
  0
LINE
  8
_0-0_
  6
CONTINUOUS
 62
    7
 10
4139.0593980208695
 20
-2364.1867824487094
 11
3939.0593980208805
 21
-2164.1867824486353
  0
LINE
  8
_0-0_
  6
CONTINUOUS
 62
    7
 10
3939.0593980208805
 20
-2164.1867824486353
 11
6239.0593980217445
 21
-2164.1867824484152
  0
LINE
  8
_0-0_
  6
CONTINUOUS
 62
    7
 10
8539.0593980217563
 20
-2164.1867824486353
 11
6239.0593980208632
 21
-2164.1867824484152
  0
LINE
  8
_0-0_
  6
CONTINUOUS
 62
    7
 10
8339.0593980217381
 20
-2364.1867824487094
 11
8539.0593980217563
 21
-2164.1867824486353
  0
LINE
  8
_0-0_
  6
CONTINUOUS
 62
    7
 10
8339.0593980217381
 20
-2364.1867824487094
 11
6239.0593980217445
 21
-2364.1867824484888
  0
LINE
  8
_0-0_
  6
CONTINUOUS
 62
    7
 10
8234.059398021749
 20
1935.8132175515081
 11
8354.0593980217545
 21
1935.8132175515081
  0
ARC
  8
_0-0_
  6
CONTINUOUS
 62
    7
 10
8354.0593980217545
 20
1920.8132175515074
 40
15.000000000000001
 50
0
 51
90
  0
ARC
  8
_0-0_
  6
CONTINUOUS
 62
    7
 10
8234.059398021749
 20
1920.8132175515074
 40
15.000000000000001
 50
90
 51
180
  0
ARC
  8
_0-0_
  6
CONTINUOUS
 62
    7
 10
8141.6540084837051
 20
1920.8132175515074
 40
15.000000000000001
 50
90
 51
180
  0
ARC
  8
_0-0_
  6
CONTINUOUS
 62
    7
 10
8176.1828493678831
 20
1920.8132175515074
 40
15.000000000000001
 50
0
 51
90
  0
LINE
  8
_0-0_
  6
CONTINUOUS
 62
    7
 10
8141.6540084837051
 20
1935.8132175515081
 11
8176.1828493678831
 21
1935.8132175515081
  0
LINE
  8
_0-0_
  6
CONTINUOUS
 62
    7
 10
8446.4647875589162
 20
1935.8132175515081
 11
8411.9359466759033
 21
1935.8132175515081
  0
ARC
  8
_0-0_
  6
CONTINUOUS
 62
    7
 10
8411.9359466759033
 20
1920.8132175515074
 40
15.000000000000001
 50
90
 51
180
  0
ARC
  8
_0-0_
  6
CONTINUOUS
 62
    7
 10
8446.4647875589162
 20
1920.8132175515074
 40
15.000000000000001
 50
0
 51
90
  0
ARC
  8
_0-0_
  6
CONTINUOUS
 62
    7
 10
8041.0593980218791
 20
1333.8132175516107
 40
30.000000000000003
 50
270
 51
0
  0
ARC
  8
_0-0_
  6
CONTINUOUS
 62
    7
 10
8069.0593980217572
 20
1890.8132175515133
 40
30.000000000000003
 50
90
 51
180
  0
ARC
  8
_0-0_
  6
CONTINUOUS
 62
    7
 10
8509.0593980217545
 20
1890.8132175515133
 40
30.000000000000003
 50
0
 51
90
  0
LINE
  8
_0-0_
  6
CONTINUOUS
 62
    7
 10
7499.0593980217354
 20
1335.8132175515138
 11
7499.0593980217354
 21
1303.8132175514674
  0
LINE
  8
_0-0_
  6
CONTINUOUS
 62
    7
 10
8507.0593980219164
 20
1670.8132175515074
 11
8507.0593980219164
 21
1888.8132175514683
  0
LINE
  8
_0-0_
  6
CONTINUOUS
 62
    7
 10
8539.0593980217563
 20
1670.8132175515074
 11
8507.0593980219164
 21
1670.8132175515074
  0
LINE
  8
_0-0_
  6
CONTINUOUS
 62
    7
 10
8539.0593980217563
 20
1890.8132175515133
 11
8539.0593980217563
 21
1670.8132175515074
  0
LINE
  8
_0-0_
  6
CONTINUOUS
 62
    7
 10
8041.0593980218791
 20
1303.8132175514674
 11
7499.0593980217354
 21
1303.8132175514674
  0
LINE
  8
_0-0_
  6
CONTINUOUS
 62
    7
 10
8071.0593980218518
 20
1888.8132175514683
 11
8071.0593980218518
 21
1333.8132175516107
  0
LINE
  8
_0-0_
  6
CONTINUOUS
 62
    7
 10
8071.0593980218518
 20
1888.8132175514683
 11
8507.0593980219164
 21
1888.8132175514683
  0
LINE
  8
_0-0_
  6
CONTINUOUS
 62
    7
 10
8039.0593980217563
 20
1905.813217551514
 11
8039.0593980217563
 21
1335.8132175515138
  0
LINE
  8
_0-0_
  6
CONTINUOUS
 62
    7
 10
8039.0593980217563
 20
1335.8132175515138
 11
7499.0593980217354
 21
1335.8132175515138
  0
LINE
  8
_0-0_
  6
CONTINUOUS
 62
    7
 10
8069.0593980217572
 20
1920.8132175515074
 11
8509.0593980217545
 21
1920.8132175515074
  0
LINE
  8
_0-0_
  6
CONTINUOUS
 62
    7
 10
8039.0593980217563
 20
1935.8132175515081
 11
8539.0593980217563
 21
1935.8132175515081
  0
LINE
  8
_0-0_
  6
CONTINUOUS
 62
    7
 10
8039.0593980217563
 20
1335.8132175515138
 11
7499.0593980217354
 21
1335.8132175515138
  0
LINE
  8
_0-0_
  6
CONTINUOUS
 62
    7
 10
8039.0593980217563
 20
1935.8132175515081
 11
8039.0593980217563
 21
1335.8132175515138
  0
LINE
  8
_0-0_
  6
CONTINUOUS
 62
    3
 10
3939.0593980217618
 20
3677.8425336848345
 11
8539.0593980217563
 21
3677.8425336848345
  0
POINT
  8
_0-0_
 62
    3
 10
3939.0593980217618
 20
3677.8425336848345
  0
POINT
  8
_0-0_
 62
    3
 10
8539.0593980217563
 20
3677.8425336848345
  0
LINE
  8
_0-0_
  6
CONTINUOUS
 62
    3
 10
3939.0593980217618
 20
3154.6330760785776
 11
4439.0593980217618
 21
3154.6330760785776
  0
POINT
  8
_0-0_
 62
    3
 10
3939.0593980217618
 20
3154.6330760785776
  0
POINT
  8
_0-0_
 62
    3
 10
4439.0593980217618
 20
3154.6330760785776
  0
LINE
  8
_0-0_
  6
CONTINUOUS
 62
    4
 10
3939.0593980217618
 20
3154.6330760785776
 11
3939.0593980217618
 21
2514.0518324735653
  0
LINE
  8
_0-0_
  6
CONTINUOUS
 62
    4
 10
4439.0593980217618
 20
3154.6330760785776
 11
4439.0593980217618
 21
2514.0518324735653
  0
LINE
  8
_0-0_
  6
CONTINUOUS
 62
    3
 10
4439.0593980217618
 20
3154.6330760785776
 11
8039.0593980217563
 21
3154.6330760785776
  0
POINT
  8
_0-0_
 62
    3
 10
8039.0593980217563
 20
3154.6330760785776
  0
LINE
  8
_0-0_
  6
CONTINUOUS
 62
    4
 10
8039.0593980217563
 20
3154.6330760785776
 11
8039.0593980217563
 21
2514.0518324735653
  0
LINE
  8
_0-0_
  6
CONTINUOUS
 62
    3
 10
8039.0593980217563
 20
3154.6330760785776
 11
8539.0593980217563
 21
3154.6330760785776
  0
POINT
  8
_0-0_
 62
    3
 10
8539.0593980217563
 20
3154.6330760785776
  0
LINE
  8
_0-0_
  6
CONTINUOUS
 62
    4
 10
8539.0593980217563
 20
3154.6330760785776
 11
8539.0593980217563
 21
2514.0518324735653
  0
LINE
  8
_0-0_
  6
CONTINUOUS
 62
    3
 10
4439.0593980217618
 20
2550.9027951740349
 11
4979.0593980217536
 21
2550.9027951740349
  0
POINT
  8
_0-0_
 62
    3
 10
4439.0593980217618
 20
2550.9027951740349
  0
POINT
  8
_0-0_
 62
    3
 10
4979.0593980217536
 20
2550.9027951740349
  0
LINE
  8
_0-0_
  6
CONTINUOUS
 62
    4
 10
4439.0593980217618
 20
2550.9027951740349
 11
4439.0593980217618
 21
2196.5393694257099
  0
LINE
  8
_0-0_
  6
CONTINUOUS
 62
    4
 10
4979.0593980217536
 20
2550.9027951740349
 11
4979.0593980217536
 21
2196.5393694257099
  0
LINE
  8
_0-0_
  6
CONTINUOUS
 62
    3
 10
4979.0593980217536
 20
2550.9027951740349
 11
7499.0593980217354
 21
2550.9027951740349
  0
POINT
  8
_0-0_
 62
    3
 10
7499.0593980217354
 20
2550.9027951740349
  0
LINE
  8
_0-0_
  6
CONTINUOUS
 62
    4
 10
7499.0593980217354
 20
2550.9027951740349
 11
7499.0593980217354
 21
2196.5393694257099
  0
LINE
  8
_0-0_
  6
CONTINUOUS
 62
    3
 10
7499.0593980217354
 20
2550.9027951740349
 11
8039.0593980217563
 21
2550.9027951740349
  0
POINT
  8
_0-0_
 62
    3
 10
8039.0593980217563
 20
2550.9027951740349
  0
LINE
  8
_0-0_
  6
CONTINUOUS
 62
    4
 10
8039.0593980217563
 20
2550.9027951740349
 11
8039.0593980217563
 21
2196.5393694257099
  0
LINE
  8
_0-0_
  6
CONTINUOUS
 62
    3
 10
2387.780607126338
 20
1935.8132175515081
 11
2387.780607126338
 21
-2364.1867824487094
  0
POINT
  8
_0-0_
 62
    3
 10
2387.780607126338
 20
1935.8132175515081
  0
POINT
  8
_0-0_
 62
    3
 10
2387.780607126338
 20
-2364.1867824487094
  0
LINE
  8
_0-0_
  6
CONTINUOUS
 62
    4
 10
2387.780607126338
 20
1935.8132175515081
 11
3432.6148552475287
 21
1935.8132175515081
  0
LINE
  8
_0-0_
  6
CONTINUOUS
 62
    4
 10
2387.780607126338
 20
-2364.1867824487094
 11
3432.6148552475287
 21
-2364.1867824487094
  0
LINE
  8
_0-0_
  6
CONTINUOUS
 62
    3
 10
3060.4150214154019
 20
1935.8132175515081
 11
3060.4150214154019
 21
1335.8132175515138
  0
POINT
  8
_0-0_
 62
    3
 10
3060.4150214154019
 20
1935.8132175515081
  0
POINT
  8
_0-0_
 62
    3
 10
3060.4150214154019
 20
1335.8132175515138
  0
LINE
  8
_0-0_
  6
CONTINUOUS
 62
    4
 10
3060.4150214154019
 20
1935.8132175515081
 11
3461.963539139454
 21
1935.8132175515081
  0
LINE
  8
_0-0_
  6
CONTINUOUS
 62
    4
 10
3060.4150214154019
 20
1335.8132175515138
 11
3461.963539139454
 21
1335.8132175515138
  0
LINE
  8
_0-0_
  6
CONTINUOUS
 62
    3
 10
3060.4150214154019
 20
1335.8132175515138
 11
3060.4150214154019
 21
-1464.1867824487108
  0
POINT
  8
_0-0_
 62
    3
 10
3060.4150214154019
 20
-1464.1867824487108
  0
LINE
  8
_0-0_
  6
CONTINUOUS
 62
    4
 10
3060.4150214154019
 20
-1464.1867824487108
 11
3461.963539139454
 21
-1464.1867824487108
  0
LINE
  8
_0-0_
  6
CONTINUOUS
 62
    3
 10
3060.4150214154019
 20
-1464.1867824487108
 11
3060.4150214154019
 21
-2364.1867824487094
  0
POINT
  8
_0-0_
 62
    3
 10
3060.4150214154019
 20
-2364.1867824487094
  0
LINE
  8
_0-0_
  6
CONTINUOUS
 62
    4
 10
3060.4150214154019
 20
-2364.1867824487094
 11
3461.963539139454
 21
-2364.1867824487094
  0
LINE
  8
_0-0_
  6
CONTINUOUS
 62
    3
 10
3939.0593980208805
 20
-3628.2432598197515
 11
8539.0593980217563
 21
-3628.2432598197515
  0
POINT
  8
_0-0_
 62
    3
 10
3939.0593980208805
 20
-3628.2432598197515
  0
POINT
  8
_0-0_
 62
    3
 10
8539.0593980217563
 20
-3628.2432598197515
  0
LINE
  8
_0-0_
  6
CONTINUOUS
 62
    4
 10
3939.0593980208805
 20
-3628.2432598197515
 11
3939.0593980208805
 21
-3088.5878704201318
  0
LINE
  8
_0-0_
  6
CONTINUOUS
 62
    4
 10
8539.0593980217563
 20
-3628.2432598197515
 11
8539.0593980217563
 21
-3088.5878704201318
  0
LINE
  8
_0-0_
  6
CONTINUOUS
 62
    7
 10
5277.1486010539165
 20
-1275.5634003948985
 11
5889.9740397877803
 21
-590.16652812674828
  0
LINE
  8
_0-0_
  6
CONTINUOUS
 62
    7
 10
5277.1486010539165
 20
-1275.5634003948985
 11
5399.0594407248763
 21
-1034.2257761967246
  0
LINE
  8
_0-0_
  6
CONTINUOUS
 62
    7
 10
5277.1486010539165
 20
-1275.5634003948985
 11
5454.8249983573168
 21
-1159.2972625356424
  0
LINE
  8
_0-0_
  6
CONTINUOUS
 62
    7
 10
7721.146051657236
 20
1135.8132175515108
 11
7689.8606421847616
 21
398.03097161569951
  0
LINE
  8
_0-0_
  6
CONTINUOUS
 62
    7
 10
7721.146051657236
 20
1135.8132175515108
 11
7861.1460516572224
 21
1135.8132175515108
  0
LINE
  8
_0-0_
  6
CONTINUOUS
 62
    7
 10
7861.1460516572224
 20
1135.8132175515108
 11
7829.9127302519264
 21
396.74998442900317
  0
LINE
  8
_0-0_
  6
CONTINUOUS
 62
    7
 10
7787.8958246132087
 20
1135.8132175515108
 11
7707.0904686228868
 21
-994.50980404919846
  0
LINE
  8
_0-0_
  6
CONTINUOUS
 62
    4
 10
4676.8665549391598
 20
1125.8132175515129
 11
4660.8487462544662
 21
1125.8132175515129
  0
LINE
  8
_0-0_
  6
CONTINUOUS
 62
    4
 10
4676.8665549391598
 20
1135.8132175515108
 11
4660.8487462544662
 21
1135.8132175515108
  0
LINE
  8
_0-0_
  6
CONTINUOUS
 62
    7
 10
7721.146051657236
 20
1135.8132175515108
 11
7737.4805581133114
 21
1125.8132175515129
  0
LINE
  8
_0-0_
  6
CONTINUOUS
 62
    7
 10
7837.5524704268646
 20
1125.8132175515129
 11
7861.1460516572224
 21
1135.8132175515108
  0
LINE
  8
_0-0_
  6
CONTINUOUS
 62
    7
 10
7737.4805581133114
 20
1125.8132175515129
 11
7837.9924629110246
 21
1125.8132175515129
  0
LINE
  8
_0-0_
  6
CONTINUOUS
 62
    7
 10
7860.7234447677637
 20
1125.8132175515129
 11
7861.1460516572224
 21
1125.8132175515129
  0
LINE
  8
_0-0_
  6
CONTINUOUS
 62
    7
 10
7837.5531025624595
 20
1125.829882944042
 11
7757.0545383047783
 21
-996.40499289922672
  0
LINE
  8
_0-0_
  6
CONTINUOUS
 62
    7
 10
7737.4805581133114
 20
1125.8132175515129
 11
7657.1263989398303
 21
-992.61461519909198
  0
LINE
  8
_0-0_
  6
CONTINUOUS
 62
    7
 10
4640.5663256186717
 20
1125.8132175515129
 11
4740.6382379308024
 21
1125.8132175515129
  0
LINE
  8
_0-0_
  6
CONTINUOUS
 62
    7
 10
4760.273310048753
 20
1135.8132175515108
 11
4620.1726328127178
 21
1135.8132175512905
  0
LINE
  8
_0-0_
  6
CONTINUOUS
 62
    7
 10
3989.059398021091
 20
-1275.9502520799842
 11
3989.0593980210342
 21
-1465.9502520799819
  0
LINE
  8
_0-0_
  6
CONTINUOUS
 62
    7
 10
8489.0593980217454
 20
-1275.9502520799842
 11
8489.0593980217454
 21
-1465.9502520799819
  0
LINE
  8
_0-0_
  6
CONTINUOUS
 62
    7
 10
8039.0593980217563
 20
85.81321755132194
 11
8539.0593980217563
 21
85.813217551272202
  0
LINE
  8
_0-0_
  6
CONTINUOUS
 62
    7
 10
8039.0593980217563
 20
85.81321755132194
 11
8039.0593980217563
 21
-414.18678244867805
  0
LINE
  8
_0-0_
  6
CONTINUOUS
 62
    7
 10
8039.0593980217563
 20
-414.18678244867805
 11
8539.0593980217563
 21
-414.18678244872779
  0
CIRCLE
  8
_0-0_
  6
CONTINUOUS
 62
    7
 10
8296.2739757189829
 20
-170.9921212483934
 40
100
  0
LINE
  8
_0-0_
  6
CONTINUOUS
 62
    7
 10
3939.0593980213639
 20
85.813217551513787
 11
4439.0593980213634
 21
85.813217551513787
  0
LINE
  8
_0-0_
  6
CONTINUOUS
 62
    7
 10
4439.0593980213634
 20
85.813217551513787
 11
4439.0593980213634
 21
-414.18678244848621
  0
LINE
  8
_0-0_
  6
CONTINUOUS
 62
    7
 10
4439.0593980212497
 20
-414.18678244848621
 11
3939.0593980212502
 21
-414.18678244848621
  0
CIRCLE
  8
_0-0_
  6
CONTINUOUS
 62
    7
 10
4192.3074603972527
 20
-195.5152670750138
 40
100
  0
LINE
  8
_0-0_
  6
CONTINUOUS
 62
    7
 10
4439.0593980217618
 20
1935.8132175515081
 11
8039.0593980217563
 21
1935.8132175515081
  0
LINE
  8
_0-0_
  6
CONTINUOUS
 62
    7
 10
4439.0593980208805
 20
1905.813217551514
 11
8069.0593980217572
 21
1920.8132175515074
  0
LINE
  8
_0-0_
  6
CONTINUOUS
 62
    7
 10
4979.0593980217536
 20
1335.8132175515138
 11
7499.0593980229004
 21
1335.8132175515138
  0
LINE
  8
_0-0_
  6
CONTINUOUS
 62
    7
 10
4979.0593980217536
 20
1303.8132175514674
 11
7499.0593980217354
 21
1303.8132175514674
  0
LINE
  8
_0-0_
  6
CONTINUOUS
 62
    7
 10
4839.0593980217672
 20
1935.8132175515081
 11
4839.0593980217672
 21
1335.8132175515138
  0
LINE
  8
_0-0_
  6
CONTINUOUS
 62
    7
 10
5239.0593980217727
 20
1935.8132175515081
 11
5239.0593980217727
 21
1335.8132175515138
  0
LINE
  8
_0-0_
  6
CONTINUOUS
 62
    7
 10
5639.059398021779
 20
1935.8132175515081
 11
5639.059398021779
 21
1335.8132175515138
  0
LINE
  8
_0-0_
  6
CONTINUOUS
 62
    7
 10
6039.0593980217845
 20
1935.8132175515081
 11
6039.0593980217845
 21
1335.8132175515138
  0
LINE
  8
_0-0_
  6
CONTINUOUS
 62
    7
 10
6439.05939802179
 20
1935.8132175515081
 11
6439.05939802179
 21
1335.8132175515138
  0
LINE
  8
_0-0_
  6
CONTINUOUS
 62
    7
 10
6839.0593980217954
 20
1935.8132175515081
 11
6839.0593980217954
 21
1335.8132175515138
  0
LINE
  8
_0-0_
  6
CONTINUOUS
 62
    7
 10
7239.0593980218018
 20
1935.8132175515081
 11
7239.0593980218018
 21
1335.8132175515138
  0
LINE
  8
_0-0_
  6
CONTINUOUS
 62
    7
 10
7639.0593980218072
 20
1935.8132175515081
 11
7639.0593980218072
 21
1335.8132175515138
  0
LINE
  8
_0-0_
  6
CONTINUOUS
 62
    7
 10
8039.0593980218127
 20
1935.8132175515081
 11
8039.0593980218127
 21
1335.8132175515138
  0
LINE
  8
_0-0_
  6
CONTINUOUS
 62
    7
 10
4849.0593980217581
 20
1935.8132175515081
 11
4849.0593980217581
 21
1335.8132175515138
  0
LINE
  8
_0-0_
  6
CONTINUOUS
 62
    7
 10
5249.0593980217636
 20
1935.8132175515081
 11
5249.0593980217636
 21
1335.8132175515138
  0
LINE
  8
_0-0_
  6
CONTINUOUS
 62
    7
 10
5649.0593980217699
 20
1935.8132175515081
 11
5649.0593980217699
 21
1335.8132175515138
  0
LINE
  8
_0-0_
  6
CONTINUOUS
 62
    7
 10
6049.0593980217754
 20
1935.8132175515081
 11
6049.0593980217754
 21
1335.8132175515138
  0
LINE
  8
_0-0_
  6
CONTINUOUS
 62
    7
 10
6449.0593980217809
 20
1935.8132175515081
 11
6449.0593980217809
 21
1335.8132175515138
  0
LINE
  8
_0-0_
  6
CONTINUOUS
 62
    7
 10
6849.0593980217863
 20
1935.8132175515081
 11
6849.0593980217863
 21
1335.8132175515138
  0
LINE
  8
_0-0_
  6
CONTINUOUS
 62
    7
 10
7229.0593980218109
 20
1935.8132175515081
 11
7229.0593980218109
 21
1335.8132175515138
  0
LINE
  8
_0-0_
  6
CONTINUOUS
 62
    7
 10
7649.0593980217981
 20
1935.8132175515081
 11
7649.0593980217981
 21
1335.8132175515138
  0
LINE
  8
_0-0_
  6
CONTINUOUS
 62
    7
 10
4839.0593980217672
 20
1335.8132175515138
 11
4979.0593980217536
 21
1335.8132175515138
  0
LINE
  8
_0-0_
  6
CONTINUOUS
 62
    7
 10
4439.0593980217618
 20
1335.8132175515138
 11
4839.0593980217672
 21
1335.8132175515138
  0
LINE
  8
_0-0_
  6
CONTINUOUS
 62
    7
 10
1219.2784436311767
 20
10131.246999305776
 11
1219.2784436311767
 21
7131.2469993057757
  0
LINE
  8
_0-0_
  6
CONTINUOUS
 62
    7
 10
1219.2784436311767
 20
-9329.1999713925233
 11
1219.2784436311767
 21
7131.2469993057757
  0
LINE
  8
_0-0_
  6
CONTINUOUS
 62
    7
 10
32128.253878876239
 20
10131.246999305776
 11
32128.253878876239
 21
-9329.1999713925233
  0
LINE
  8
_0-0_
  6
CONTINUOUS
 62
    7
 10
32128.253878876239
 20
-9329.1999713925233
 11
1219.2784436311767
 21
-9329.1999713925233
  0
LINE
  8
_0-0_
  6
CONTINUOUS
 62
    7
 10
32128.253878876239
 20
-10329.199971392523
 11
1219.2784436311767
 21
-10329.199971392523
  0
LINE
  8
_0-0_
  6
CONTINUOUS
 62
    7
 10
1219.2784436311767
 20
-9329.1999713925233
 11
1219.2784436311767
 21
-10329.199971392523
  0
LINE
  8
_0-0_
  6
CONTINUOUS
 62
    7
 10
32128.253878876239
 20
-9329.1999713925233
 11
32128.253878876239
 21
-10329.199971392523
  0
LINE
  8
_0-0_
  6
CONTINUOUS
 62
    7
 10
1219.2784436311767
 20
10631.246999305776
 11
32128.253878876239
 21
10631.246999305776
  0
LINE
  8
_0-0_
  6
CONTINUOUS
 62
    7
 10
1219.2784436311767
 20
10131.246999305776
 11
1219.2784436311767
 21
10631.246999305776
  0
LINE
  8
_0-0_
  6
CONTINUOUS
 62
    7
 10
32128.253878876239
 20
10631.246999305776
 11
32128.253878876239
 21
10131.246999305776
  0
TEXT
  8
_0-0_
 62
    5
 10
3997.7376903293561
 20
3181.4396566050631
 40
350
 41
0.7999999999999999
 50
0
  1
50
  0
TEXT
  8
_0-0_
 62
    5
 10
5847.5732593247603
 20
3193.1426979599327
 40
350
 41
0.7999999999999999
 50
0
  1
360
  0
TEXT
  8
_0-0_
 62
    5
 10
8140.9918474159976
 20
3182.9497264573051
 40
350
 41
0.7999999999999999
 50
0
  1
50
  0
TEXT
  8
_0-0_
 62
    5
 10
4522.4869639831549
 20
2622.3362938127797
 40
350
 41
0.7999999999999999
 50
0
  1
54
  0
TEXT
  8
_0-0_
 62
    5
 10
5847.5732593247603
 20
2591.7573793048964
 40
350
 41
0.7999999999999999
 50
0
  1
252
  0
TEXT
  8
_0-0_
 62
    5
 10
7590.5713862741013
 20
2561.1784647970139
 40
350
 41
0.7999999999999999
 50
0
  1
54
  0
TEXT
  8
_0-0_
 62
    5
 10
5460.2403422249062
 20
-924.81778910166951
 40
350
 41
0.7999999999999999
 50
45.000000000000056
  1
R50
  0
TEXT
  8
_0-0_
 62
    5
 10
2290.2262049076825
 20
-272.46761293349521
 40
350
 41
0.7999999999999999
 50
90
  1
430
  0
TEXT
  8
_0-0_
 62
    5
 10
2983.3482670863672
 20
1480.7234855184744
 40
350
 41
0.7999999999999999
 50
90
  1
60
  0
TEXT
  8
_0-0_
 62
    5
 10
3003.7342100916234
 20
-303.04652744137854
 40
350
 41
0.7999999999999999
 50
90
  1
280
  0
TEXT
  8
_0-0_
 62
    5
 10
3044.506096102134
 20
-2127.5884264117407
 40
350
 41
0.7999999999999999
 50
90
  1
90
  0
TEXT
  8
_0-0_
 62
    5
 10
5595.125384546267
 20
-3601.1154091596408
 40
350
 41
0.7999999999999999
 50
0
  1
460
  0
LINE
  8
_0-0_
  6
CONTINUOUS
 62
    7
 10
8489.0593980217454
 20
-1275.9502520799842
 11
8539.0593980217563
 21
-1141.7072910664487
  0
LINE
  8
_0-0_
  6
CONTINUOUS
 62
    7
 10
8489.0593980217454
 20
-1465.9502520799819
 11
8539.0593980217563
 21
-1601.7072910663785
  0
LINE
  8
_0-0_
  6
CONTINUOUS
 62
    7
 10
3939.0593980210014
 20
-1601.7072910663785
 11
3989.0593980210342
 21
-1465.9502520799819
  0
LINE
  8
_0-0_
  6
CONTINUOUS
 62
    7
 10
3989.059398021091
 20
-1275.9502520799842
 11
3939.0593980211006
 21
-1141.7072910664487
  0
LINE
  8
_0-0_
  6
CONTINUOUS
 62
    7
 10
11291.894409938175
 20
-414.18678244872779
 11
11734.129505100383
 21
-414.18678244872779
  0
LINE
  8
_0-0_
  6
CONTINUOUS
 62
    7
 10
11291.894409938175
 20
85.813217551272202
 11
11500.146668111443
 21
85.813217551272202
  0
LINE
  8
_0-0_
  6
CONTINUOUS
 62
    7
 10
11500.146668111443
 20
85.813217551272202
 11
11710.73122140149
 21
85.813217551272202
  0
LINE
  8
_0-0_
  6
CONTINUOUS
 62
    7
 10
11710.73122140149
 20
85.813217551272202
 11
12262.935684483863
 21
85.813217551272202
  0
LINE
  8
_0-0_
  6
CONTINUOUS
 62
    7
 10
11734.129505100383
 20
-414.18678244872779
 11
12329.253487165629
 21
-414.18678244872779
  0
LINE
  8
_0-0_
  6
CONTINUOUS
 62
    7
 10
12329.253487165629
 20
-414.18678244872779
 11
12329.253487165629
 21
85.813217551272202
  0
LINE
  8
_0-0_
  6
CONTINUOUS
 62
    7
 10
12262.935684483863
 20
85.813217551272202
 11
12329.253487165629
 21
85.813217551272202
  0
LINE
  8
_0-0_
  6
CONTINUOUS
 62
    7
 10
30254.894409938173
 20
-414.18678244872779
 11
31291.894409938173
 21
-414.18678244872779
  0
LINE
  8
_0-0_
  6
CONTINUOUS
 62
    7
 10
30254.894409938173
 20
85.813217551272202
 11
31291.894409938173
 21
85.813217551272202
  0
LINE
  8
_0-0_
  6
CONTINUOUS
 62
    7
 10
11291.894409938175
 20
1328.2927089334791
 11
11291.894409938175
 21
-2171.707291066521
  0
LINE
  8
_0-0_
  6
CONTINUOUS
 62
    7
 10
30254.894409938173
 20
85.813217551272202
 11
30254.894409938173
 21
-414.18678244872779
  0
TEXT
  8
_0-0_
 62
    5
 10
5347.9662148497536
 20
6015.332073423423
 40
400
 41
0.8
 50
0
  1
断面図
  0
TEXT
  8
_0-0_
 62
    5
 10
10904.266727237396
 20
6076.0465644204714
 40
400
 41
0.8
 50
0
  1
側面図
  0
TEXT
  8
_0-0_
 62
    7
 10
1833.1834273433387
 20
-10087.850586298247
 40
500
 41
1
 50
0
  1
名称
  0
TEXT
  8
_0-0_
 62
    7
 10
4185.5681899970622
 20
-10113.009781620747
 40
500
 41
1
 50
0
  1
横断側溝GI　250
  0
LINE
  8
_0-0_
  6
CONTINUOUS
 62
    7
 10
3430.7923303220718
 20
-9329.1999713925233
 11
3430.7923303220718
 21
-10329.199971392523
  0
LINE
  8
_0-0_
  6
CONTINUOUS
 62
    7
 10
9297.975475474599
 20
-9329.1999713925233
 11
9297.975475474599
 21
-10329.199971392523
  0
LINE
  8
_0-0_
  6
CONTINUOUS
 62
    7
 10
11297.975475474599
 20
-9329.1999713925233
 11
11297.975475474599
 21
-10329.199971392523
  0
LINE
  8
_0-0_
  6
CONTINUOUS
 62
    7
 10
13297.975475474599
 20
-9329.1999713925233
 11
13297.975475474599
 21
-10329.199971392523
  0
LINE
  8
_0-0_
  6
CONTINUOUS
 62
    7
 10
15297.975475474599
 20
-9329.1999713925233
 11
15297.975475474599
 21
-10329.199971392523
  0
LINE
  8
_0-0_
  6
CONTINUOUS
 62
    7
 10
17297.975475474599
 20
-9329.1999713925233
 11
17297.975475474599
 21
-10329.199971392523
  0
LINE
  8
_0-0_
  6
CONTINUOUS
 62
    7
 10
19797.975475474599
 20
-9329.1999713925233
 11
19797.975475474599
 21
-10329.199971392523
  0
LINE
  8
_0-0_
  6
CONTINUOUS
 62
    7
 10
22297.975475474599
 20
-9329.1999713925233
 11
22297.975475474599
 21
-10329.199971392523
  0
TEXT
  8
_0-0_
 62
    7
 10
9809.9049470098871
 20
-10104.120902594984
 40
500
 41
1
 50
0
  1
分類
  0
TEXT
  8
_0-0_
 62
    7
 10
13732.893309093127
 20
-10104.120902594984
 40
500
 41
1
 50
0
  1
図番
  0
TEXT
  8
_0-0_
 62
    7
 10
17530.679914939668
 20
-10104.120902594984
 40
500
 41
1
 50
0
  1
参考重量
  0
TEXT
  8
_0-0_
 62
    7
 10
20452.054227129319
 20
-10104.120902594984
 40
500
 41
1
 50
0
  1
562㎏
  0
TEXT
  8
_0-0_
 62
    7
 10
25001.051370396056
 20
-10062.386983849419
 40
500
 41
1
 50
0
  1
岩城ブロック工業株式会社
  0
TEXT
  8
_0-0_
 62
    5
 10
5854.3470012333809
 20
3746.2345445785331
 40
350
 41
0.7999999999999999
 50
0
  1
460
  0
TEXT
  8
_0-0_
 62
    5
 10
21059.01056714636
 20
3094.0040859145979
 40
350
 41
0.7999999999999999
 50
0
  1
2000
  0
TEXT
  8
_0-0_
 62
    5
 10
9339.8219337621321
 20
1014.587891663102
 40
350
 41
0.7999999999999999
 50
0
  1
連結金具
  0
TEXT
  8
_0-0_
 62
    5
 10
9084.9543597779393
 20
-627.89202956835765
 40
350
 41
0.7999999999999999
 50
0
  1
ズレ止ﾌﾟﾚｰﾄ
  0
LINE
  8
_0-0_
  6
CONTINUOUS
 62
    7
 10
9273.745155321787
 20
1014.587891663102
 11
10689.676121900629
 21
1014.587891663102
  0
LINE
  8
_0-0_
  6
CONTINUOUS
 62
    7
 10
9273.745155321787
 20
1014.587891663102
 11
8641.2959902499023
 21
4.5571355035264105
  0
LINE
  8
_0-0_
  6
CONTINUOUS
 62
    7
 10
8933.9217233428644
 20
-693.96880800870235
 11
10906.785536776053
 21
-693.96880800870235
  0
LINE
  8
_0-0_
  6
CONTINUOUS
 62
    7
 10
8933.9217233428644
 20
-693.96880800870235
 11
8679.0541493586715
 21
-1345.2970526349702
  0
LINE
  8
_0-0_
  6
CONTINUOUS
 62
    4
 10
3939.0593980217618
 20
3677.8425336848345
 11
3939.0593980217618
 21
2196.5393694257099
  0
LINE
  8
_0-0_
  6
CONTINUOUS
 62
    4
 10
8539.0593980217563
 20
3677.8425336848345
 11
8539.0593980217563
 21
2196.5393694257099
  0
ENDSEC
  0
EOF
