  0
SECTION
  2
HEADER
  9
$ACADVER
  1
AC1009
  9
$INSBASE
 10
0
 20
0
 30
0
  9
$EXTMIN
 10
0
 20
0
  9
$EXTMAX
 10
5940
 20
4200
  9
$LIMMIN
 10
0
 20
0
  9
$LIMMAX
 10
5940
 20
4200
  9
$LTSCALE
 40
10
  0
ENDSEC
  0
SECTION
  2
TABLES
  0
TABLE
  2
LTYPE
 70
     9
  0
LTYPE
  2
CONTINUOUS
 70
    64
  3
実線
 72
    65
 73
     0
 40
0.0
  0
LTYPE
  2
DASHED1
 70
    64
  3
--  --  --  --  --  --  --  --  
 72
    65
 73
     2
 40
2.5
 49
1.25
 49
-1.25
  0
LTYPE
  2
DASHED2
 70
    64
  3
----    ----    ----    ----    
 72
    65
 73
     2
 40
5.0
 49
2.5
 49
-2.5
  0
LTYPE
  2
DASHED3
 70
    64
  3
------  ------  ------  ------  
 72
    65
 73
     2
 40
5.0
 49
3.75
 49
-1.25
  0
LTYPE
  2
CENTER1
 70
    64
  3
----- - ----- - ----- - ----- - 
 72
    65
 73
     4
 40
10.0
 49
6.25
 49
-1.25
 49
1.25
 49
-1.25
  0
LTYPE
  2
CENTER2
 70
    64
  3
----------  --  ----------  --  
 72
    65
 73
     4
 40
20.0
 49
12.5
 49
-2.5
 49
2.5
 49
-2.5
  0
LTYPE
  2
PHANTOM1
 70
    64
  3
--- - - --- - - --- - - --- - - 
 72
    65
 73
     6
 40
10.0
 49
3.25
 49
-1.25
 49
1.25
 49
-1.25
 49
1.25
 49
-1.25
  0
LTYPE
  2
PHANTOM2
 70
    64
  3
--------  -  -  --------  -  -  
 72
    65
 73
     6
 40
20.0
 49
10.0
 49
-2.5
 49
1.25
 49
-2.5
 49
1.25
 49
-2.5
  0
LTYPE
  2
DOT
 70
    64
  3
-   -   -   -   -   -   -   -   
 72
    65
 73
     2
 40
2.5
 49
0.625
 49
-1.875
  0
LTYPE
  2
DUMMY
 70
    64
  3
ダミー
 72
    65
 73
     0
 40
0.0
  0
LTYPE
  2
RAND1
 70
    64
  3
ランダム線1
 72
    65
 73
     4
 40
10.0
 49
1.0
 49
-2.0
 49
3.0
 49
-4.0
  0
LTYPE
  2
RAND2
 70
    64
  3
ランダム線2
 72
    65
 73
     4
 40
14.0
 49
2.0
 49
-3.0
 49
4.0
 49
-5.0
  0
LTYPE
  2
RAND3
 70
    64
  3
ランダム線3
 72
    65
 73
     4
 40
18.0
 49
3.0
 49
-4.0
 49
5.0
 49
-6.0
  0
LTYPE
  2
RAND4
 70
    64
  3
ランダム線4
 72
    65
 73
     4
 40
22.0
 49
4.0
 49
-5.0
 49
6.0
 49
-7.0
  0
LTYPE
  2
RAND5
 70
    64
  3
ランダム線5
 72
    65
 73
     4
 40
26.0
 49
5.0
 49
-6.0
 49
7.0
 49
-8.0
  0
LTYPE
  2
LONG1
 70
    64
  3
----------  --  ----------  --  
 72
    65
 73
     4
 40
40.0
 49
32.5
 49
-2.5
 49
2.5
 49
-2.5
  0
LTYPE
  2
LONG2
 70
    64
  3
--------  -  -  --------  -  -  
 72
    65
 73
     6
 40
40.0
 49
30.0
 49
-2.5
 49
1.25
 49
-2.5
 49
1.25
 49
-2.5
  0
LTYPE
  2
LONG3
 70
    64
  3
+++++++++++++++..+++++++++++++++
 72
    65
 73
     2
 40
40.0
 49
37.5
 49
-2.5
  0
LTYPE
  2
LONG4
 70
    64
  3
+++++++++++++++..+++++++++++++++
 72
    65
 73
     2
 40
80.0
 49
75.0
 49
-5.0
  0
LTYPE
  2
LONG5
 70
    64
  3
----------  --  ----------  --  
 72
    65
 73
     4
 40
60.0
 49
37.5
 49
-7.5
 49
7.5
 49
-7.5
  0
LTYPE
  2
dashed
 70
   64
  3
-------   -------------   ------
 72
   65
 73
    2
 40
7.5
 49
6
 49
-1.5
  0
LTYPE
  2
dashed_spaced
 70
   64
  3
----        --------        ----
 72
   65
 73
    2
 40
12
 49
6
 49
-6
  0
LTYPE
  2
long_dashed_dotted
 70
   64
  3
------------- --- --------------
 72
   65
 73
    4
 40
15.25
 49
12
 49
-1.5
 49
0.25
 49
-1.5
  0
LTYPE
  2
long_dashed_double-dotted
 70
   64
  3
----------- --- --- ------------
 72
   65
 73
    6
 40
17
 49
12
 49
-1.5
 49
0.25
 49
-1.5
 49
0.25
 49
-1.5
  0
LTYPE
  2
long_dashed_triplicate-dotted
 70
   64
  3
--------- --- --- --- ----------
 72
   65
 73
    8
 40
18.75
 49
12
 49
-1.5
 49
0.25
 49
-1.5
 49
0.25
 49
-1.5
 49
0.25
 49
-1.5
  0
LTYPE
  2
dotted
 70
   64
  3
   -       -       -       -    
 72
   65
 73
    2
 40
1.75
 49
0.25
 49
-1.5
  0
LTYPE
  2
chain
 70
   64
  3
-------------- -- --------------
 72
   65
 73
    4
 40
18.5
 49
12
 49
-1.5
 49
3.5
 49
-1.5
  0
LTYPE
  2
chain_double_dash
 70
   64
  3
------------ -- -- -------------
 72
   65
 73
    6
 40
23.5
 49
12
 49
-1.5
 49
3.5
 49
-1.5
 49
3.5
 49
-1.5
  0
LTYPE
  2
dashed_dotted
 70
   64
  3
-----------     -     ----------
 72
   65
 73
    4
 40
9.25
 49
6
 49
-1.5
 49
0.25
 49
-1.5
  0
LTYPE
  2
double-dashed_dotted
 70
   64
  3
------   -----------   -   -----
 72
   65
 73
    6
 40
16.75
 49
6
 49
-1.5
 49
6
 49
-1.5
 49
0.25
 49
-1.5
  0
LTYPE
  2
dashed_double-dotted
 70
   64
  3
---------    -    -    ---------
 72
   65
 73
    6
 40
11
 49
6
 49
-1.5
 49
0.25
 49
-1.5
 49
0.25
 49
-1.5
  0
LTYPE
  2
double-dashed_double-dotted
 70
   64
  3
-----   ---------   -   -   ----
 72
   65
 73
    8
 40
18.5
 49
6
 49
-1.5
 49
6
 49
-1.5
 49
0.25
 49
-1.5
 49
0.25
 49
-1.5
  0
LTYPE
  2
dashed_triplicate-dotted
 70
   64
  3
-------    -    -    -    ------
 72
   65
 73
    8
 40
12.75
 49
6
 49
-1.5
 49
0.25
 49
-1.5
 49
0.25
 49
-1.5
 49
0.25
 49
-1.5
  0
LTYPE
  2
double-dashed_triplicate-dotted
 70
   64
  3
-----  ---------  -  -  -  -----
 72
   65
 73
   10
 40
20.25
 49
6
 49
-1.5
 49
6
 49
-1.5
 49
0.25
 49
-1.5
 49
0.25
 49
-1.5
 49
0.25
 49
-1.5
  0
LTYPE
  2
undefined
 70
   64
  3
--------------------------------
 72
   65
 73
    0
 40
0
  0
LTYPE
  2
_
 70
   64
  3
                                
 72
   65
 73
    0
 40
0
  0
LTYPE
  2
__18
 70
   64
  3
                                
 72
   65
 73
    0
 40
0
  0
LTYPE
  2
__19
 70
   64
  3
                                
 72
   65
 73
    0
 40
0
  0
LTYPE
  2
__20
 70
   64
  3
                                
 72
   65
 73
    0
 40
0
  0
LTYPE
  2
__21
 70
   64
  3
                                
 72
   65
 73
    0
 40
0
  0
LTYPE
  2
__22
 70
   64
  3
                                
 72
   65
 73
    0
 40
0
  0
LTYPE
  2
__23
 70
   64
  3
                                
 72
   65
 73
    0
 40
0
  0
LTYPE
  2
__24
 70
   64
  3
                                
 72
   65
 73
    0
 40
0
  0
LTYPE
  2
__25
 70
   64
  3
                                
 72
   65
 73
    0
 40
0
  0
LTYPE
  2
__26
 70
   64
  3
                                
 72
   65
 73
    0
 40
0
  0
LTYPE
  2
__27
 70
   64
  3
                                
 72
   65
 73
    0
 40
0
  0
LTYPE
  2
__28
 70
   64
  3
                                
 72
   65
 73
    0
 40
0
  0
LTYPE
  2
__29
 70
   64
  3
                                
 72
   65
 73
    0
 40
0
  0
LTYPE
  2
__30
 70
   64
  3
                                
 72
   65
 73
    0
 40
0
  0
LTYPE
  2
__31
 70
   64
  3
                                
 72
   65
 73
    0
 40
0
  0
LTYPE
  2
__32
 70
   64
  3
                                
 72
   65
 73
    0
 40
0
  0
ENDTAB
  0
TABLE
  2
STYLE
  5
3
100
AcDbSymbolTable
 70
     1
  0
STYLE
  5
10
100
AcDbSymbolTableRecord
100
AcDbTextStyleTableRecord
  2
STANDARD
 70
     0
 40
0.0
 41
1.0
 50
0.0
 71
     0
 42
0.2
  3
txt
  4
bigfont.shx
  0
STYLE
  5
26
100
AcDbSymbolTableRecord
100
AcDbTextStyleTableRecord
  2
TATEGAKI
 70
    68
 40
0.0
 41
1.0
 50
0.0
 71
     0
 42
1.0
  3
txt
  4
bigfont.shx
  0
ENDTAB
  0
TABLE
  2
LAYER
 70
    2
  0
LAYER
  2
_0-0_
 70
   64
 62
    7
  6
CONTINUOUS
  0
LAYER
  2
ADD_LINE
 70
   64
 62
    7
  6
CONTINUOUS
  0
ENDTAB
  0
ENDSEC
  0
SECTION
  2
BLOCKS
  0
ENDSEC
  0
SECTION
  2
ENTITIES
  0
TEXT
  8
_0-0_
 62
    7
 10
1307.29574
 20
1201.3471300000001
 40
40
 41
1
 50
0
  1
名　称
  0
TEXT
  8
_0-0_
 62
    7
 10
3619.7917999999999
 20
1193.25684
 40
60
 41
1
 50
0
  1
岩城ブロック工業株式会社
  0
TEXT
  8
_0-0_
 62
    7
 10
2254.2226
 20
1201.3471300000001
 40
40
 41
1
 50
0
  1
分　類
  0
TEXT
  8
_0-0_
 62
    7
 10
2713.7440999999998
 20
1199.79896
 40
40
 41
1
 50
0
  1
図　番
  0
TEXT
  8
_0-0_
 62
    7
 10
3081.5695999999998
 20
1199.7470599999999
 40
40
 41
1
 50
0
  1
参考重量
  0
TEXT
  8
_0-0_
 62
    7
 10
2435.1349999999997
 20
3098.5133999999998
 40
60
 41
1
 50
0
  1
側　面　図
  0
TEXT
  8
_0-0_
 62
    7
 10
1575.6756399999999
 20
3090.4052999999998
 40
60
 41
1
 50
0
  1
断  面  図
  0
TEXT
  8
_0-0_
 62
    7
 10
1584.7150699999999
 20
3000.2021000000004
 40
30
 41
1
 50
-0.0004361999999257
  1
98
  0
TEXT
  8
_0-0_
 62
    7
 10
1658.0277799999998
 20
3000.2021000000004
 40
30
 41
1
 50
-0.0004361999999257
  1
52
  0
TEXT
  8
_0-0_
 62
    7
 10
1968.3839
 20
3000.2021000000004
 40
30
 41
1
 50
-0.0002834999999813
  1
600
  0
TEXT
  8
_0-0_
 62
    7
 10
2295.3577
 20
3000.2021000000004
 40
30
 41
1
 50
-0.0004361999999257
  1
52
  0
TEXT
  8
_0-0_
 62
    7
 10
2368.6702
 20
3000.2021000000004
 40
30
 41
1
 50
-0.0004361999999257
  1
98
  0
TEXT
  8
_0-0_
 62
    7
 10
1487.7901799999999
 20
1448.0276800000001
 40
30
 41
1
 50
90
  1
40
  0
TEXT
  8
_0-0_
 62
    7
 10
1556.3676199999999
 20
1360.9122899999999
 40
30
 41
1
 50
0
  1
40
  0
TEXT
  8
_0-0_
 62
    7
 10
1968.3839
 20
1360.9122899999999
 40
30
 41
1
 50
0
  1
820
  0
TEXT
  8
_0-0_
 62
    7
 10
2397.0175999999996
 20
1360.9122899999999
 40
30
 41
1
 50
0
  1
40
  0
TEXT
  8
_0-0_
 62
    7
 10
3419.6050999999997
 20
3001.5407
 40
30
 41
1
 50
0
  1
2000
  0
TEXT
  8
_0-0_
 62
    7
 10
1446.04015
 20
2885.9762
 40
30
 41
1
 50
90
  1
65
  0
TEXT
  8
_0-0_
 62
    7
 10
1446.04015
 20
1501.1033900000002
 40
30
 41
1
 50
90
  1
150
  0
TEXT
  8
_0-0_
 62
    7
 10
1381.6449299999999
 20
2184.7921999999998
 40
30
 41
1
 50
90
  1
1495
  0
TEXT
  8
_0-0_
 62
    7
 10
1446.04015
 20
2184.7921999999998
 40
30
 41
1
 50
90
  1
1280
  0
TEXT
  8
_0-0_
 62
    7
 10
1524.98324
 20
1203.56976
 40
40
 41
1
 50
0.0000109000000008
  1
ﾄﾗｲﾎﾟｯﾄ 横断側溝 ＧＬ６００Ｇ
  0
TEXT
  8
_0-0_
 62
    7
 10
3310.9101999999993
 20
1201.1749099999999
 40
40
 41
1
 50
0
  1
２５５２kg
  0
TEXT
  8
_0-0_
 62
    7
 10
1599.30409
 20
1864.7456999999999
 40
30
 41
1
 50
0
  1
150
  0
TEXT
  8
_0-0_
 62
    7
 10
2332.429
 20
1864.7456999999999
 40
30
 41
1
 50
0
  1
150
  0
TEXT
  8
_0-0_
 62
    7
 10
1965.8665999999998
 20
1864.7456999999999
 40
30
 41
1
 50
0
  1
600
  0
LINE
  8
_0-0_
  6
CONTINUOUS
 62
    7
 10
1297.0270599999998
 20
1169.7297699999999
 11
1297.0270599999998
 21
3319.7294999999994
  0
LINE
  8
_0-0_
  6
CONTINUOUS
 62
    7
 10
1297.0270599999998
 20
3319.7294999999994
 11
4497.0267999999996
 21
3319.7294999999994
  0
LINE
  8
_0-0_
  6
CONTINUOUS
 62
    7
 10
4497.0267999999996
 20
3319.7294999999994
 11
4497.0267999999996
 21
1169.7297699999999
  0
LINE
  8
_0-0_
  6
CONTINUOUS
 62
    7
 10
4497.0267999999996
 20
1169.7297699999999
 11
1297.0270599999998
 21
1169.7297699999999
  0
LINE
  8
_0-0_
  6
CONTINUOUS
 62
    7
 10
4497.0267999999996
 20
1269.72972
 11
1297.02719
 21
1269.72972
  0
LINE
  8
_0-0_
  6
CONTINUOUS
 62
    7
 10
1447.0270599999998
 20
1169.7297699999999
 11
1447.0270599999998
 21
1269.72972
  0
LINE
  8
_0-0_
  6
CONTINUOUS
 62
    7
 10
2697.0269000000002
 20
1169.7297699999999
 11
2697.0269000000002
 21
1269.72972
  0
LINE
  8
_0-0_
  6
CONTINUOUS
 62
    7
 10
2247.0269000000002
 20
1169.7297699999999
 11
2247.0269000000002
 21
1269.72972
  0
LINE
  8
_0-0_
  6
CONTINUOUS
 62
    7
 10
2397.0269000000002
 20
1169.7297699999999
 11
2397.0269000000002
 21
1269.72972
  0
LINE
  8
_0-0_
  6
CONTINUOUS
 62
    7
 10
3047.0267000000003
 20
1169.7297699999999
 11
3047.0267000000003
 21
1269.72972
  0
LINE
  8
_0-0_
  6
CONTINUOUS
 62
    7
 10
3297.0267999999996
 20
1169.7297699999999
 11
3297.0267999999996
 21
1269.72972
  0
LINE
  8
_0-0_
  6
CONTINUOUS
 62
    7
 10
3547.0268999999998
 20
1169.7297699999999
 11
3547.0268999999998
 21
1269.72972
  0
LINE
  8
_0-0_
  6
CONTINUOUS
 62
    7
 10
2857.0267999999996
 20
1169.7297699999999
 11
2857.0267999999996
 21
1269.72972
  0
LINE
  8
_0-0_
  6
CONTINUOUS
 62
    7
 10
2334.9463999999998
 20
2932.6586999999999
 11
2334.9463999999998
 21
2869.1212999999997
  0
LINE
  8
_0-0_
  6
CONTINUOUS
 62
    7
 10
2254.7915000000002
 20
1589.2764799999999
 11
1726.9415100000001
 21
1589.2764799999999
  0
LINE
  8
_0-0_
  6
CONTINUOUS
 62
    7
 10
1550.9915
 20
1481.7513800000001
 11
1590.0914499999998
 21
1442.6514399999998
  0
LINE
  8
_0-0_
  6
CONTINUOUS
 62
    7
 10
2391.6415000000001
 20
1442.6514399999998
 11
1590.0914499999998
 21
1442.6514399999998
  0
LINE
  8
_0-0_
  6
CONTINUOUS
 62
    7
 10
2391.6415000000001
 20
1442.6514399999998
 11
2430.7415
 21
1481.7513800000001
  0
LINE
  8
_0-0_
  6
CONTINUOUS
 62
    7
 10
1560.76637
 20
2922.8834999999999
 11
1637.0117299999997
 21
2922.8834999999999
  0
LINE
  8
_0-0_
  6
CONTINUOUS
 62
    7
 10
1637.0117299999997
 20
2859.346
 11
1637.0117299999997
 21
2922.8834999999999
  0
LINE
  8
_0-0_
  6
CONTINUOUS
 62
    7
 10
2344.7215000000001
 20
2922.8834999999999
 11
2344.7215000000001
 21
2859.346
  0
LINE
  8
_0-0_
  6
CONTINUOUS
 62
    7
 10
2344.7215000000001
 20
2922.8834999999999
 11
2420.9664000000002
 21
2922.8834999999999
  0
LINE
  8
_0-0_
  6
CONTINUOUS
 62
    7
 10
1687.8415599999998
 20
2839.7962000000002
 11
1687.8415599999998
 21
2859.346
  0
LINE
  8
_0-0_
  6
CONTINUOUS
 62
    7
 10
2293.8913999999999
 20
2839.7962000000002
 11
2293.8913999999999
 21
2859.346
  0
LINE
  8
_0-0_
  6
CONTINUOUS
 62
    7
 10
1687.8415599999998
 20
2839.7962000000002
 11
1697.6166699999998
 21
2839.7962000000002
  0
LINE
  8
_0-0_
  6
CONTINUOUS
 62
    7
 10
2284.1166000000002
 20
2839.7962000000002
 11
2293.8913999999999
 21
2839.7962000000002
  0
LINE
  8
_0-0_
  6
CONTINUOUS
 62
    7
 10
1550.9915
 20
2859.346
 11
1560.76637
 21
2859.346
  0
LINE
  8
_0-0_
  6
CONTINUOUS
 62
    7
 10
1560.76637
 20
2859.346
 11
1560.76637
 21
2922.8834999999999
  0
LINE
  8
_0-0_
  6
CONTINUOUS
 62
    7
 10
1637.0117299999997
 20
2859.346
 11
1687.8415599999998
 21
2859.346
  0
LINE
  8
_0-0_
  6
CONTINUOUS
 62
    7
 10
2293.8913999999999
 20
2859.346
 11
2344.7215000000001
 21
2859.346
  0
LINE
  8
_0-0_
  6
CONTINUOUS
 62
    7
 10
2420.9664000000002
 20
2859.346
 11
2430.7415
 21
2859.346
  0
LINE
  8
_0-0_
  6
CONTINUOUS
 62
    7
 10
2420.9664000000002
 20
2859.346
 11
2420.9664000000002
 21
2922.8834999999999
  0
LINE
  8
_0-0_
  6
CONTINUOUS
 62
    7
 10
1550.9915
 20
2932.6586999999999
 11
1646.7863499999998
 21
2932.6586999999999
  0
LINE
  8
_0-0_
  6
CONTINUOUS
 62
    7
 10
1646.7863499999998
 20
2869.1212999999997
 11
1697.6166699999998
 21
2869.1212999999997
  0
LINE
  8
_0-0_
  6
CONTINUOUS
 62
    7
 10
2284.1166000000002
 20
2869.1212999999997
 11
2334.9463999999998
 21
2869.1212999999997
  0
LINE
  8
_0-0_
  6
CONTINUOUS
 62
    7
 10
2334.9463999999998
 20
2932.6586999999999
 11
2430.7415
 21
2932.6586999999999
  0
LINE
  8
_0-0_
  6
CONTINUOUS
 62
    7
 10
1625.43575
 20
2160.2968
 11
1625.43575
 21
2224.7483000000001
  0
LINE
  8
_0-0_
  6
CONTINUOUS
 62
    7
 10
2407.0497
 20
2188.6147999999998
 11
2386.0364999999997
 21
2209.6280999999999
  0
LINE
  8
_0-0_
  6
CONTINUOUS
 62
    7
 10
2399.567
 20
2180.4782
 11
2378.2263000000002
 21
2201.8184000000001
  0
LINE
  8
_0-0_
  6
CONTINUOUS
 62
    7
 10
2355.8896999999997
 20
2160.2968
 11
2355.8896999999997
 21
2224.7483000000001
  0
LINE
  8
_0-0_
  6
CONTINUOUS
 62
    7
 10
1550.9915
 20
1481.7513800000001
 11
1550.9915
 21
1956.3866000000002
  0
LINE
  8
_0-0_
  6
CONTINUOUS
 62
    7
 10
1550.9915
 20
1956.3866000000002
 11
1550.9915
 21
1990.8551999999999
  0
LINE
  8
_0-0_
  6
CONTINUOUS
 62
    7
 10
1550.9915
 20
2160.2968
 11
1625.43575
 21
2160.2968
  0
LINE
  8
_0-0_
  6
CONTINUOUS
 62
    7
 10
1550.9915
 20
2224.7483000000001
 11
1625.43575
 21
2224.7483000000001
  0
LINE
  8
_0-0_
  6
CONTINUOUS
 62
    7
 10
1574.6977200000001
 20
2185.7247000000002
 11
1595.3054999999999
 21
2206.3324999999999
  0
LINE
  8
_0-0_
  6
CONTINUOUS
 62
    7
 10
1582.8347800000001
 20
2178.2426
 11
1603.0120099999999
 21
2198.4201000000002
  0
LINE
  8
_0-0_
  6
CONTINUOUS
 62
    7
 10
2355.8896999999997
 20
2224.7483000000001
 11
2430.7415
 21
2224.7483000000001
  0
LINE
  8
_0-0_
  6
CONTINUOUS
 62
    7
 10
2355.8896999999997
 20
2160.2968
 11
2430.7415
 21
2160.2968
  0
LINE
  8
_0-0_
  6
CONTINUOUS
 62
    7
 10
1550.9915
 20
3000.2021000000004
 11
1646.7863499999998
 21
3000.2021000000004
  0
LINE
  8
_0-0_
  6
CONTINUOUS
 62
    7
 10
1550.9915
 20
2947.0785
 11
1550.9915
 21
3000.2021000000004
  0
LINE
  8
_0-0_
  6
CONTINUOUS
 62
    7
 10
1646.7863499999998
 20
2947.0785
 11
1646.7863499999998
 21
3000.2021000000004
  0
LINE
  8
_0-0_
  6
CONTINUOUS
 62
    7
 10
1646.7863499999998
 20
3000.2021000000004
 11
1697.6166699999998
 21
3000.2021000000004
  0
LINE
  8
_0-0_
  6
CONTINUOUS
 62
    7
 10
1697.6166699999998
 20
2947.0785
 11
1697.6166699999998
 21
3000.2021000000004
  0
LINE
  8
_0-0_
  6
CONTINUOUS
 62
    7
 10
1697.6166699999998
 20
3000.2021000000004
 11
2284.1166000000002
 21
3000.2021000000004
  0
LINE
  8
_0-0_
  6
CONTINUOUS
 62
    7
 10
2284.1166000000002
 20
2947.0785
 11
2284.1166000000002
 21
3000.2021000000004
  0
LINE
  8
_0-0_
  6
CONTINUOUS
 62
    7
 10
2284.1166000000002
 20
3000.2021000000004
 11
2334.9463999999998
 21
3000.2021000000004
  0
LINE
  8
_0-0_
  6
CONTINUOUS
 62
    7
 10
2334.9463999999998
 20
2947.0785
 11
2334.9463999999998
 21
3000.2021000000004
  0
LINE
  8
_0-0_
  6
CONTINUOUS
 62
    7
 10
2334.9463999999998
 20
3000.2021000000004
 11
2430.7415
 21
3000.2021000000004
  0
LINE
  8
_0-0_
  6
CONTINUOUS
 62
    7
 10
2430.7415
 20
2947.0785
 11
2430.7415
 21
3000.2021000000004
  0
LINE
  8
_0-0_
  6
CONTINUOUS
 62
    7
 10
1487.7901799999999
 20
1442.6514399999998
 11
1487.7901799999999
 21
1481.7513800000001
  0
LINE
  8
_0-0_
  6
CONTINUOUS
 62
    7
 10
1540.8405299999999
 20
1442.6514399999998
 11
1487.7901799999999
 21
1442.6514399999998
  0
LINE
  8
_0-0_
  6
CONTINUOUS
 62
    7
 10
1540.8405299999999
 20
1481.7513800000001
 11
1487.7901799999999
 21
1481.7513800000001
  0
LINE
  8
_0-0_
  6
CONTINUOUS
 62
    7
 10
1550.9915
 20
1360.9122899999999
 11
1590.0914499999998
 21
1360.9122899999999
  0
LINE
  8
_0-0_
  6
CONTINUOUS
 62
    7
 10
1550.9915
 20
1427.22567
 11
1550.9915
 21
1360.9122899999999
  0
LINE
  8
_0-0_
  6
CONTINUOUS
 62
    7
 10
1590.0914499999998
 20
1427.22567
 11
1590.0914499999998
 21
1360.9122899999999
  0
LINE
  8
_0-0_
  6
CONTINUOUS
 62
    7
 10
1590.0914499999998
 20
1360.9122899999999
 11
2391.6415000000001
 21
1360.9122899999999
  0
LINE
  8
_0-0_
  6
CONTINUOUS
 62
    7
 10
2391.6415000000001
 20
1427.22567
 11
2391.6415000000001
 21
1360.9122899999999
  0
LINE
  8
_0-0_
  6
CONTINUOUS
 62
    7
 10
2391.6415000000001
 20
1360.9122899999999
 11
2430.7415
 21
1360.9122899999999
  0
LINE
  8
_0-0_
  6
CONTINUOUS
 62
    7
 10
2430.7415
 20
1427.22567
 11
2430.7415
 21
1360.9122899999999
  0
LINE
  8
_0-0_
  6
CONTINUOUS
 62
    7
 10
2472.8963000000003
 20
2933.1903999999994
 11
4427.8966
 21
2933.1903999999994
  0
LINE
  8
_0-0_
  6
CONTINUOUS
 62
    7
 10
2472.8963000000003
 20
3001.5407
 11
4427.8966
 21
3001.5407
  0
LINE
  8
_0-0_
  6
CONTINUOUS
 62
    7
 10
2472.8963000000003
 20
2944.7755000000001
 11
2472.8963000000003
 21
3001.5407
  0
LINE
  8
_0-0_
  6
CONTINUOUS
 62
    7
 10
4427.8966
 20
2944.7755000000001
 11
4427.8966
 21
3001.5407
  0
LINE
  8
_0-0_
  6
CONTINUOUS
 62
    7
 10
2472.8963000000003
 20
2923.4155
 11
4427.8966
 21
2923.4155
  0
LINE
  8
_0-0_
  6
CONTINUOUS
 62
    7
 10
2472.8963000000003
 20
2869.6532999999999
 11
4427.8966
 21
2869.6532999999999
  0
LINE
  8
_0-0_
  6
CONTINUOUS
 62
    7
 10
4427.8966
 20
1589.8082299999998
 11
2472.8963000000003
 21
1589.8082299999998
  0
LINE
  8
_0-0_
  6
CONTINUOUS
 62
    7
 10
2472.8963000000003
 20
1482.28338
 11
2511.9964999999997
 21
1443.1833099999998
  0
LINE
  8
_0-0_
  6
CONTINUOUS
 62
    7
 10
4388.7964000000001
 20
1443.1833099999998
 11
2511.9964999999997
 21
1443.1833099999998
  0
LINE
  8
_0-0_
  6
CONTINUOUS
 62
    7
 10
4388.7964000000001
 20
1443.1833099999998
 11
4427.8966
 21
1482.28338
  0
LINE
  8
_0-0_
  6
CONTINUOUS
 62
    7
 10
4427.8966
 20
1482.28338
 11
2472.8963000000003
 21
1482.28338
  0
LINE
  8
_0-0_
  6
CONTINUOUS
 62
    7
 10
2547.3405999999999
 20
2160.2968
 11
2547.3405999999999
 21
2224.7483000000001
  0
LINE
  8
_0-0_
  6
CONTINUOUS
 62
    7
 10
4401.3843999999999
 20
2188.6147999999998
 11
4380.3711000000002
 21
2209.6280999999999
  0
LINE
  8
_0-0_
  6
CONTINUOUS
 62
    7
 10
4393.9017999999996
 20
2180.4782
 11
4372.5610999999998
 21
2201.8184000000001
  0
LINE
  8
_0-0_
  6
CONTINUOUS
 62
    7
 10
4350.2242000000005
 20
2160.2968
 11
4350.2242000000005
 21
2224.7483000000001
  0
LINE
  8
_0-0_
  6
CONTINUOUS
 62
    7
 10
2472.8963000000003
 20
2160.2968
 11
2547.3405999999999
 21
2160.2968
  0
LINE
  8
_0-0_
  6
CONTINUOUS
 62
    7
 10
2472.8963000000003
 20
2224.7483000000001
 11
2547.3405999999999
 21
2224.7483000000001
  0
LINE
  8
_0-0_
  6
CONTINUOUS
 62
    7
 10
2496.6024999999999
 20
2185.7247000000002
 11
2517.2107
 21
2206.3324999999999
  0
LINE
  8
_0-0_
  6
CONTINUOUS
 62
    7
 10
2504.7395999999998
 20
2178.2426
 11
2524.9172000000003
 21
2198.4201000000002
  0
LINE
  8
_0-0_
  6
CONTINUOUS
 62
    7
 10
4350.2242000000005
 20
2224.7483000000001
 11
4425.0762999999997
 21
2224.7483000000001
  0
LINE
  8
_0-0_
  6
CONTINUOUS
 62
    7
 10
4350.2242000000005
 20
2160.2968
 11
4425.0762999999997
 21
2160.2968
  0
LINE
  8
_0-0_
  6
CONTINUOUS
 62
    7
 10
1697.6166699999998
 20
2823.3791000000001
 11
1697.6166699999998
 21
2868.6947
  0
LINE
  8
_0-0_
  6
CONTINUOUS
 62
    7
 10
1646.7863499999998
 20
2869.1212999999997
 11
1646.7863499999998
 21
2919.7400999999999
  0
LINE
  8
_0-0_
  6
CONTINUOUS
 62
    7
 10
1646.7863499999998
 20
2919.7400999999999
 11
1646.7863499999998
 21
2932.6586999999999
  0
LINE
  8
_0-0_
  6
CONTINUOUS
 62
    7
 10
1990.8665
 20
1413.32635
 11
1990.8665
 21
2867.2991999999999
  0
LINE
  8
_0-0_
  6
CONTINUOUS
 62
    7
 10
1450.34263
 20
1442.6514399999998
 11
1450.34263
 21
2932.6586999999999
  0
LINE
  8
_0-0_
  6
CONTINUOUS
 62
    7
 10
1550.9915
 20
1990.8551999999999
 11
1550.9915
 21
2932.6586999999999
  0
LINE
  8
_0-0_
  6
CONTINUOUS
 62
    7
 10
2430.7415
 20
1481.7513800000001
 11
2430.7415
 21
2932.6586999999999
  0
LINE
  8
_0-0_
  6
CONTINUOUS
 62
    7
 10
2472.8963000000003
 20
1482.28338
 11
2472.8963000000003
 21
2932.6586999999999
  0
LINE
  8
_0-0_
  6
CONTINUOUS
 62
    7
 10
4427.8966
 20
1482.28338
 11
4427.8966
 21
2932.6586999999999
  0
LINE
  8
_0-0_
  6
CONTINUOUS
 62
    7
 10
1697.6166699999998
 20
1618.6013
 11
1697.6166699999998
 21
2869.1212999999997
  0
LINE
  8
_0-0_
  6
CONTINUOUS
 62
    7
 10
2284.1166000000002
 20
1618.6013
 11
2284.1166000000002
 21
2869.1212999999997
  0
LINE
  8
_0-0_
  6
CONTINUOUS
 62
    7
 10
1390.3426799999999
 20
1442.6514399999998
 11
1390.3426799999999
 21
2932.6586999999999
  0
LINE
  8
_0-0_
  6
CONTINUOUS
 62
    7
 10
1534.5993600000001
 20
1442.6514399999998
 11
1390.3426799999999
 21
1442.6514399999998
  0
LINE
  8
_0-0_
  6
CONTINUOUS
 62
    7
 10
1536.4813799999999
 20
2933.5131000000001
 11
1390.3426799999999
 21
2933.5131000000001
  0
LINE
  8
_0-0_
  6
CONTINUOUS
 62
    7
 10
1536.4813799999999
 20
2868.5131000000001
 11
1450.34263
 21
2868.5131000000001
  0
LINE
  8
_0-0_
  6
CONTINUOUS
 62
    7
 10
1534.5993600000001
 20
1592.6514399999998
 11
1450.34263
 21
1592.6514399999998
  0
LINE
  8
_0-0_
  6
CONTINUOUS
 62
    7
 10
1647.53807
 20
2919.8083999999998
 11
1647.53807
 21
2932.7269999999998
  0
LINE
  8
_0-0_
  6
CONTINUOUS
 62
    7
 10
1746.62986
 20
2910.6889999999998
 11
1745.50475
 21
2895.3117999999999
  0
LINE
  8
_0-0_
  6
CONTINUOUS
 62
    7
 10
2143.9041999999999
 20
2853.6696999999999
 11
2183.6282000000001
 21
2877.4461999999998
  0
LINE
  8
_0-0_
  6
CONTINUOUS
 62
    7
 10
1825.3229000000001
 20
2853.5217000000002
 11
2143.6576999999997
 21
2853.5217000000002
  0
LINE
  8
_0-0_
  6
CONTINUOUS
 62
    7
 10
1758.2735699999998
 20
2910.6102999999993
 11
1759.2933399999997
 21
2894.8047999999998
  0
LINE
  8
_0-0_
  6
CONTINUOUS
 62
    7
 10
1841.61929
 20
2909.8049
 11
1840.5216399999999
 21
2894.8047999999998
  0
LINE
  8
_0-0_
  6
CONTINUOUS
 62
    7
 10
1935.7249999999999
 20
2910.2469999999998
 11
1934.5947000000001
 21
2894.8047999999998
  0
LINE
  8
_0-0_
  6
CONTINUOUS
 62
    7
 10
2029.8308999999999
 20
2910.6889999999998
 11
2028.6687000000001
 21
2894.8047999999998
  0
LINE
  8
_0-0_
  6
CONTINUOUS
 62
    7
 10
2041.4749999999999
 20
2910.6102999999993
 11
2042.4944
 21
2894.8047999999998
  0
LINE
  8
_0-0_
  6
CONTINUOUS
 62
    7
 10
2124.8204
 20
2909.8049
 11
2123.7229999999999
 21
2894.8047999999998
  0
LINE
  8
_0-0_
  6
CONTINUOUS
 62
    7
 10
2136.4645999999997
 20
2909.7269000000001
 11
2137.4272
 21
2894.8047999999998
  0
LINE
  8
_0-0_
  6
CONTINUOUS
 62
    7
 10
2214.3904000000002
 20
2909.8049
 11
2213.2926999999999
 21
2894.8047999999998
  0
LINE
  8
_0-0_
  6
CONTINUOUS
 62
    7
 10
2226.0338999999999
 20
2909.7269000000001
 11
2226.9972000000002
 21
2894.8047999999998
  0
LINE
  8
_0-0_
  6
CONTINUOUS
 62
    7
 10
1853.2150599999999
 20
2910.4737
 11
1854.2263499999999
 21
2894.8047999999998
  0
LINE
  8
_0-0_
  6
CONTINUOUS
 62
    7
 10
1947.3917000000001
 20
2909.8191999999999
 11
1948.3604
 21
2894.8047999999998
  0
LINE
  8
_0-0_
  6
CONTINUOUS
 62
    7
 10
1787.4252599999999
 20
2877.3293999999996
 11
1826.3757599999999
 21
2852.8595999999997
  0
LINE
  8
_0-0_
  6
CONTINUOUS
 62
    7
 10
2254.2484999999996
 20
2933.1152000000001
 11
2251.7563
 21
2894.8047999999998
  0
LINE
  8
_0-0_
  6
CONTINUOUS
 62
    7
 10
2224.5244999999999
 20
2933.1152000000001
 11
2225.5270999999997
 21
2917.5891000000001
  0
LINE
  8
_0-0_
  6
CONTINUOUS
 62
    7
 10
2216.0961000000002
 20
2933.1152000000001
 11
2214.96
 21
2917.5959999999995
  0
LINE
  8
_0-0_
  6
CONTINUOUS
 62
    7
 10
2189.2678
 20
2933.1152000000001
 11
2192.3825999999999
 21
2894.8047999999998
  0
LINE
  8
_0-0_
  6
CONTINUOUS
 62
    7
 10
2164.6786999999999
 20
2933.1152000000001
 11
2162.1880000000001
 21
2894.8047999999998
  0
LINE
  8
_0-0_
  6
CONTINUOUS
 62
    7
 10
2126.527
 20
2933.1152000000001
 11
2125.3906999999999
 21
2917.5959999999995
  0
LINE
  8
_0-0_
  6
CONTINUOUS
 62
    7
 10
2134.9553
 20
2933.1152000000001
 11
2135.3059000000002
 21
2927.6855999999997
  0
LINE
  8
_0-0_
  6
CONTINUOUS
 62
    7
 10
2099.6984999999999
 20
2933.1152000000001
 11
2102.8132999999997
 21
2894.8047999999998
  0
LINE
  8
_0-0_
  6
CONTINUOUS
 62
    7
 10
2069.6325999999999
 20
2933.1152000000001
 11
2067.1408999999998
 21
2894.8047999999998
  0
LINE
  8
_0-0_
  6
CONTINUOUS
 62
    7
 10
2040.0229999999999
 20
2933.1152000000001
 11
2040.9672
 21
2918.4722000000001
  0
LINE
  8
_0-0_
  6
CONTINUOUS
 62
    7
 10
2031.4725
 20
2933.1152000000001
 11
2030.4014999999999
 21
2918.4801000000006
  0
LINE
  8
_0-0_
  6
CONTINUOUS
 62
    7
 10
2004.7809000000002
 20
2933.1152000000001
 11
2007.8954000000001
 21
2894.8047999999998
  0
LINE
  8
_0-0_
  6
CONTINUOUS
 62
    7
 10
1975.5547999999998
 20
2933.1152000000001
 11
1973.0627999999999
 21
2894.8047999999998
  0
LINE
  8
_0-0_
  6
CONTINUOUS
 62
    7
 10
1945.8885
 20
2933.1152000000001
 11
1946.8888999999999
 21
2917.6159999999999
  0
LINE
  8
_0-0_
  6
CONTINUOUS
 62
    7
 10
1937.3982
 20
2933.1152000000001
 11
1936.2951
 21
2918.0381999999999
  0
LINE
  8
_0-0_
  6
CONTINUOUS
 62
    7
 10
1910.6393
 20
2933.1152000000001
 11
1913.7536
 21
2894.8047999999998
  0
LINE
  8
_0-0_
  6
CONTINUOUS
 62
    7
 10
1881.4776000000001
 20
2933.1152000000001
 11
1878.9864
 21
2894.8047999999998
  0
LINE
  8
_0-0_
  6
CONTINUOUS
 62
    7
 10
1851.7549199999998
 20
2933.1152000000001
 11
1852.7196800000001
 21
2918.1565
  0
LINE
  8
_0-0_
  6
CONTINUOUS
 62
    7
 10
1843.3251399999999
 20
2933.1152000000001
 11
1842.1891399999999
 21
2917.5959999999995
  0
LINE
  8
_0-0_
  6
CONTINUOUS
 62
    7
 10
1816.4969700000001
 20
2933.1152000000001
 11
1819.6124800000002
 21
2894.8047999999998
  0
LINE
  8
_0-0_
  6
CONTINUOUS
 62
    7
 10
1786.4308
 20
2933.1152000000001
 11
1783.9390800000001
 21
2894.8047999999998
  0
LINE
  8
_0-0_
  6
CONTINUOUS
 62
    7
 10
1756.8221499999999
 20
2933.1152000000001
 11
1757.76663
 21
2918.4722000000001
  0
LINE
  8
_0-0_
  6
CONTINUOUS
 62
    7
 10
1748.2706299999999
 20
2933.1152000000001
 11
1747.1997099999998
 21
2918.4801000000006
  0
LINE
  8
_0-0_
  6
CONTINUOUS
 62
    7
 10
1721.5802899999998
 20
2933.1152000000001
 11
1724.6945700000001
 21
2894.8047999999998
  0
LINE
  8
_0-0_
  6
CONTINUOUS
 62
    7
 10
1686.9877099999998
 20
2877.3293999999996
 11
1787.4252599999999
 21
2877.3293999999996
  0
LINE
  8
_0-0_
  6
CONTINUOUS
 62
    7
 10
2183.4331999999999
 20
2877.3293999999996
 11
2297.8122000000003
 21
2877.3293999999996
  0
LINE
  8
_0-0_
  6
CONTINUOUS
 62
    7
 10
1650.9367200000001
 20
2933.1152000000001
 11
2333.3175999999998
 21
2933.1152000000001
  0
LINE
  8
_0-0_
  6
CONTINUOUS
 62
    7
 10
2298.1077
 20
2869.2824
 11
2295.7638999999999
 21
2933.1152000000001
  0
LINE
  8
_0-0_
  6
CONTINUOUS
 62
    7
 10
2330.6992
 20
2869.2824
 11
2333.3124000000002
 21
2932.9912000000003
  0
LINE
  8
_0-0_
  6
CONTINUOUS
 62
    7
 10
1650.9367200000001
 20
2933.1152000000001
 11
1653.5183799999999
 21
2869.2824
  0
LINE
  8
_0-0_
  6
CONTINUOUS
 62
    7
 10
1689.04591
 20
2933.1152000000001
 11
1686.69072
 21
2869.2824
  0
LINE
  8
_0-0_
  6
CONTINUOUS
 62
    7
 10
1687.6324100000001
 20
2894.8047999999998
 11
2297.1705999999999
 21
2894.8047999999998
  0
ARC
  8
_0-0_
  6
CONTINUOUS
 62
    7
 10
1726.9415100000001
 20
1618.6013
 40
29.325000000000002
 50
180
 51
270
  0
ARC
  8
_0-0_
  6
CONTINUOUS
 62
    7
 10
2254.7915000000002
 20
1618.6013
 40
29.325000000000002
 50
270
 51
0
  0
ARC
  8
_0-0_
  6
CONTINUOUS
 62
    7
 10
1599.5448900000001
 20
2202.7525
 40
5.5488868
 50
320.97088000000002
 51
129.05620999999996
  0
ARC
  8
_0-0_
  6
CONTINUOUS
 62
    7
 10
1583.67434
 20
2187.3198999999999
 40
9.1166969000000008
 50
190.55877000000003
 51
263.50152000000002
  0
ARC
  8
_0-0_
  6
CONTINUOUS
 62
    7
 10
2382.5392000000001
 20
2205.3253999999997
 40
5.5488868
 50
50.970885999999993
 51
219.05620999999999
  0
ARC
  8
_0-0_
  6
CONTINUOUS
 62
    7
 10
2397.9715000000001
 20
2189.4540999999999
 40
9.1166969000000008
 50
280.07702
 51
354.71802999999999
  0
ARC
  8
_0-0_
  6
CONTINUOUS
 62
    7
 10
2521.4499
 20
2202.7525
 40
5.5488868
 50
320.97088000000002
 51
129.05620999999996
  0
ARC
  8
_0-0_
  6
CONTINUOUS
 62
    7
 10
2505.5789999999997
 20
2187.3198999999999
 40
9.1166969000000008
 50
190.55877000000003
 51
263.50152000000002
  0
ARC
  8
_0-0_
  6
CONTINUOUS
 62
    7
 10
4376.8737
 20
2205.3253999999997
 40
5.5488868
 50
50.970885999999993
 51
219.05620999999999
  0
ARC
  8
_0-0_
  6
CONTINUOUS
 62
    7
 10
4392.3063000000001
 20
2189.4540999999999
 40
9.1166969000000008
 50
280.07702
 51
354.71802999999999
  0
POINT
  8
_0-0_
 62
    7
 10
1550.9915
 20
3000.2021000000004
  0
POINT
  8
_0-0_
 62
    7
 10
1646.7863499999998
 20
3000.2021000000004
  0
POINT
  8
_0-0_
 62
    7
 10
1697.6164199999998
 20
3000.2021000000004
  0
POINT
  8
_0-0_
 62
    7
 10
2284.1166000000002
 20
3000.2021000000004
  0
POINT
  8
_0-0_
 62
    7
 10
2334.9463999999998
 20
3000.2021000000004
  0
POINT
  8
_0-0_
 62
    7
 10
2430.7415
 20
3000.2021000000004
  0
POINT
  8
_0-0_
 62
    7
 10
1450.3423900000002
 20
1442.6514399999998
  0
POINT
  8
_0-0_
 62
    7
 10
1487.7901799999999
 20
1442.6514399999998
  0
POINT
  8
_0-0_
 62
    7
 10
1487.7901799999999
 20
1481.7513800000001
  0
POINT
  8
_0-0_
 62
    7
 10
1550.9915
 20
1360.9122899999999
  0
POINT
  8
_0-0_
 62
    7
 10
1590.0914499999998
 20
1360.9122899999999
  0
POINT
  8
_0-0_
 62
    7
 10
2391.6415000000001
 20
1360.9122899999999
  0
POINT
  8
_0-0_
 62
    7
 10
2430.7415
 20
1360.9122899999999
  0
POINT
  8
_0-0_
 62
    7
 10
2472.8963000000003
 20
3001.5407
  0
POINT
  8
_0-0_
 62
    7
 10
4427.8966
 20
3001.5407
  0
POINT
  8
_0-0_
 62
    7
 10
1450.34263
 20
2933.5131000000001
  0
POINT
  8
_0-0_
 62
    7
 10
1390.3426799999999
 20
2932.6586999999999
  0
POINT
  8
_0-0_
 62
    7
 10
1390.3426799999999
 20
1442.6514399999998
  0
POINT
  8
_0-0_
 62
    7
 10
1450.34263
 20
1592.6514399999998
  0
LINE
  8
_0-0_
  6
CONTINUOUS
 62
    7
 10
1550.9915
 20
1859.7456999999999
 11
1697.6166699999998
 21
1859.7456999999999
  0
POINT
  8
_0-0_
 62
    7
 10
1550.9915
 20
1859.7456999999999
  0
POINT
  8
_0-0_
 62
    7
 10
1697.6166699999998
 20
1859.7456999999999
  0
LINE
  8
_0-0_
  6
CONTINUOUS
 62
    7
 10
1550.9915
 20
1859.7456999999999
 11
1550.9915
 21
1735.1693999999999
  0
LINE
  8
_0-0_
  6
CONTINUOUS
 62
    7
 10
1697.6166699999998
 20
1859.7456999999999
 11
1697.6166699999998
 21
1735.1693999999999
  0
LINE
  8
_0-0_
  6
CONTINUOUS
 62
    7
 10
1697.6166699999998
 20
1859.7456999999999
 11
2284.1166000000002
 21
1859.7456999999999
  0
POINT
  8
_0-0_
 62
    7
 10
2284.1166000000002
 20
1859.7456999999999
  0
LINE
  8
_0-0_
  6
CONTINUOUS
 62
    7
 10
2284.1166000000002
 20
1859.7456999999999
 11
2284.1166000000002
 21
1735.1693999999999
  0
LINE
  8
_0-0_
  6
CONTINUOUS
 62
    7
 10
2284.1166000000002
 20
1859.7456999999999
 11
2430.7415
 21
1859.7456999999999
  0
POINT
  8
_0-0_
 62
    7
 10
2430.7415
 20
1859.7456999999999
  0
LINE
  8
_0-0_
  6
CONTINUOUS
 62
    7
 10
2430.7415
 20
1859.7456999999999
 11
2430.7415
 21
1735.1693999999999
  0
ENDSEC
  0
EOF
