  0
SECTION
  2
HEADER
  9
$ACADVER
  1
AC1009
  9
$INSBASE
 10
0
 20
0
 30
0
  9
$EXTMIN
 10
0
 20
0
  9
$EXTMAX
 10
5940
 20
4200
  9
$LIMMIN
 10
0
 20
0
  9
$LIMMAX
 10
5940
 20
4200
  9
$LTSCALE
 40
10
  0
ENDSEC
  0
SECTION
  2
TABLES
  0
TABLE
  2
LTYPE
 70
     9
  0
LTYPE
  2
CONTINUOUS
 70
    64
  3
実線
 72
    65
 73
     0
 40
0.0
  0
LTYPE
  2
DASHED1
 70
    64
  3
--  --  --  --  --  --  --  --  
 72
    65
 73
     2
 40
2.5
 49
1.25
 49
-1.25
  0
LTYPE
  2
DASHED2
 70
    64
  3
----    ----    ----    ----    
 72
    65
 73
     2
 40
5.0
 49
2.5
 49
-2.5
  0
LTYPE
  2
DASHED3
 70
    64
  3
------  ------  ------  ------  
 72
    65
 73
     2
 40
5.0
 49
3.75
 49
-1.25
  0
LTYPE
  2
CENTER1
 70
    64
  3
----- - ----- - ----- - ----- - 
 72
    65
 73
     4
 40
10.0
 49
6.25
 49
-1.25
 49
1.25
 49
-1.25
  0
LTYPE
  2
CENTER2
 70
    64
  3
----------  --  ----------  --  
 72
    65
 73
     4
 40
20.0
 49
12.5
 49
-2.5
 49
2.5
 49
-2.5
  0
LTYPE
  2
PHANTOM1
 70
    64
  3
--- - - --- - - --- - - --- - - 
 72
    65
 73
     6
 40
10.0
 49
3.25
 49
-1.25
 49
1.25
 49
-1.25
 49
1.25
 49
-1.25
  0
LTYPE
  2
PHANTOM2
 70
    64
  3
--------  -  -  --------  -  -  
 72
    65
 73
     6
 40
20.0
 49
10.0
 49
-2.5
 49
1.25
 49
-2.5
 49
1.25
 49
-2.5
  0
LTYPE
  2
DOT
 70
    64
  3
-   -   -   -   -   -   -   -   
 72
    65
 73
     2
 40
2.5
 49
0.625
 49
-1.875
  0
LTYPE
  2
DUMMY
 70
    64
  3
ダミー
 72
    65
 73
     0
 40
0.0
  0
LTYPE
  2
RAND1
 70
    64
  3
ランダム線1
 72
    65
 73
     4
 40
10.0
 49
1.0
 49
-2.0
 49
3.0
 49
-4.0
  0
LTYPE
  2
RAND2
 70
    64
  3
ランダム線2
 72
    65
 73
     4
 40
14.0
 49
2.0
 49
-3.0
 49
4.0
 49
-5.0
  0
LTYPE
  2
RAND3
 70
    64
  3
ランダム線3
 72
    65
 73
     4
 40
18.0
 49
3.0
 49
-4.0
 49
5.0
 49
-6.0
  0
LTYPE
  2
RAND4
 70
    64
  3
ランダム線4
 72
    65
 73
     4
 40
22.0
 49
4.0
 49
-5.0
 49
6.0
 49
-7.0
  0
LTYPE
  2
RAND5
 70
    64
  3
ランダム線5
 72
    65
 73
     4
 40
26.0
 49
5.0
 49
-6.0
 49
7.0
 49
-8.0
  0
LTYPE
  2
LONG1
 70
    64
  3
----------  --  ----------  --  
 72
    65
 73
     4
 40
40.0
 49
32.5
 49
-2.5
 49
2.5
 49
-2.5
  0
LTYPE
  2
LONG2
 70
    64
  3
--------  -  -  --------  -  -  
 72
    65
 73
     6
 40
40.0
 49
30.0
 49
-2.5
 49
1.25
 49
-2.5
 49
1.25
 49
-2.5
  0
LTYPE
  2
LONG3
 70
    64
  3
+++++++++++++++..+++++++++++++++
 72
    65
 73
     2
 40
40.0
 49
37.5
 49
-2.5
  0
LTYPE
  2
LONG4
 70
    64
  3
+++++++++++++++..+++++++++++++++
 72
    65
 73
     2
 40
80.0
 49
75.0
 49
-5.0
  0
LTYPE
  2
LONG5
 70
    64
  3
----------  --  ----------  --  
 72
    65
 73
     4
 40
60.0
 49
37.5
 49
-7.5
 49
7.5
 49
-7.5
  0
LTYPE
  2
dashed
 70
   64
  3
-------   -------------   ------
 72
   65
 73
    2
 40
7.5
 49
6
 49
-1.5
  0
LTYPE
  2
dashed_spaced
 70
   64
  3
----        --------        ----
 72
   65
 73
    2
 40
12
 49
6
 49
-6
  0
LTYPE
  2
long_dashed_dotted
 70
   64
  3
------------- --- --------------
 72
   65
 73
    4
 40
15.25
 49
12
 49
-1.5
 49
0.25
 49
-1.5
  0
LTYPE
  2
long_dashed_double-dotted
 70
   64
  3
----------- --- --- ------------
 72
   65
 73
    6
 40
17
 49
12
 49
-1.5
 49
0.25
 49
-1.5
 49
0.25
 49
-1.5
  0
LTYPE
  2
long_dashed_triplicate-dotted
 70
   64
  3
--------- --- --- --- ----------
 72
   65
 73
    8
 40
18.75
 49
12
 49
-1.5
 49
0.25
 49
-1.5
 49
0.25
 49
-1.5
 49
0.25
 49
-1.5
  0
LTYPE
  2
dotted
 70
   64
  3
   -       -       -       -    
 72
   65
 73
    2
 40
1.75
 49
0.25
 49
-1.5
  0
LTYPE
  2
chain
 70
   64
  3
-------------- -- --------------
 72
   65
 73
    4
 40
18.5
 49
12
 49
-1.5
 49
3.5
 49
-1.5
  0
LTYPE
  2
chain_double_dash
 70
   64
  3
------------ -- -- -------------
 72
   65
 73
    6
 40
23.5
 49
12
 49
-1.5
 49
3.5
 49
-1.5
 49
3.5
 49
-1.5
  0
LTYPE
  2
dashed_dotted
 70
   64
  3
-----------     -     ----------
 72
   65
 73
    4
 40
9.25
 49
6
 49
-1.5
 49
0.25
 49
-1.5
  0
LTYPE
  2
double-dashed_dotted
 70
   64
  3
------   -----------   -   -----
 72
   65
 73
    6
 40
16.75
 49
6
 49
-1.5
 49
6
 49
-1.5
 49
0.25
 49
-1.5
  0
LTYPE
  2
dashed_double-dotted
 70
   64
  3
---------    -    -    ---------
 72
   65
 73
    6
 40
11
 49
6
 49
-1.5
 49
0.25
 49
-1.5
 49
0.25
 49
-1.5
  0
LTYPE
  2
double-dashed_double-dotted
 70
   64
  3
-----   ---------   -   -   ----
 72
   65
 73
    8
 40
18.5
 49
6
 49
-1.5
 49
6
 49
-1.5
 49
0.25
 49
-1.5
 49
0.25
 49
-1.5
  0
LTYPE
  2
dashed_triplicate-dotted
 70
   64
  3
-------    -    -    -    ------
 72
   65
 73
    8
 40
12.75
 49
6
 49
-1.5
 49
0.25
 49
-1.5
 49
0.25
 49
-1.5
 49
0.25
 49
-1.5
  0
LTYPE
  2
double-dashed_triplicate-dotted
 70
   64
  3
-----  ---------  -  -  -  -----
 72
   65
 73
   10
 40
20.25
 49
6
 49
-1.5
 49
6
 49
-1.5
 49
0.25
 49
-1.5
 49
0.25
 49
-1.5
 49
0.25
 49
-1.5
  0
LTYPE
  2
undefined
 70
   64
  3
--------------------------------
 72
   65
 73
    0
 40
0
  0
ENDTAB
  0
TABLE
  2
STYLE
  5
3
100
AcDbSymbolTable
 70
     1
  0
STYLE
  5
10
100
AcDbSymbolTableRecord
100
AcDbTextStyleTableRecord
  2
STANDARD
 70
     0
 40
0.0
 41
1.0
 50
0.0
 71
     0
 42
0.2
  3
txt
  4
bigfont.shx
  0
STYLE
  5
26
100
AcDbSymbolTableRecord
100
AcDbTextStyleTableRecord
  2
TATEGAKI
 70
    68
 40
0.0
 41
1.0
 50
0.0
 71
     0
 42
1.0
  3
txt
  4
bigfont.shx
  0
ENDTAB
  0
TABLE
  2
LAYER
 70
    2
  0
LAYER
  2
_0-0_
 70
   64
 62
    7
  6
CONTINUOUS
  0
LAYER
  2
ADD_LINE
 70
   64
 62
    7
  6
CONTINUOUS
  0
ENDTAB
  0
ENDSEC
  0
SECTION
  2
BLOCKS
  0
ENDSEC
  0
SECTION
  2
ENTITIES
  0
TEXT
  8
_0-0_
 62
    7
 10
2713.6342782261318
 20
1195.3247314733849
 40
48
 41
1
 50
0
  1
図番
  0
TEXT
  8
_0-0_
 62
    7
 10
3069.0480285127414
 20
1195.5030686987775
 40
48
 41
1
 50
0
  1
参考重量
  0
TEXT
  8
_0-0_
 62
    7
 10
1488.9575857142861
 20
2882.9535571428569
 40
60
 41
1
 50
0
  1
断  面  図
  0
TEXT
  8
_0-0_
 62
    7
 10
2899.7652410066962
 20
2882.9535571428569
 40
60
 41
1
 50
0
  1
側　面　図
  0
TEXT
  8
_0-0_
 62
    7
 10
2062.3688000000002
 20
2356.7879890809827
 40
30
 41
1
 50
0
  1
52
  0
TEXT
  8
_0-0_
 62
    7
 10
1619.1278050000001
 20
2356.7879890809827
 40
30
 41
1
 50
0
  1
98
  0
TEXT
  8
_0-0_
 62
    7
 10
2122.5938500000002
 20
2356.7879890809827
 40
30
 41
1
 50
0
  1
98
  0
TEXT
  8
_0-0_
 62
    7
 10
1602.7012281122988
 20
1650.1665137620162
 40
30
 41
1
 50
0
  1
40
  0
TEXT
  8
_0-0_
 62
    7
 10
2165.4071339803709
 20
1650.1665137620162
 40
30
 41
1
 50
0
  1
40
  0
TEXT
  8
_0-0_
 62
    7
 10
2254.8857291581162
 20
1773.5419864934761
 40
30
 41
1
 50
90
  1
150
  0
TEXT
  8
_0-0_
 62
    7
 10
2256.0940320871032
 20
2236.7212472007918
 40
30
 41
1
 50
90
  1
50
  0
TEXT
  8
_0-0_
 62
    7
 10
3544.4983499999998
 20
2356.7879890809827
 40
30
 41
1
 50
0
  1
2000
  0
TEXT
  8
_0-0_
 62
    7
 10
2394.8571428571427
 20
1189.4693877551024
 40
48
 41
1
 50
0
  1
分類
  0
TEXT
  8
_0-0_
 62
    7
 10
1320.637794126138
 20
1195.8097530238015
 40
48
 41
1
 50
0
  1
名称
  0
TEXT
  8
_0-0_
 62
    7
 10
3668.7334188653276
 20
1194.8247418927426
 40
48
 41
1
 50
0
  1
岩城ブロック工業株式会社
  0
TEXT
  8
_0-0_
 62
    7
 10
1714.6981021708048
 20
2354.9818016378526
 40
30
 41
1
 50
0
  1
52
  0
TEXT
  8
_0-0_
 62
    7
 10
1863.1993950000003
 20
2356.7879890809827
 40
30
 41
1
 50
0
  1
400
  0
TEXT
  8
_0-0_
 62
    7
 10
1863.3969750000003
 20
1650.1665137620162
 40
30
 41
1
 50
0
  1
620
  0
TEXT
  8
_0-0_
 62
    7
 10
1861.4565189132977
 20
1608.0027297543222
 40
30
 41
1
 50
0
  1
700
  0
LINE
  8
_0-0_
  6
CONTINUOUS
 62
    7
 10
1297.0270600000001
 20
1169.7297700000001
 11
1297.0270600000001
 21
3319.729499999999
  0
LINE
  8
_0-0_
  6
CONTINUOUS
 62
    7
 10
1297.0270600000001
 20
3319.729499999999
 11
4497.0267999999996
 21
3319.729499999999
  0
LINE
  8
_0-0_
  6
CONTINUOUS
 62
    7
 10
4497.0267999999996
 20
3319.729499999999
 11
4497.0267999999996
 21
1169.7297700000001
  0
LINE
  8
_0-0_
  6
CONTINUOUS
 62
    7
 10
4497.0267999999996
 20
1169.7297700000001
 11
1297.0270600000001
 21
1169.7297700000001
  0
LINE
  8
_0-0_
  6
CONTINUOUS
 62
    7
 10
4497.0267999999996
 20
1269.72972
 11
1297.02719
 21
1269.72972
  0
LINE
  8
_0-0_
  6
CONTINUOUS
 62
    7
 10
1447.0270599999999
 20
1169.7297700000001
 11
1447.0270599999999
 21
1269.72972
  0
LINE
  8
_0-0_
  6
CONTINUOUS
 62
    7
 10
2697.0269000000003
 20
1169.7297700000001
 11
2697.0269000000003
 21
1269.72972
  0
LINE
  8
_0-0_
  6
CONTINUOUS
 62
    7
 10
2847.0267999999996
 20
1169.7297700000001
 11
2847.0267999999996
 21
1269.72972
  0
LINE
  8
_0-0_
  6
CONTINUOUS
 62
    7
 10
2397.0269000000003
 20
1169.7297700000001
 11
2397.0269000000003
 21
1269.72972
  0
LINE
  8
_0-0_
  6
CONTINUOUS
 62
    7
 10
3047.0266999999994
 20
1169.7297700000001
 11
3047.0266999999994
 21
1269.72972
  0
LINE
  8
_0-0_
  6
CONTINUOUS
 62
    7
 10
3297.0267999999996
 20
1169.7297700000001
 11
3297.0267999999996
 21
1269.72972
  0
LINE
  8
_0-0_
  6
CONTINUOUS
 62
    7
 10
3547.0268999999998
 20
1169.7297700000001
 11
3547.0268999999998
 21
1269.72972
  0
LINE
  8
_0-0_
  6
CONTINUOUS
 62
    7
 10
2103.3906999999999
 20
2282.4518354934762
 11
2201.7970000000009
 21
2282.4518354934762
  0
LINE
  8
_0-0_
  6
CONTINUOUS
 62
    7
 10
1599.9969600000004
 20
2282.4518354934762
 11
1698.2586500000002
 21
2282.4518354934762
  0
LINE
  8
_0-0_
  6
CONTINUOUS
 62
    7
 10
1759.3061400000008
 20
1905.758635493476
 11
1750.0518899999997
 21
2232.3017354934764
  0
LINE
  8
_0-0_
  6
CONTINUOUS
 62
    7
 10
2020.7243000000005
 20
1886.266935493476
 11
1779.3581700000004
 21
1886.266935493476
  0
LINE
  8
_0-0_
  6
CONTINUOUS
 62
    7
 10
1599.9969600000004
 20
1775.9368354934763
 11
1640.1168499999999
 21
1735.8169354934762
  0
LINE
  8
_0-0_
  6
CONTINUOUS
 62
    7
 10
2161.6771000000008
 20
1735.8169354934762
 11
1640.1168499999999
 21
1735.8169354934762
  0
LINE
  8
_0-0_
  6
CONTINUOUS
 62
    7
 10
2161.6771000000008
 20
1735.8169354934762
 11
2201.7970000000009
 21
1775.9368354934763
  0
LINE
  8
_0-0_
  6
CONTINUOUS
 62
    7
 10
1698.2586500000002
 20
2282.4518354934762
 11
1700.1724800000006
 21
2232.3017354934764
  0
LINE
  8
_0-0_
  6
CONTINUOUS
 62
    7
 10
2051.3469000000005
 20
2232.3017354934764
 11
2101.4956000000002
 21
2232.3017354934764
  0
LINE
  8
_0-0_
  6
CONTINUOUS
 62
    7
 10
1599.9969600000004
 20
2227.286935493476
 11
1605.0119500000001
 21
2227.286935493476
  0
LINE
  8
_0-0_
  6
CONTINUOUS
 62
    7
 10
1605.0119500000001
 20
2277.4365354934757
 11
1693.4309800000003
 21
2277.4365354934757
  0
LINE
  8
_0-0_
  6
CONTINUOUS
 62
    7
 10
1605.0119500000001
 20
2227.286935493476
 11
1605.0119500000001
 21
2277.4365354934757
  0
LINE
  8
_0-0_
  6
CONTINUOUS
 62
    7
 10
1693.4309800000003
 20
2277.4365354934757
 11
1695.3451700000003
 21
2227.286935493476
  0
LINE
  8
_0-0_
  6
CONTINUOUS
 62
    7
 10
1700.1724800000006
 20
2232.3017354934764
 11
1750.0518899999997
 21
2232.3017354934764
  0
LINE
  8
_0-0_
  6
CONTINUOUS
 62
    7
 10
2106.3245999999999
 20
2227.286935493476
 11
2108.2197999999999
 21
2277.4365354934757
  0
LINE
  8
_0-0_
  6
CONTINUOUS
 62
    7
 10
2108.2197999999999
 20
2277.4365354934757
 11
2196.7819000000004
 21
2277.4365354934757
  0
LINE
  8
_0-0_
  6
CONTINUOUS
 62
    7
 10
2196.7819000000004
 20
2227.286935493476
 11
2201.7970000000009
 21
2227.286935493476
  0
LINE
  8
_0-0_
  6
CONTINUOUS
 62
    7
 10
2196.7819000000004
 20
2227.286935493476
 11
2196.7819000000004
 21
2277.4365354934757
  0
LINE
  8
_0-0_
  6
CONTINUOUS
 62
    7
 10
4334.9982999999993
 20
1777.6988354934761
 11
4334.9982999999993
 21
2284.213635493476
  0
LINE
  8
_0-0_
  6
CONTINUOUS
 62
    7
 10
4294.8780999999999
 20
1737.578735493476
 11
4334.9982999999993
 21
1777.6988354934761
  0
LINE
  8
_0-0_
  6
CONTINUOUS
 62
    7
 10
2101.4964000000004
 20
2232.325135493476
 11
2103.3908000000001
 21
2282.4518354934762
  0
ARC
  8
_0-0_
  6
CONTINUOUS
 62
    7
 10
1779.3581700000004
 20
1906.3270354934762
 40
20.059997999999997
 50
181.62350000000001
 51
270
  0
ARC
  8
_0-0_
  6
CONTINUOUS
 62
    7
 10
2020.7243000000005
 20
1906.3270354934762
 40
20.059997999999997
 50
270
 51
358.14458999999999
  0
LINE
  8
_0-0_
  6
CONTINUOUS
 62
    7
 10
1599.9969600000004
 20
2227.286935493476
 11
1599.9969600000004
 21
1775.9368354934763
  0
LINE
  8
_0-0_
  6
CONTINUOUS
 62
    7
 10
2201.7970000000009
 20
2227.286935493476
 11
2201.7970000000009
 21
1775.9368354934763
  0
LINE
  8
_0-0_
  6
CONTINUOUS
 62
    7
 10
1599.9969600000004
 20
2282.4518354934762
 11
1599.9969600000004
 21
2227.286935493476
  0
LINE
  8
_0-0_
  6
CONTINUOUS
 62
    7
 10
2201.7970000000009
 20
2282.4518354934762
 11
2201.7970000000009
 21
2227.286935493476
  0
LINE
  8
_0-0_
  6
CONTINUOUS
 62
    7
 10
1605.0119500000001
 20
2227.286935493476
 11
1599.9969600000004
 21
2232.3019254934761
  0
LINE
  8
_0-0_
  6
CONTINUOUS
 62
    7
 10
1625.5730281186557
 20
2277.4365354934757
 11
1620.5577281186547
 21
2282.4518354934762
  0
LINE
  8
_0-0_
  6
CONTINUOUS
 62
    7
 10
1611.4308924949239
 20
2277.4365354934757
 11
1606.4155924949246
 21
2282.4518354934762
  0
LINE
  8
_0-0_
  6
CONTINUOUS
 62
    7
 10
1605.0119500000001
 20
2269.7133423646692
 11
1599.9969600000004
 21
2274.7283323646689
  0
LINE
  8
_0-0_
  6
CONTINUOUS
 62
    7
 10
1605.0119500000001
 20
2255.5712067409381
 11
1599.9969600000004
 21
2260.5861967409378
  0
LINE
  8
_0-0_
  6
CONTINUOUS
 62
    7
 10
1605.0119500000001
 20
2241.4290711172071
 11
1599.9969600000004
 21
2246.4440611172067
  0
LINE
  8
_0-0_
  6
CONTINUOUS
 62
    7
 10
1639.7151637423858
 20
2277.4365354934757
 11
1634.699863742386
 21
2282.4518354934762
  0
LINE
  8
_0-0_
  6
CONTINUOUS
 62
    7
 10
1653.8572993661173
 20
2277.4365354934757
 11
1648.8419993661169
 21
2282.4518354934762
  0
LINE
  8
_0-0_
  6
CONTINUOUS
 62
    7
 10
1667.9994349898482
 20
2277.4365354934757
 11
1662.9841349898479
 21
2282.4518354934762
  0
LINE
  8
_0-0_
  6
CONTINUOUS
 62
    7
 10
1682.141570613579
 20
2277.4365354934757
 11
1677.1262706135785
 21
2282.4518354934762
  0
LINE
  8
_0-0_
  6
CONTINUOUS
 62
    7
 10
1704.0068993661175
 20
2227.286935493476
 11
1695.0014350605577
 21
2236.2923997990356
  0
LINE
  8
_0-0_
  6
CONTINUOUS
 62
    7
 10
1718.1490349898486
 20
2227.286935493476
 11
1713.1342349898478
 21
2232.3017354934764
  0
LINE
  8
_0-0_
  6
CONTINUOUS
 62
    7
 10
1699.6582073260925
 20
2245.7777631572317
 11
1694.440213862488
 21
2250.9957566208359
  0
LINE
  8
_0-0_
  6
CONTINUOUS
 62
    7
 10
1732.291170613579
 20
2227.286935493476
 11
1727.2763706135788
 21
2232.3017354934764
  0
LINE
  8
_0-0_
  6
CONTINUOUS
 62
    7
 10
1699.0971016804701
 20
2260.4810044265841
 11
1693.8789926644181
 21
2265.6991134426366
  0
LINE
  8
_0-0_
  6
CONTINUOUS
 62
    7
 10
1698.5359960348478
 20
2275.1842456959384
 11
1691.2684062373103
 21
2282.4518354934762
  0
LINE
  8
_0-0_
  6
CONTINUOUS
 62
    7
 10
2060.3756437626907
 20
2227.286935493476
 11
2055.3608437626908
 21
2232.3017354934764
  0
LINE
  8
_0-0_
  6
CONTINUOUS
 62
    7
 10
2074.5177793864214
 20
2227.286935493476
 11
2069.5029793864214
 21
2232.3017354934764
  0
LINE
  8
_0-0_
  6
CONTINUOUS
 62
    7
 10
2088.6599150101529
 20
2227.286935493476
 11
2083.645115010152
 21
2232.3017354934764
  0
LINE
  8
_0-0_
  6
CONTINUOUS
 62
    7
 10
2102.8020506338835
 20
2227.286935493476
 11
2097.7872506338836
 21
2232.3017354934764
  0
LINE
  8
_0-0_
  6
CONTINUOUS
 62
    7
 10
2106.7113099090675
 20
2237.519811842023
 11
2101.8754754175984
 21
2242.3556463334917
  0
LINE
  8
_0-0_
  6
CONTINUOUS
 62
    7
 10
2107.2262926822568
 20
2251.1469646925643
 11
2102.3904753258203
 21
2255.9827820490013
  0
LINE
  8
_0-0_
  6
CONTINUOUS
 62
    7
 10
2107.7412754554462
 20
2264.7741175431056
 11
2102.9054752340421
 21
2269.6099177645106
  0
LINE
  8
_0-0_
  6
CONTINUOUS
 62
    7
 10
2109.2209931288071
 20
2277.4365354934757
 11
2104.2056931288071
 21
2282.4518354934762
  0
LINE
  8
_0-0_
  6
CONTINUOUS
 62
    7
 10
2123.3631287525386
 20
2277.4365354934757
 11
2118.3478287525386
 21
2282.4518354934762
  0
LINE
  8
_0-0_
  6
CONTINUOUS
 62
    7
 10
2137.5052643762692
 20
2277.4365354934757
 11
2132.4899643762692
 21
2282.4518354934762
  0
LINE
  8
_0-0_
  6
CONTINUOUS
 62
    7
 10
2201.7970000000009
 20
2227.286935493476
 11
2196.7819000000004
 21
2232.3020354934761
  0
LINE
  8
_0-0_
  6
CONTINUOUS
 62
    7
 10
2151.6474000000007
 20
2277.4365354934757
 11
2146.6320999999998
 21
2282.4518354934762
  0
LINE
  8
_0-0_
  6
CONTINUOUS
 62
    7
 10
2201.7970000000009
 20
2241.4290711172071
 11
2196.7819000000004
 21
2246.4441711172071
  0
LINE
  8
_0-0_
  6
CONTINUOUS
 62
    7
 10
2165.7895356237314
 20
2277.4365354934757
 11
2160.7742356237309
 21
2282.4518354934762
  0
LINE
  8
_0-0_
  6
CONTINUOUS
 62
    7
 10
2201.7970000000009
 20
2255.5712067409381
 11
2196.7819000000004
 21
2260.5863067409382
  0
LINE
  8
_0-0_
  6
CONTINUOUS
 62
    7
 10
2179.931671247462
 20
2277.4365354934757
 11
2174.9163712474619
 21
2282.4518354934762
  0
LINE
  8
_0-0_
  6
CONTINUOUS
 62
    7
 10
2201.7970000000009
 20
2269.7133423646692
 11
2196.7819000000004
 21
2274.7284423646688
  0
LINE
  8
_0-0_
  6
CONTINUOUS
 62
    7
 10
2194.073806871193
 20
2277.4365354934757
 11
2189.058506871193
 21
2282.4518354934762
  0
LINE
  8
_0-0_
  6
CONTINUOUS
 62
    7
 10
1650.1168499999994
 20
1987.3169354934762
 11
1650.1168499999994
 21
2027.3169354934762
  0
LINE
  8
_0-0_
  6
CONTINUOUS
 62
    7
 10
1650.1168499999994
 20
2027.3169354934762
 11
1600.1168500000006
 21
2027.3169354934762
  0
LINE
  8
_0-0_
  6
CONTINUOUS
 62
    7
 10
1650.1168499999994
 20
1987.3169354934762
 11
1599.9969600000004
 21
1987.3169354934762
  0
CIRCLE
  8
_0-0_
  6
CONTINUOUS
 62
    7
 10
1624.9969600000004
 20
2007.3169354934762
 40
7.4705822342892683
  0
LINE
  8
_0-0_
  6
CONTINUOUS
 62
    7
 10
2201.7961575252734
 20
1987.3169354934762
 11
2201.7961575252734
 21
2027.3169354934762
  0
LINE
  8
_0-0_
  6
CONTINUOUS
 62
    7
 10
2201.7961575252734
 20
2027.3169354934762
 11
2151.7961575252734
 21
2027.3169354934762
  0
LINE
  8
_0-0_
  6
CONTINUOUS
 62
    7
 10
2201.7961575252734
 20
1987.3169354934762
 11
2151.6762675252739
 21
1987.3169354934762
  0
CIRCLE
  8
_0-0_
  6
CONTINUOUS
 62
    7
 10
2176.6762675252739
 20
2007.3169354934762
 40
7.4705822342892683
  0
LINE
  8
_0-0_
  6
CONTINUOUS
 62
    7
 10
4335.0044542679188
 20
1987.3169354934762
 11
4335.0044542679188
 21
2027.3169354934762
  0
LINE
  8
_0-0_
  6
CONTINUOUS
 62
    7
 10
4335.0044542679188
 20
2027.3169354934762
 11
4285.0044542679188
 21
2027.3169354934762
  0
LINE
  8
_0-0_
  6
CONTINUOUS
 62
    7
 10
4335.0044542679188
 20
1987.3169354934762
 11
4284.8845642679189
 21
1987.3169354934762
  0
CIRCLE
  8
_0-0_
  6
CONTINUOUS
 62
    7
 10
4309.8845642679189
 20
2007.3169354934762
 40
7.4705822342892683
  0
LINE
  8
_0-0_
  6
CONTINUOUS
 62
    7
 10
4285.0044542679188
 20
2027.3169354934762
 11
4285.0044542679188
 21
1987.3169354934762
  0
LINE
  8
_0-0_
  6
CONTINUOUS
 62
    7
 10
2151.7961575252734
 20
2027.3169354934762
 11
2151.7961575252734
 21
1987.3169354934762
  0
LINE
  8
_0-0_
  6
CONTINUOUS
 62
    7
 10
2828.9983999999999
 20
1777.6988354934761
 11
2828.9983999999999
 21
2284.213635493476
  0
LINE
  8
_0-0_
  6
CONTINUOUS
 62
    7
 10
2877.3379618716272
 20
1987.3169354934762
 11
2877.3379618716272
 21
2027.3169354934762
  0
CIRCLE
  8
_0-0_
  6
CONTINUOUS
 62
    7
 10
2852.2180718716272
 20
2007.3169354934762
 40
7.4705822342892683
  0
LINE
  8
_0-0_
  6
CONTINUOUS
 62
    7
 10
4294.8780999999999
 20
1737.578735493476
 11
2869.1183000014225
 21
1737.578735493476
  0
LINE
  8
_0-0_
  6
CONTINUOUS
 62
    7
 10
2828.9983999999999
 20
1777.6988354934761
 11
2869.1183000014225
 21
1737.578735493476
  0
LINE
  8
_0-0_
  6
CONTINUOUS
 62
    7
 10
4334.9982999999993
 20
1888.028835493476
 11
2828.9983999999999
 21
1888.028835493476
  0
LINE
  8
_0-0_
  6
CONTINUOUS
 62
    7
 10
2828.9983999999999
 20
2234.0640354934762
 11
4334.9982999999993
 21
2234.0640354934762
  0
LINE
  8
_0-0_
  6
CONTINUOUS
 62
    7
 10
2828.9983999999999
 20
2284.213635493476
 11
4334.9982999999993
 21
2284.213635493476
  0
LINE
  8
_0-0_
  6
CONTINUOUS
 62
    7
 10
2877.3379618716272
 20
1987.3169354934762
 11
2828.9983999999999
 21
1987.3169354934762
  0
LINE
  8
_0-0_
  6
CONTINUOUS
 62
    7
 10
2877.3379618716272
 20
2027.3169354934762
 11
2828.9983999999999
 21
2027.3169354934762
  0
LINE
  8
_0-0_
  6
CONTINUOUS
 62
    7
 10
1599.9969600000004
 20
2350.7879890809827
 11
1698.2586500000002
 21
2350.7879890809827
  0
POINT
  8
_0-0_
 62
    7
 10
1599.9969600000004
 20
2350.7879890809827
  0
POINT
  8
_0-0_
 62
    7
 10
1698.2586500000002
 20
2350.7879890809827
  0
LINE
  8
_0-0_
  6
CONTINUOUS
 62
    7
 10
1599.9969600000004
 20
2350.7879890809827
 11
1599.9969600000004
 21
2297.5109840114387
  0
LINE
  8
_0-0_
  6
CONTINUOUS
 62
    7
 10
1698.2586500000002
 20
2350.7879890809827
 11
1698.2586500000002
 21
2297.5109840114387
  0
LINE
  8
_0-0_
  6
CONTINUOUS
 62
    7
 10
1698.2586500000002
 20
2350.7879890809827
 11
1750.0518899999997
 21
2350.7879890809827
  0
POINT
  8
_0-0_
 62
    7
 10
1750.0518899999997
 20
2350.7879890809827
  0
LINE
  8
_0-0_
  6
CONTINUOUS
 62
    7
 10
1750.0518899999997
 20
2350.7879890809827
 11
1750.0518899999997
 21
2297.5109840114387
  0
LINE
  8
_0-0_
  6
CONTINUOUS
 62
    7
 10
1750.0518899999997
 20
2350.7879890809827
 11
2051.3469000000005
 21
2350.7879890809827
  0
POINT
  8
_0-0_
 62
    7
 10
2051.3469000000005
 20
2350.7879890809827
  0
LINE
  8
_0-0_
  6
CONTINUOUS
 62
    7
 10
2051.3469000000005
 20
2350.7879890809827
 11
2051.3469000000005
 21
2297.5109840114387
  0
LINE
  8
_0-0_
  6
CONTINUOUS
 62
    7
 10
2051.3469000000005
 20
2350.7879890809827
 11
2103.3906999999999
 21
2350.7879890809827
  0
POINT
  8
_0-0_
 62
    7
 10
2103.3906999999999
 20
2350.7879890809827
  0
LINE
  8
_0-0_
  6
CONTINUOUS
 62
    7
 10
2103.3906999999999
 20
2350.7879890809827
 11
2103.3906999999999
 21
2297.5109840114387
  0
LINE
  8
_0-0_
  6
CONTINUOUS
 62
    7
 10
2103.3906999999999
 20
2350.7879890809827
 11
2201.7970000000009
 21
2350.7879890809827
  0
POINT
  8
_0-0_
 62
    7
 10
2201.7970000000009
 20
2350.7879890809827
  0
LINE
  8
_0-0_
  6
CONTINUOUS
 62
    7
 10
2201.7970000000009
 20
2350.7879890809827
 11
2201.7970000000009
 21
2297.5109840114387
  0
LINE
  8
_0-0_
  6
CONTINUOUS
 62
    7
 10
1695.3451700000003
 20
2227.286935493476
 11
1750.1940097168153
 21
2227.286935493476
  0
LINE
  8
_0-0_
  6
CONTINUOUS
 62
    7
 10
1746.43330623731
 20
2227.286935493476
 11
1741.4185062373099
 21
2232.3017354934764
  0
LINE
  8
_0-0_
  6
CONTINUOUS
 62
    7
 10
2051.1901710468464
 20
2227.286935493476
 11
2106.3245999999999
 21
2227.286935493476
  0
LINE
  8
_0-0_
  6
CONTINUOUS
 62
    7
 10
1699.937668104709
 20
2257.545035493476
 11
2101.4937287058715
 21
2257.545035493476
  0
LINE
  8
_0-0_
  6
CONTINUOUS
 62
    7
 10
1699.937668104709
 20
2257.545035493476
 11
1699.937668104709
 21
2282.5137354934759
  0
LINE
  8
_0-0_
  6
CONTINUOUS
 62
    7
 10
2101.4937287058715
 20
2257.545035493476
 11
2101.4937287058715
 21
2282.5137354934759
  0
LINE
  8
_0-0_
  6
CONTINUOUS
 62
    7
 10
1699.937668104709
 20
2282.5137354934759
 11
2101.4937287058715
 21
2282.5137354934759
  0
LINE
  8
_0-0_
  6
CONTINUOUS
 62
    7
 10
1709.9376681047092
 20
2257.545035493476
 11
1709.9376681047092
 21
2282.5137354934759
  0
LINE
  8
_0-0_
  6
CONTINUOUS
 62
    7
 10
1719.9376681047097
 20
2257.545035493476
 11
1719.9376681047097
 21
2282.5137354934759
  0
LINE
  8
_0-0_
  6
CONTINUOUS
 62
    7
 10
1729.937668104709
 20
2257.545035493476
 11
1729.937668104709
 21
2282.5137354934759
  0
LINE
  8
_0-0_
  6
CONTINUOUS
 62
    7
 10
1739.937668104709
 20
2257.545035493476
 11
1739.937668104709
 21
2282.5137354934759
  0
LINE
  8
_0-0_
  6
CONTINUOUS
 62
    7
 10
1749.9376681047088
 20
2257.545035493476
 11
1749.9376681047088
 21
2282.5137354934759
  0
LINE
  8
_0-0_
  6
CONTINUOUS
 62
    7
 10
1759.937668104709
 20
2257.545035493476
 11
1759.937668104709
 21
2282.5137354934759
  0
LINE
  8
_0-0_
  6
CONTINUOUS
 62
    7
 10
1769.937668104709
 20
2257.545035493476
 11
1769.937668104709
 21
2282.5137354934759
  0
LINE
  8
_0-0_
  6
CONTINUOUS
 62
    7
 10
1779.937668104709
 20
2257.545035493476
 11
1779.937668104709
 21
2282.5137354934759
  0
LINE
  8
_0-0_
  6
CONTINUOUS
 62
    7
 10
1789.937668104709
 20
2257.545035493476
 11
1789.937668104709
 21
2282.5137354934759
  0
LINE
  8
_0-0_
  6
CONTINUOUS
 62
    7
 10
1799.937668104709
 20
2257.545035493476
 11
1799.937668104709
 21
2282.5137354934759
  0
LINE
  8
_0-0_
  6
CONTINUOUS
 62
    7
 10
1809.937668104709
 20
2257.545035493476
 11
1809.937668104709
 21
2282.5137354934759
  0
LINE
  8
_0-0_
  6
CONTINUOUS
 62
    7
 10
1819.9376681047083
 20
2257.545035493476
 11
1819.9376681047083
 21
2282.5137354934759
  0
LINE
  8
_0-0_
  6
CONTINUOUS
 62
    7
 10
1829.9376681047083
 20
2257.545035493476
 11
1829.9376681047083
 21
2282.5137354934759
  0
LINE
  8
_0-0_
  6
CONTINUOUS
 62
    7
 10
1839.9376681047088
 20
2257.545035493476
 11
1839.9376681047088
 21
2282.5137354934759
  0
LINE
  8
_0-0_
  6
CONTINUOUS
 62
    7
 10
1849.9376681047083
 20
2257.545035493476
 11
1849.9376681047083
 21
2282.5137354934759
  0
LINE
  8
_0-0_
  6
CONTINUOUS
 62
    7
 10
1859.9376681047079
 20
2257.545035493476
 11
1859.9376681047079
 21
2282.5137354934759
  0
LINE
  8
_0-0_
  6
CONTINUOUS
 62
    7
 10
1869.9376681047083
 20
2257.545035493476
 11
1869.9376681047083
 21
2282.5137354934759
  0
LINE
  8
_0-0_
  6
CONTINUOUS
 62
    7
 10
1879.9376681047083
 20
2257.545035493476
 11
1879.9376681047083
 21
2282.5137354934759
  0
LINE
  8
_0-0_
  6
CONTINUOUS
 62
    7
 10
1889.9376681047081
 20
2257.545035493476
 11
1889.9376681047081
 21
2282.5137354934759
  0
LINE
  8
_0-0_
  6
CONTINUOUS
 62
    7
 10
1899.9376681047079
 20
2257.545035493476
 11
1899.9376681047079
 21
2282.5137354934759
  0
LINE
  8
_0-0_
  6
CONTINUOUS
 62
    7
 10
1909.9376681047079
 20
2257.545035493476
 11
1909.9376681047079
 21
2282.5137354934759
  0
LINE
  8
_0-0_
  6
CONTINUOUS
 62
    7
 10
1919.9376681047079
 20
2257.545035493476
 11
1919.9376681047079
 21
2282.5137354934759
  0
LINE
  8
_0-0_
  6
CONTINUOUS
 62
    7
 10
1929.9376681047079
 20
2257.545035493476
 11
1929.9376681047079
 21
2282.5137354934759
  0
LINE
  8
_0-0_
  6
CONTINUOUS
 62
    7
 10
1939.9376681047079
 20
2257.545035493476
 11
1939.9376681047079
 21
2282.5137354934759
  0
LINE
  8
_0-0_
  6
CONTINUOUS
 62
    7
 10
1949.9376681047079
 20
2257.545035493476
 11
1949.9376681047079
 21
2282.5137354934759
  0
LINE
  8
_0-0_
  6
CONTINUOUS
 62
    7
 10
1959.9376681047079
 20
2257.545035493476
 11
1959.9376681047079
 21
2282.5137354934759
  0
LINE
  8
_0-0_
  6
CONTINUOUS
 62
    7
 10
1969.9376681047079
 20
2257.545035493476
 11
1969.9376681047079
 21
2282.5137354934759
  0
LINE
  8
_0-0_
  6
CONTINUOUS
 62
    7
 10
1979.9376681047074
 20
2257.545035493476
 11
1979.9376681047074
 21
2282.5137354934759
  0
LINE
  8
_0-0_
  6
CONTINUOUS
 62
    7
 10
1989.9376681047077
 20
2257.545035493476
 11
1989.9376681047077
 21
2282.5137354934759
  0
LINE
  8
_0-0_
  6
CONTINUOUS
 62
    7
 10
1999.9376681047079
 20
2257.545035493476
 11
1999.9376681047079
 21
2282.5137354934759
  0
LINE
  8
_0-0_
  6
CONTINUOUS
 62
    7
 10
2009.9376681047077
 20
2257.545035493476
 11
2009.9376681047077
 21
2282.5137354934759
  0
LINE
  8
_0-0_
  6
CONTINUOUS
 62
    7
 10
2019.937668104707
 20
2257.545035493476
 11
2019.937668104707
 21
2282.5137354934759
  0
LINE
  8
_0-0_
  6
CONTINUOUS
 62
    7
 10
2029.9376681047074
 20
2257.545035493476
 11
2029.9376681047074
 21
2282.5137354934759
  0
LINE
  8
_0-0_
  6
CONTINUOUS
 62
    7
 10
2039.9376681047074
 20
2257.545035493476
 11
2039.9376681047074
 21
2282.5137354934759
  0
LINE
  8
_0-0_
  6
CONTINUOUS
 62
    7
 10
2049.937668104707
 20
2257.545035493476
 11
2049.937668104707
 21
2282.5137354934759
  0
LINE
  8
_0-0_
  6
CONTINUOUS
 62
    7
 10
2059.9376681047074
 20
2257.545035493476
 11
2059.9376681047074
 21
2282.5137354934759
  0
LINE
  8
_0-0_
  6
CONTINUOUS
 62
    7
 10
2059.9376681047074
 20
2257.545035493476
 11
2059.9376681047074
 21
2282.5137354934759
  0
LINE
  8
_0-0_
  6
CONTINUOUS
 62
    7
 10
2069.9376681047074
 20
2257.545035493476
 11
2069.9376681047074
 21
2282.5137354934759
  0
LINE
  8
_0-0_
  6
CONTINUOUS
 62
    7
 10
2079.937668104707
 20
2257.545035493476
 11
2079.937668104707
 21
2282.5137354934759
  0
LINE
  8
_0-0_
  6
CONTINUOUS
 62
    7
 10
2089.9376681047074
 20
2257.545035493476
 11
2089.9376681047074
 21
2282.5137354934759
  0
LINE
  8
_0-0_
  6
CONTINUOUS
 62
    7
 10
1699.2091442371805
 20
2257.545035493476
 11
1767.5063750627801
 21
2257.545035493476
  0
LINE
  8
_0-0_
  6
CONTINUOUS
 62
    7
 10
1699.937668104709
 20
2257.545035493476
 11
1699.2091442371805
 21
2257.545035493476
  0
LINE
  8
_0-0_
  6
CONTINUOUS
 62
    7
 10
1739.937668104709
 20
2257.545035493476
 11
1740.7033340025255
 21
2257.5073297809759
  0
LINE
  8
_0-0_
  6
CONTINUOUS
 62
    7
 10
1740.7033340025255
 20
2257.5073297809759
 11
1741.4636222383331
 21
2257.3933897934758
  0
LINE
  8
_0-0_
  6
CONTINUOUS
 62
    7
 10
1741.4636222383331
 20
2257.3933897934758
 11
1742.2148684785543
 21
2257.2019812559756
  0
LINE
  8
_0-0_
  6
CONTINUOUS
 62
    7
 10
1742.2148684785543
 20
2257.2019812559756
 11
1742.9534083896106
 21
2256.9318698934762
  0
LINE
  8
_0-0_
  6
CONTINUOUS
 62
    7
 10
1742.9534083896106
 20
2256.9318698934762
 11
1743.6755776379243
 21
2256.5818214309761
  0
LINE
  8
_0-0_
  6
CONTINUOUS
 62
    7
 10
1743.6755776379243
 20
2256.5818214309761
 11
1744.3777118899152
 21
2256.150601593476
  0
LINE
  8
_0-0_
  6
CONTINUOUS
 62
    7
 10
1744.3777118899152
 20
2256.150601593476
 11
1745.0561468120059
 21
2255.6369761059759
  0
LINE
  8
_0-0_
  6
CONTINUOUS
 62
    7
 10
1745.0561468120059
 20
2255.6369761059759
 11
1745.7072180706175
 21
2255.0397106934761
  0
LINE
  8
_0-0_
  6
CONTINUOUS
 62
    7
 10
1745.7072180706175
 20
2255.0397106934761
 11
1746.327261332171
 21
2254.357571080976
  0
LINE
  8
_0-0_
  6
CONTINUOUS
 62
    7
 10
1746.327261332171
 20
2254.357571080976
 11
1746.9126122630887
 21
2253.5893229934759
  0
LINE
  8
_0-0_
  6
CONTINUOUS
 62
    7
 10
1746.9126122630887
 20
2253.5893229934759
 11
1747.4596065297915
 21
2252.7337321559762
  0
LINE
  8
_0-0_
  6
CONTINUOUS
 62
    7
 10
1747.4596065297915
 20
2252.7337321559762
 11
1747.9645797987016
 21
2251.7895642934759
  0
LINE
  8
_0-0_
  6
CONTINUOUS
 62
    7
 10
1747.9645797987016
 20
2251.7895642934759
 11
1748.4238677362393
 21
2250.7555851309762
  0
LINE
  8
_0-0_
  6
CONTINUOUS
 62
    7
 10
1748.4238677362393
 20
2250.7555851309762
 11
1748.833806008827
 21
2249.6305603934761
  0
LINE
  8
_0-0_
  6
CONTINUOUS
 62
    7
 10
1748.833806008827
 20
2249.6305603934761
 11
1749.1907302828861
 21
2248.4132558059764
  0
LINE
  8
_0-0_
  6
CONTINUOUS
 62
    7
 10
1749.1907302828861
 20
2248.4132558059764
 11
1749.4909762248378
 21
2247.1024370934761
  0
LINE
  8
_0-0_
  6
CONTINUOUS
 62
    7
 10
1749.4909762248378
 20
2247.1024370934761
 11
1749.7308795011031
 21
2245.6968699809759
  0
LINE
  8
_0-0_
  6
CONTINUOUS
 62
    7
 10
1749.7308795011031
 20
2245.6968699809759
 11
1749.9067757781045
 21
2244.1953201934762
  0
LINE
  8
_0-0_
  6
CONTINUOUS
 62
    7
 10
1749.9067757781045
 20
2244.1953201934762
 11
1750.0150007222628
 21
2242.5965534559764
  0
LINE
  8
_0-0_
  6
CONTINUOUS
 62
    7
 10
1750.0150007222628
 20
2242.5965534559764
 11
1750.0518899999997
 21
2240.899335493476
  0
LINE
  8
_0-0_
  6
CONTINUOUS
 62
    7
 10
1750.0518899999997
 20
2240.899335493476
 11
1750.0518899999997
 21
2232.3017354934764
  0
LINE
  8
_0-0_
  6
CONTINUOUS
 62
    7
 10
2101.4937287058715
 20
2257.545035493476
 11
2103.5893224442175
 21
2257.545035493476
  0
LINE
  8
_0-0_
  6
CONTINUOUS
 62
    7
 10
2059.9376681047074
 20
2257.545035493476
 11
2059.3875305162737
 21
2257.5073297809759
  0
LINE
  8
_0-0_
  6
CONTINUOUS
 62
    7
 10
2059.3875305162737
 20
2257.5073297809759
 11
2058.8212366483317
 21
2257.3933897934758
  0
LINE
  8
_0-0_
  6
CONTINUOUS
 62
    7
 10
2058.8212366483317
 20
2257.3933897934758
 11
2058.2435841998035
 21
2257.2019812559756
  0
LINE
  8
_0-0_
  6
CONTINUOUS
 62
    7
 10
2058.2435841998035
 20
2257.2019812559756
 11
2057.6593708696096
 21
2256.9318698934762
  0
LINE
  8
_0-0_
  6
CONTINUOUS
 62
    7
 10
2057.6593708696096
 20
2256.9318698934762
 11
2057.0733943566734
 21
2256.5818214309761
  0
LINE
  8
_0-0_
  6
CONTINUOUS
 62
    7
 10
2057.0733943566734
 20
2256.5818214309761
 11
2056.4904523599143
 21
2256.150601593476
  0
LINE
  8
_0-0_
  6
CONTINUOUS
 62
    7
 10
2056.4904523599143
 20
2256.150601593476
 11
2055.9153425782551
 21
2255.6369761059759
  0
LINE
  8
_0-0_
  6
CONTINUOUS
 62
    7
 10
2055.9153425782551
 20
2255.6369761059759
 11
2055.3528627106166
 21
2255.0397106934761
  0
LINE
  8
_0-0_
  6
CONTINUOUS
 62
    7
 10
2055.3528627106166
 20
2255.0397106934761
 11
2054.8078104559204
 21
2254.357571080976
  0
LINE
  8
_0-0_
  6
CONTINUOUS
 62
    7
 10
2054.8078104559204
 20
2254.357571080976
 11
2054.2849835130887
 21
2253.5893229934759
  0
LINE
  8
_0-0_
  6
CONTINUOUS
 62
    7
 10
2054.2849835130887
 20
2253.5893229934759
 11
2053.7891795810415
 21
2252.7337321559762
  0
LINE
  8
_0-0_
  6
CONTINUOUS
 62
    7
 10
2053.7891795810415
 20
2252.7337321559762
 11
2053.3251963587009
 21
2251.7895642934759
  0
LINE
  8
_0-0_
  6
CONTINUOUS
 62
    7
 10
2053.3251963587009
 20
2251.7895642934759
 11
2052.8978315449895
 21
2250.7555851309762
  0
LINE
  8
_0-0_
  6
CONTINUOUS
 62
    7
 10
2052.8978315449895
 20
2250.7555851309762
 11
2052.5118828388268
 21
2249.6305603934761
  0
LINE
  8
_0-0_
  6
CONTINUOUS
 62
    7
 10
2052.5118828388268
 20
2249.6305603934761
 11
2052.1721479391358
 21
2248.4132558059764
  0
LINE
  8
_0-0_
  6
CONTINUOUS
 62
    7
 10
2052.1721479391358
 20
2248.4132558059764
 11
2051.8834245448375
 21
2247.1024370934761
  0
LINE
  8
_0-0_
  6
CONTINUOUS
 62
    7
 10
2051.8834245448375
 20
2247.1024370934761
 11
2051.6505103548534
 21
2245.6968699809759
  0
LINE
  8
_0-0_
  6
CONTINUOUS
 62
    7
 10
2051.6505103548534
 20
2245.6968699809759
 11
2051.4782030681044
 21
2244.1953201934762
  0
LINE
  8
_0-0_
  6
CONTINUOUS
 62
    7
 10
2051.4782030681044
 20
2244.1953201934762
 11
2051.3713003835128
 21
2242.5965534559764
  0
LINE
  8
_0-0_
  6
CONTINUOUS
 62
    7
 10
2051.3713003835128
 20
2242.5965534559764
 11
2051.3346000000001
 21
2240.899335493476
  0
LINE
  8
_0-0_
  6
CONTINUOUS
 62
    7
 10
2051.3346000000001
 20
2240.899335493476
 11
2051.3469000000005
 21
2232.3017354934764
  0
LINE
  8
_0-0_
  6
CONTINUOUS
 62
    7
 10
2040.7737999999999
 20
1905.677435493476
 11
2051.352591676603
 21
2232.3017354934764
  0
ARC
  8
_0-0_
  6
CONTINUOUS
 62
    7
 10
1765.0579124821338
 20
2232.3017354934764
 40
9.9999999999999982
 50
0
 51
156.72567788594031
  0
LINE
  8
_0-0_
  6
CONTINUOUS
 62
    7
 10
1755.871676899935
 20
2236.2530739791473
 11
1750.0518899999997
 21
2232.3017354934764
  0
ARC
  8
_0-0_
  6
CONTINUOUS
 62
    7
 10
2036.3447262449736
 20
2232.3017354934764
 40
9.9999999999999982
 50
23.372789845290722
 51
180
  0
LINE
  8
_0-0_
  6
CONTINUOUS
 62
    7
 10
2045.524157549105
 20
2236.2688554731012
 11
2051.352591676603
 21
2232.3017354934764
  0
LINE
  8
_0-0_
  6
CONTINUOUS
 62
    7
 10
1599.9969600000004
 20
1644.1665137620162
 11
1640.1168499999999
 21
1644.1665137620162
  0
POINT
  8
_0-0_
 62
    7
 10
1599.9969600000004
 20
1644.1665137620162
  0
POINT
  8
_0-0_
 62
    7
 10
1640.1168499999999
 20
1644.1665137620162
  0
LINE
  8
_0-0_
  6
CONTINUOUS
 62
    7
 10
1599.9969600000004
 20
1644.1665137620162
 11
1599.9969600000004
 21
1719.5151582000781
  0
LINE
  8
_0-0_
  6
CONTINUOUS
 62
    7
 10
1640.1168499999999
 20
1644.1665137620162
 11
2161.6771000000008
 21
1644.1665137620162
  0
POINT
  8
_0-0_
 62
    7
 10
2161.6771000000008
 20
1644.1665137620162
  0
LINE
  8
_0-0_
  6
CONTINUOUS
 62
    7
 10
2161.6771000000008
 20
1644.1665137620162
 11
2201.7970000000009
 21
1644.1665137620162
  0
POINT
  8
_0-0_
 62
    7
 10
2201.7970000000009
 20
1644.1665137620162
  0
LINE
  8
_0-0_
  6
CONTINUOUS
 62
    7
 10
2201.7970000000009
 20
1644.1665137620162
 11
2201.7970000000009
 21
1719.5151582000781
  0
LINE
  8
_0-0_
  6
CONTINUOUS
 62
    7
 10
1599.9969600000004
 20
1702.9129145103354
 11
1759.3061400000008
 21
1702.9129145103354
  0
POINT
  8
_0-0_
 62
    7
 10
1599.9969600000004
 20
1702.9129145103354
  0
POINT
  8
_0-0_
 62
    7
 10
1759.3061400000008
 20
1702.9129145103354
  0
LINE
  8
_0-0_
  6
CONTINUOUS
 62
    7
 10
1599.9969600000004
 20
1702.9129145103354
 11
1599.9969600000004
 21
1719.5151582000781
  0
LINE
  8
_0-0_
  6
CONTINUOUS
 62
    7
 10
1759.3061400000008
 20
1702.9129145103354
 11
1759.3061400000008
 21
1719.5151582000781
  0
LINE
  8
_0-0_
  6
CONTINUOUS
 62
    7
 10
1759.3061400000008
 20
1702.9129145103354
 11
2040.7737999999999
 21
1702.9129145103354
  0
POINT
  8
_0-0_
 62
    7
 10
2040.7737999999999
 20
1702.9129145103354
  0
LINE
  8
_0-0_
  6
CONTINUOUS
 62
    7
 10
2040.7737999999999
 20
1702.9129145103354
 11
2040.7737999999999
 21
1719.5151582000781
  0
LINE
  8
_0-0_
  6
CONTINUOUS
 62
    7
 10
2040.7737999999999
 20
1702.9129145103354
 11
2201.7970000000009
 21
1702.9129145103354
  0
POINT
  8
_0-0_
 62
    7
 10
2201.7970000000009
 20
1702.9129145103354
  0
LINE
  8
_0-0_
  6
CONTINUOUS
 62
    7
 10
2201.7970000000009
 20
1702.9129145103354
 11
2201.7970000000009
 21
1719.5151582000781
  0
LINE
  8
_0-0_
  6
CONTINUOUS
 62
    7
 10
2373.4235146980714
 20
2282.4518354934762
 11
2373.4235146980714
 21
1735.8169354934762
  0
POINT
  8
_0-0_
 62
    7
 10
2373.4235146980714
 20
2282.4518354934762
  0
POINT
  8
_0-0_
 62
    7
 10
2373.4235146980714
 20
1735.8169354934762
  0
LINE
  8
_0-0_
  6
CONTINUOUS
 62
    7
 10
2373.4235146980714
 20
2282.4518354934762
 11
2225.3729455870384
 21
2282.4518354934762
  0
LINE
  8
_0-0_
  6
CONTINUOUS
 62
    7
 10
2373.4235146980714
 20
1735.8169354934762
 11
2225.3729455870384
 21
1735.8169354934762
  0
LINE
  8
_0-0_
  6
CONTINUOUS
 62
    7
 10
2260.8857291581166
 20
2282.5137354934759
 11
2260.8857291581166
 21
2232.3017354934764
  0
POINT
  8
_0-0_
 62
    7
 10
2260.8857291581166
 20
2282.5137354934759
  0
POINT
  8
_0-0_
 62
    7
 10
2260.8857291581166
 20
2232.3017354934764
  0
LINE
  8
_0-0_
  6
CONTINUOUS
 62
    7
 10
2260.8857291581166
 20
2282.5137354934759
 11
2225.3729455870384
 21
2282.5137354934759
  0
LINE
  8
_0-0_
  6
CONTINUOUS
 62
    7
 10
2260.8857291581166
 20
2232.3017354934764
 11
2225.3729455870384
 21
2232.3017354934764
  0
LINE
  8
_0-0_
  6
CONTINUOUS
 62
    7
 10
2260.8857291581166
 20
2232.3017354934764
 11
2260.8857291581166
 21
1886.267037493476
  0
POINT
  8
_0-0_
 62
    7
 10
2260.8857291581166
 20
1886.267037493476
  0
LINE
  8
_0-0_
  6
CONTINUOUS
 62
    7
 10
2260.8857291581166
 20
1886.267037493476
 11
2225.3729455870384
 21
1886.267037493476
  0
LINE
  8
_0-0_
  6
CONTINUOUS
 62
    7
 10
2260.8857291581166
 20
1886.267037493476
 11
2260.8857291581166
 21
1735.8169354934762
  0
POINT
  8
_0-0_
 62
    7
 10
2260.8857291581166
 20
1735.8169354934762
  0
LINE
  8
_0-0_
  6
CONTINUOUS
 62
    7
 10
2260.8857291581166
 20
1735.8169354934762
 11
2225.3729455870384
 21
1735.8169354934762
  0
LINE
  8
_0-0_
  6
CONTINUOUS
 62
    7
 10
2106.9158909978923
 20
2242.9333089780002
 11
2111.9158909978923
 21
2242.9333089780002
  0
LINE
  8
_0-0_
  6
CONTINUOUS
 62
    7
 10
1694.7479542363585
 20
2242.9333089780002
 11
1689.7479542363585
 21
2242.9333089780002
  0
LINE
  8
_0-0_
  6
CONTINUOUS
 62
    7
 10
1689.7479542363585
 20
2242.9333089780002
 11
1689.7479542363585
 21
2192.9333089779998
  0
LINE
  8
_0-0_
  6
CONTINUOUS
 62
    7
 10
2111.9158909978923
 20
2242.9333089780002
 11
2111.9158909978923
 21
2192.9333089779998
  0
LINE
  8
_0-0_
  6
CONTINUOUS
 62
    7
 10
1694.7479542363585
 20
2242.9333089780002
 11
1694.7479542363585
 21
2192.9333089779998
  0
LINE
  8
_0-0_
  6
CONTINUOUS
 62
    7
 10
2106.9158909978923
 20
2242.9333089780002
 11
2106.9158909978923
 21
2192.9333089779998
  0
LINE
  8
_0-0_
  6
CONTINUOUS
 62
    7
 10
1694.7479542363585
 20
2192.9333089779998
 11
1703.2003194711724
 21
2174.8071532372669
  0
LINE
  8
_0-0_
  6
CONTINUOUS
 62
    7
 10
2106.9158909978923
 20
2192.9333089779998
 11
2098.4635257630775
 21
2174.8071532372669
  0
LINE
  8
_0-0_
  6
CONTINUOUS
 62
    7
 10
1703.2003194711724
 20
2174.8071532372669
 11
1697.6834298763602
 21
2174.8071532372669
  0
LINE
  8
_0-0_
  6
CONTINUOUS
 62
    7
 10
1690.2164153011749
 20
2190.8202176692962
 11
1697.6834298763602
 21
2174.8071532372669
  0
LINE
  8
_0-0_
  6
CONTINUOUS
 62
    7
 10
2098.4635257630775
 20
2174.8071532372669
 11
2103.9804153578907
 21
2174.8071532372669
  0
LINE
  8
_0-0_
  6
CONTINUOUS
 62
    7
 10
2111.447429933075
 20
2190.8202176692962
 11
2103.9804153578907
 21
2174.8071532372669
  0
LINE
  8
_0-0_
  6
CONTINUOUS
 62
    7
 10
2111.9158909978923
 20
2192.9333089779998
 11
2111.447429933075
 21
2190.8202176692962
  0
LINE
  8
_0-0_
  6
CONTINUOUS
 62
    7
 10
1689.7479542363585
 20
2192.9333089779998
 11
1690.2164153011749
 21
2190.8202176692962
  0
LINE
  8
_0-0_
  6
CONTINUOUS
 62
    7
 10
1640.1168499999999
 20
1644.1665137620162
 11
1640.1168499999999
 21
1702.9129145103354
  0
LINE
  8
_0-0_
  6
CONTINUOUS
 62
    7
 10
2161.6771000000008
 20
1644.1665137620162
 11
2161.6771000000008
 21
1702.9129145103354
  0
LINE
  8
_0-0_
  6
CONTINUOUS
 62
    7
 10
2511.245261807454
 20
1269.72972
 11
2511.245261807454
 21
1169.7297700000001
  0
LINE
  8
_0-0_
  6
CONTINUOUS
 62
    7
 10
2828.9983999999999
 20
2350.7879890809827
 11
4334.9982999999993
 21
2350.7879890809827
  0
POINT
  8
_0-0_
 62
    7
 10
2828.9983999999999
 20
2350.7879890809827
  0
POINT
  8
_0-0_
 62
    7
 10
4334.9982999999993
 20
2350.7879890809827
  0
LINE
  8
_0-0_
  6
CONTINUOUS
 62
    7
 10
2828.9983999999999
 20
2350.7879890809827
 11
2828.9983999999999
 21
2297.5109840114387
  0
LINE
  8
_0-0_
  6
CONTINUOUS
 62
    7
 10
4334.9982999999993
 20
2350.7879890809827
 11
4334.9982999999993
 21
2297.5109840114387
  0
LINE
  8
_0-0_
  6
CONTINUOUS
 62
    7
 10
1775.0579124821338
 20
2232.3017354934764
 11
2026.344726244974
 21
2232.3017354934764
  0
LINE
  8
_0-0_
  6
CONTINUOUS
 62
    7
 10
1599.9969600000004
 20
1603.3272395567951
 11
2201.7970000000009
 21
1603.3272395567951
  0
POINT
  8
_0-0_
 62
    7
 10
1599.9969600000004
 20
1603.3272395567951
  0
POINT
  8
_0-0_
 62
    7
 10
2201.7970000000009
 20
1603.3272395567951
  0
LINE
  8
_0-0_
  6
CONTINUOUS
 62
    7
 10
1599.9969600000004
 20
1603.3272395567951
 11
1599.9969600000004
 21
1644.1665137620162
  0
LINE
  8
_0-0_
  6
CONTINUOUS
 62
    7
 10
2201.7970000000009
 20
1603.3272395567951
 11
2201.7970000000009
 21
1644.1665137620162
  0
TEXT
  8
_0-0_
 62
    7
 10
1862.5399700000003
 20
1702.6352226422832
 40
30
 41
1
 50
0
  1
400
  0
TEXT
  8
_0-0_
 62
    7
 10
1642.1515500000005
 20
1702.7783395166803
 40
30
 41
1
 50
0
  1
150
  0
TEXT
  8
_0-0_
 62
    7
 10
2098.7854000000007
 20
1702.8944532072287
 40
30
 41
1
 50
0
  1
150
  0
TEXT
  8
_0-0_
 62
    7
 10
1456.7723272904091
 20
1195.0102801471555
 40
48
 41
1
 50
0
  1
横断側溝GL　400G（ﾄﾗｲﾎﾟｯﾄｸﾞﾚｰﾁﾝｸﾞ）
  0
TEXT
  8
_0-0_
 62
    7
 10
3328.8866368409799
 20
1193.9370866405634
 40
48
 41
1
 50
0
  1
2077㎏
  0
TEXT
  8
_0-0_
 62
    7
 10
2254.8857291581162
 20
2036.7843864934762
 40
30
 41
1
 50
90
  1
1060
  0
TEXT
  8
_0-0_
 62
    7
 10
2367.4235146980714
 20
1971.6343854934757
 40
30
 41
1
 50
90
  1
1260
  0
ENDSEC
  0
EOF
