  0
SECTION
  2
HEADER
  9
$ACADVER
  1
AC1009
  9
$INSBASE
 10
0
 20
0
 30
0
  9
$EXTMIN
 10
0
 20
0
  9
$EXTMAX
 10
6534
 20
4620
  9
$LIMMIN
 10
0
 20
0
  9
$LIMMAX
 10
6534
 20
4620
  9
$LTSCALE
 40
11
  0
ENDSEC
  0
SECTION
  2
TABLES
  0
TABLE
  2
LTYPE
 70
     9
  0
LTYPE
  2
CONTINUOUS
 70
    64
  3
実線
 72
    65
 73
     0
 40
0.0
  0
LTYPE
  2
DASHED1
 70
    64
  3
--  --  --  --  --  --  --  --  
 72
    65
 73
     2
 40
2.5
 49
1.25
 49
-1.25
  0
LTYPE
  2
DASHED2
 70
    64
  3
----    ----    ----    ----    
 72
    65
 73
     2
 40
5.0
 49
2.5
 49
-2.5
  0
LTYPE
  2
DASHED3
 70
    64
  3
------  ------  ------  ------  
 72
    65
 73
     2
 40
5.0
 49
3.75
 49
-1.25
  0
LTYPE
  2
CENTER1
 70
    64
  3
----- - ----- - ----- - ----- - 
 72
    65
 73
     4
 40
10.0
 49
6.25
 49
-1.25
 49
1.25
 49
-1.25
  0
LTYPE
  2
CENTER2
 70
    64
  3
----------  --  ----------  --  
 72
    65
 73
     4
 40
20.0
 49
12.5
 49
-2.5
 49
2.5
 49
-2.5
  0
LTYPE
  2
PHANTOM1
 70
    64
  3
--- - - --- - - --- - - --- - - 
 72
    65
 73
     6
 40
10.0
 49
3.25
 49
-1.25
 49
1.25
 49
-1.25
 49
1.25
 49
-1.25
  0
LTYPE
  2
PHANTOM2
 70
    64
  3
--------  -  -  --------  -  -  
 72
    65
 73
     6
 40
20.0
 49
10.0
 49
-2.5
 49
1.25
 49
-2.5
 49
1.25
 49
-2.5
  0
LTYPE
  2
DOT
 70
    64
  3
-   -   -   -   -   -   -   -   
 72
    65
 73
     2
 40
2.5
 49
0.625
 49
-1.875
  0
LTYPE
  2
DUMMY
 70
    64
  3
ダミー
 72
    65
 73
     0
 40
0.0
  0
LTYPE
  2
RAND1
 70
    64
  3
ランダム線1
 72
    65
 73
     4
 40
10.0
 49
1.0
 49
-2.0
 49
3.0
 49
-4.0
  0
LTYPE
  2
RAND2
 70
    64
  3
ランダム線2
 72
    65
 73
     4
 40
14.0
 49
2.0
 49
-3.0
 49
4.0
 49
-5.0
  0
LTYPE
  2
RAND3
 70
    64
  3
ランダム線3
 72
    65
 73
     4
 40
18.0
 49
3.0
 49
-4.0
 49
5.0
 49
-6.0
  0
LTYPE
  2
RAND4
 70
    64
  3
ランダム線4
 72
    65
 73
     4
 40
22.0
 49
4.0
 49
-5.0
 49
6.0
 49
-7.0
  0
LTYPE
  2
RAND5
 70
    64
  3
ランダム線5
 72
    65
 73
     4
 40
26.0
 49
5.0
 49
-6.0
 49
7.0
 49
-8.0
  0
LTYPE
  2
LONG1
 70
    64
  3
----------  --  ----------  --  
 72
    65
 73
     4
 40
40.0
 49
32.5
 49
-2.5
 49
2.5
 49
-2.5
  0
LTYPE
  2
LONG2
 70
    64
  3
--------  -  -  --------  -  -  
 72
    65
 73
     6
 40
40.0
 49
30.0
 49
-2.5
 49
1.25
 49
-2.5
 49
1.25
 49
-2.5
  0
LTYPE
  2
LONG3
 70
    64
  3
+++++++++++++++..+++++++++++++++
 72
    65
 73
     2
 40
40.0
 49
37.5
 49
-2.5
  0
LTYPE
  2
LONG4
 70
    64
  3
+++++++++++++++..+++++++++++++++
 72
    65
 73
     2
 40
80.0
 49
75.0
 49
-5.0
  0
LTYPE
  2
LONG5
 70
    64
  3
----------  --  ----------  --  
 72
    65
 73
     4
 40
60.0
 49
37.5
 49
-7.5
 49
7.5
 49
-7.5
  0
LTYPE
  2
dashed
 70
   64
  3
-------   -------------   ------
 72
   65
 73
    2
 40
7.5
 49
6
 49
-1.5
  0
LTYPE
  2
dashed_spaced
 70
   64
  3
----        --------        ----
 72
   65
 73
    2
 40
12
 49
6
 49
-6
  0
LTYPE
  2
long_dashed_dotted
 70
   64
  3
------------- --- --------------
 72
   65
 73
    4
 40
15.25
 49
12
 49
-1.5
 49
0.25
 49
-1.5
  0
LTYPE
  2
long_dashed_double-dotted
 70
   64
  3
----------- --- --- ------------
 72
   65
 73
    6
 40
17
 49
12
 49
-1.5
 49
0.25
 49
-1.5
 49
0.25
 49
-1.5
  0
LTYPE
  2
long_dashed_triplicate-dotted
 70
   64
  3
--------- --- --- --- ----------
 72
   65
 73
    8
 40
18.75
 49
12
 49
-1.5
 49
0.25
 49
-1.5
 49
0.25
 49
-1.5
 49
0.25
 49
-1.5
  0
LTYPE
  2
dotted
 70
   64
  3
   -       -       -       -    
 72
   65
 73
    2
 40
1.75
 49
0.25
 49
-1.5
  0
LTYPE
  2
chain
 70
   64
  3
-------------- -- --------------
 72
   65
 73
    4
 40
18.5
 49
12
 49
-1.5
 49
3.5
 49
-1.5
  0
LTYPE
  2
chain_double_dash
 70
   64
  3
------------ -- -- -------------
 72
   65
 73
    6
 40
23.5
 49
12
 49
-1.5
 49
3.5
 49
-1.5
 49
3.5
 49
-1.5
  0
LTYPE
  2
dashed_dotted
 70
   64
  3
-----------     -     ----------
 72
   65
 73
    4
 40
9.25
 49
6
 49
-1.5
 49
0.25
 49
-1.5
  0
LTYPE
  2
double-dashed_dotted
 70
   64
  3
------   -----------   -   -----
 72
   65
 73
    6
 40
16.75
 49
6
 49
-1.5
 49
6
 49
-1.5
 49
0.25
 49
-1.5
  0
LTYPE
  2
dashed_double-dotted
 70
   64
  3
---------    -    -    ---------
 72
   65
 73
    6
 40
11
 49
6
 49
-1.5
 49
0.25
 49
-1.5
 49
0.25
 49
-1.5
  0
LTYPE
  2
double-dashed_double-dotted
 70
   64
  3
-----   ---------   -   -   ----
 72
   65
 73
    8
 40
18.5
 49
6
 49
-1.5
 49
6
 49
-1.5
 49
0.25
 49
-1.5
 49
0.25
 49
-1.5
  0
LTYPE
  2
dashed_triplicate-dotted
 70
   64
  3
-------    -    -    -    ------
 72
   65
 73
    8
 40
12.75
 49
6
 49
-1.5
 49
0.25
 49
-1.5
 49
0.25
 49
-1.5
 49
0.25
 49
-1.5
  0
LTYPE
  2
double-dashed_triplicate-dotted
 70
   64
  3
-----  ---------  -  -  -  -----
 72
   65
 73
   10
 40
20.25
 49
6
 49
-1.5
 49
6
 49
-1.5
 49
0.25
 49
-1.5
 49
0.25
 49
-1.5
 49
0.25
 49
-1.5
  0
LTYPE
  2
undefined
 70
   64
  3
--------------------------------
 72
   65
 73
    0
 40
0
  0
ENDTAB
  0
TABLE
  2
STYLE
  5
3
100
AcDbSymbolTable
 70
     1
  0
STYLE
  5
10
100
AcDbSymbolTableRecord
100
AcDbTextStyleTableRecord
  2
STANDARD
 70
     0
 40
0.0
 41
1.0
 50
0.0
 71
     0
 42
0.2
  3
txt
  4
bigfont.shx
  0
STYLE
  5
26
100
AcDbSymbolTableRecord
100
AcDbTextStyleTableRecord
  2
TATEGAKI
 70
    68
 40
0.0
 41
1.0
 50
0.0
 71
     0
 42
1.0
  3
txt
  4
bigfont.shx
  0
ENDTAB
  0
TABLE
  2
LAYER
 70
    2
  0
LAYER
  2
_0-0_
 70
   64
 62
    7
  6
CONTINUOUS
  0
LAYER
  2
ADD_LINE
 70
   64
 62
    7
  6
CONTINUOUS
  0
ENDTAB
  0
ENDSEC
  0
SECTION
  2
BLOCKS
  0
ENDSEC
  0
SECTION
  2
ENTITIES
  0
TEXT
  8
_0-0_
 62
    7
 10
1702.2051614296513
 20
1439.9152258125473
 40
44
 41
1
 50
0
  1
名　称
  0
TEXT
  8
_0-0_
 62
    7
 10
2698.4367293591667
 20
1439.7874190892546
 40
44
 41
1
 50
0
  1
分　類
  0
TEXT
  8
_0-0_
 62
    7
 10
3833.5157358758051
 20
1439.5353309938062
 40
44
 41
1
 50
0
  1
岩城ブロック工業株式会社
  0
TEXT
  8
_0-0_
 62
    7
 10
3220.9006236190544
 20
1439.0998752003304
 40
44
 41
1
 50
0
  1
参考重量
  0
TEXT
  8
_0-0_
 62
    3
 10
1794.9369428571433
 20
3073.0433857142853
 40
55
 41
1
 50
0
  1
断  面  図
  0
TEXT
  8
_0-0_
 62
    3
 10
3017.0294183853025
 20
3066.9214445970215
 40
55
 41
1
 50
0
  1
側　面　図
  0
TEXT
  8
_0-0_
 62
    4
 10
2512.4452831946014
 20
2131.327283389498
 40
27.5
 41
1
 50
90
  1
150
  0
TEXT
  8
_0-0_
 62
    4
 10
2131.5235000000002
 20
1842.9252232523427
 40
27.5
 41
1
 50
0
  1
600
  0
TEXT
  8
_0-0_
 62
    4
 10
1858.3984950000004
 20
1928.2084549709521
 40
27.5
 41
1
 50
0
  1
40
  0
TEXT
  8
_0-0_
 62
    4
 10
2418.3985000000002
 20
1928.2084549709521
 40
27.5
 41
1
 50
0
  1
40
  0
TEXT
  8
_0-0_
 62
    4
 10
2512.4452831946014
 20
2578.202382889498
 40
27.5
 41
1
 50
90
  1
70
  0
TEXT
  8
_0-0_
 62
    4
 10
2381.5235000000002
 20
2673.8356009070294
 40
27.5
 41
1
 50
0
  1
100
  0
TEXT
  8
_0-0_
 62
    4
 10
2313.3985000000002
 20
2673.8356009070294
 40
27.5
 41
1
 50
0
  1
50
  0
TEXT
  8
_0-0_
 62
    4
 10
2131.5235100000004
 20
2673.8356009070294
 40
27.5
 41
1
 50
0
  1
300
  0
TEXT
  8
_0-0_
 62
    4
 10
1963.3985050000006
 20
2673.8356009070294
 40
27.5
 41
1
 50
0
  1
50
  0
TEXT
  8
_0-0_
 62
    4
 10
1881.5234950000006
 20
2673.8356009070294
 40
27.5
 41
1
 50
0
  1
100
  0
TEXT
  8
_0-0_
 62
    4
 10
3647.5530789943928
 20
2673.8356009070294
 40
27.5
 41
1
 50
0
  1
2000
  0
ARC
  8
_0-0_
  6
CONTINUOUS
 62
    7
 10
2263.0573000000004
 20
2256.9522828894978
 40
29.999998999999988
 50
270
 51
358.23759000000001
  0
ARC
  8
_0-0_
  6
CONTINUOUS
 62
    7
 10
2041.2395500000005
 20
2256.9522828894978
 40
29.999998999999988
 50
181.76239000000001
 51
270
  0
LINE
  8
_0-0_
  6
CONTINUOUS
 62
    7
 10
4714.0267999999987
 20
1429.7297500000004
 11
1674.0270600000001
 21
1429.7297500000004
  0
LINE
  8
_0-0_
  6
CONTINUOUS
 62
    7
 10
4714.0267999999987
 20
3509.729499999999
 11
4714.0267999999987
 21
1429.7297500000004
  0
LINE
  8
_0-0_
  6
CONTINUOUS
 62
    7
 10
1674.0270600000001
 20
1429.7297500000004
 11
1674.0270600000001
 21
3509.729499999999
  0
LINE
  8
_0-0_
  6
CONTINUOUS
 62
    7
 10
1674.0270600000001
 20
3509.729499999999
 11
4714.0267999999987
 21
3509.729499999999
  0
LINE
  8
_0-0_
  6
CONTINUOUS
 62
    7
 10
4714.0267999999987
 20
1529.7297400000002
 11
1674.0270600000001
 21
1529.7297400000002
  0
LINE
  8
_0-0_
  6
CONTINUOUS
 62
    7
 10
1874.0270400000004
 20
1429.7297500000004
 11
1874.0270400000004
 21
1529.7297400000002
  0
LINE
  8
_0-0_
  6
CONTINUOUS
 62
    7
 10
2674.027
 20
1429.7297500000004
 11
2674.027
 21
1529.7297400000002
  0
LINE
  8
_0-0_
  6
CONTINUOUS
 62
    7
 10
2874.0270000000005
 20
1429.7297500000004
 11
2874.0270000000005
 21
1529.7297400000002
  0
LINE
  8
_0-0_
  6
CONTINUOUS
 62
    7
 10
3174.027
 20
1429.7297500000004
 11
3174.027
 21
1529.7297400000002
  0
LINE
  8
_0-0_
  6
CONTINUOUS
 62
    7
 10
3474.027
 20
1429.7297500000004
 11
3474.027
 21
1529.7297400000002
  0
LINE
  8
_0-0_
  6
CONTINUOUS
 62
    7
 10
3774.0268999999998
 20
1429.7297500000004
 11
3774.0268999999998
 21
1529.7297400000002
  0
LINE
  8
_0-0_
  6
CONTINUOUS
 62
    7
 10
2345.1484000000005
 20
2566.952382889498
 11
1954.1484900000007
 21
2566.952382889498
  0
LINE
  8
_0-0_
  6
CONTINUOUS
 62
    7
 10
2452.1485000000002
 20
2333.7455828894981
 11
2452.1485000000002
 21
2255.930082889498
  0
LINE
  8
_0-0_
  6
CONTINUOUS
 62
    7
 10
1952.1484900000009
 20
2621.952382889498
 11
1952.1484900000009
 21
2551.9524828894978
  0
LINE
  8
_0-0_
  6
CONTINUOUS
 62
    7
 10
2452.1485000000002
 20
2621.952382889498
 11
2352.1485000000002
 21
2621.952382889498
  0
LINE
  8
_0-0_
  6
CONTINUOUS
 62
    7
 10
1952.1484900000009
 20
2621.952382889498
 11
1852.1485000000002
 21
2621.952382889498
  0
LINE
  8
_0-0_
  6
CONTINUOUS
 62
    7
 10
1954.1484900000007
 20
2621.952382889498
 11
1954.1484900000007
 21
2551.9524828894978
  0
LINE
  8
_0-0_
  6
CONTINUOUS
 62
    7
 10
2001.9580600000004
 20
2556.952382889498
 11
1954.1484900000007
 21
2556.952382889498
  0
LINE
  8
_0-0_
  6
CONTINUOUS
 62
    7
 10
2002.1485200000004
 20
2551.9524828894978
 11
1952.1484900000009
 21
2551.9524828894978
  0
LINE
  8
_0-0_
  6
CONTINUOUS
 62
    7
 10
2352.1485000000002
 20
2551.9524828894978
 11
2352.1485000000002
 21
2621.952382889498
  0
LINE
  8
_0-0_
  6
CONTINUOUS
 62
    7
 10
2350.1484
 20
2551.9524828894978
 11
2350.1484
 21
2621.952382889498
  0
LINE
  8
_0-0_
  6
CONTINUOUS
 62
    7
 10
2345.1484000000005
 20
2616.952382889498
 11
1959.1484400000006
 21
2616.952382889498
  0
LINE
  8
_0-0_
  6
CONTINUOUS
 62
    7
 10
2345.1484000000005
 20
2566.952382889498
 11
2345.1484000000005
 21
2616.952382889498
  0
LINE
  8
_0-0_
  6
CONTINUOUS
 62
    7
 10
1959.1484400000006
 20
2616.952382889498
 11
1959.1484400000006
 21
2566.952382889498
  0
LINE
  8
_0-0_
  6
CONTINUOUS
 62
    7
 10
2036.3484800000003
 20
2616.952382889498
 11
2036.3484800000003
 21
2566.952382889498
  0
LINE
  8
_0-0_
  6
CONTINUOUS
 62
    7
 10
2113.5484500000002
 20
2616.952382889498
 11
2113.5484500000002
 21
2566.952382889498
  0
LINE
  8
_0-0_
  6
CONTINUOUS
 62
    7
 10
2190.7484000000004
 20
2616.952382889498
 11
2190.7484000000004
 21
2566.952382889498
  0
LINE
  8
_0-0_
  6
CONTINUOUS
 62
    7
 10
2267.9485
 20
2616.952382889498
 11
2267.9485
 21
2566.952382889498
  0
LINE
  8
_0-0_
  6
CONTINUOUS
 62
    7
 10
1944.1484600000003
 20
2613.9523828894976
 11
1860.1484600000003
 21
2613.9523828894976
  0
LINE
  8
_0-0_
  6
CONTINUOUS
 62
    7
 10
1860.1484600000003
 20
2551.9524828894978
 11
1860.1484600000003
 21
2613.9523828894976
  0
LINE
  8
_0-0_
  6
CONTINUOUS
 62
    7
 10
1860.1484600000003
 20
2551.9524828894978
 11
1852.1485000000002
 21
2551.9524828894978
  0
LINE
  8
_0-0_
  6
CONTINUOUS
 62
    7
 10
1860.1484600000003
 20
2557.2147828894981
 11
1852.1485000000002
 21
2551.6187828894977
  0
LINE
  8
_0-0_
  6
CONTINUOUS
 62
    7
 10
1860.1484600000003
 20
2569.4183828894975
 11
1852.1485000000002
 21
2563.8223828894975
  0
LINE
  8
_0-0_
  6
CONTINUOUS
 62
    7
 10
1860.1484600000003
 20
2581.6219828894978
 11
1852.1485000000002
 21
2576.026082889498
  0
LINE
  8
_0-0_
  6
CONTINUOUS
 62
    7
 10
1860.1484600000003
 20
2593.8256828894978
 11
1852.1485000000002
 21
2588.2296828894978
  0
LINE
  8
_0-0_
  6
CONTINUOUS
 62
    7
 10
1860.1484600000003
 20
2606.0292828894981
 11
1852.1485000000002
 21
2600.433482889498
  0
LINE
  8
_0-0_
  6
CONTINUOUS
 62
    7
 10
1951.9174700000008
 20
2621.4066828894979
 11
1941.2608600000003
 21
2613.9523828894976
  0
LINE
  8
_0-0_
  6
CONTINUOUS
 62
    7
 10
1935.2512500000009
 20
2621.952382889498
 11
1923.8144300000004
 21
2613.9523828894976
  0
LINE
  8
_0-0_
  6
CONTINUOUS
 62
    7
 10
1917.8048800000006
 20
2621.952382889498
 11
1906.3680600000002
 21
2613.9523828894976
  0
LINE
  8
_0-0_
  6
CONTINUOUS
 62
    7
 10
1900.3585100000007
 20
2621.952382889498
 11
1888.9216200000005
 21
2613.9523828894976
  0
LINE
  8
_0-0_
  6
CONTINUOUS
 62
    7
 10
1882.9121400000004
 20
2621.952382889498
 11
1871.4752500000004
 21
2613.9523828894976
  0
LINE
  8
_0-0_
  6
CONTINUOUS
 62
    7
 10
1865.4657000000002
 20
2621.952382889498
 11
1852.1485000000002
 21
2612.6370828894978
  0
LINE
  8
_0-0_
  6
CONTINUOUS
 62
    7
 10
2002.1485200000004
 20
2543.9522828894978
 11
1944.1484600000003
 21
2543.9522828894978
  0
LINE
  8
_0-0_
  6
CONTINUOUS
 62
    7
 10
1957.3037900000006
 20
2551.9524828894978
 11
1945.8669600000003
 21
2543.9522828894978
  0
LINE
  8
_0-0_
  6
CONTINUOUS
 62
    7
 10
1974.7501500000003
 20
2551.9524828894978
 11
1963.3134000000002
 21
2543.9522828894978
  0
LINE
  8
_0-0_
  6
CONTINUOUS
 62
    7
 10
1954.1484900000007
 20
2613.9523828894976
 11
1954.1484900000007
 21
2551.9524828894978
  0
LINE
  8
_0-0_
  6
CONTINUOUS
 62
    7
 10
1952.1484900000009
 20
2560.5499828894981
 11
1944.1484600000003
 21
2554.9539828894981
  0
LINE
  8
_0-0_
  6
CONTINUOUS
 62
    7
 10
1952.1484900000009
 20
2572.7535828894979
 11
1944.1484600000003
 21
2567.1575828894979
  0
LINE
  8
_0-0_
  6
CONTINUOUS
 62
    7
 10
1952.1484900000009
 20
2584.9573828894977
 11
1944.1484600000003
 21
2579.3613828894981
  0
LINE
  8
_0-0_
  6
CONTINUOUS
 62
    7
 10
1952.1484900000009
 20
2597.1608828894978
 11
1944.1484600000003
 21
2591.5648828894978
  0
LINE
  8
_0-0_
  6
CONTINUOUS
 62
    7
 10
1952.1484900000009
 20
2609.3644828894976
 11
1944.1484600000003
 21
2603.768682889498
  0
LINE
  8
_0-0_
  6
CONTINUOUS
 62
    7
 10
2350.1484
 20
2561.952382889498
 11
1954.1484900000007
 21
2561.952382889498
  0
LINE
  8
_0-0_
  6
CONTINUOUS
 62
    7
 10
1936.1485000000002
 20
2571.1925828894978
 11
1944.1484600000003
 21
2571.1925828894978
  0
LINE
  8
_0-0_
  6
CONTINUOUS
 62
    7
 10
1936.1485000000002
 20
2571.1925828894978
 11
1936.1485000000002
 21
2521.3195828894977
  0
LINE
  8
_0-0_
  6
CONTINUOUS
 62
    7
 10
1944.1484600000003
 20
2613.9523828894976
 11
1944.1484600000003
 21
2521.1545828894978
  0
LINE
  8
_0-0_
  6
CONTINUOUS
 62
    7
 10
1936.1485000000002
 20
2521.3195828894977
 11
1945.4954300000002
 21
2506.6916828894978
  0
LINE
  8
_0-0_
  6
CONTINUOUS
 62
    7
 10
1944.1484600000003
 20
2521.1545828894978
 11
1953.3899200000003
 21
2506.6916828894978
  0
LINE
  8
_0-0_
  6
CONTINUOUS
 62
    7
 10
1945.4954300000002
 20
2506.6916828894978
 11
1953.3899200000003
 21
2506.6916828894978
  0
LINE
  8
_0-0_
  6
CONTINUOUS
 62
    7
 10
2360.1484000000005
 20
2613.9523828894976
 11
2444.1484000000005
 21
2613.9523828894976
  0
LINE
  8
_0-0_
  6
CONTINUOUS
 62
    7
 10
2444.1484000000005
 20
2551.9524828894978
 11
2444.1484000000005
 21
2613.9523828894976
  0
LINE
  8
_0-0_
  6
CONTINUOUS
 62
    7
 10
2444.1484000000005
 20
2551.9524828894978
 11
2452.1485000000002
 21
2551.9524828894978
  0
LINE
  8
_0-0_
  6
CONTINUOUS
 62
    7
 10
2444.1484000000005
 20
2557.2147828894981
 11
2452.1485000000002
 21
2551.6187828894977
  0
LINE
  8
_0-0_
  6
CONTINUOUS
 62
    7
 10
2444.1484000000005
 20
2569.4183828894975
 11
2452.1485000000002
 21
2563.8223828894975
  0
LINE
  8
_0-0_
  6
CONTINUOUS
 62
    7
 10
2444.1484000000005
 20
2581.6219828894978
 11
2452.1485000000002
 21
2576.026082889498
  0
LINE
  8
_0-0_
  6
CONTINUOUS
 62
    7
 10
2444.1484000000005
 20
2593.8256828894978
 11
2452.1485000000002
 21
2588.2296828894978
  0
LINE
  8
_0-0_
  6
CONTINUOUS
 62
    7
 10
2444.1484000000005
 20
2606.0292828894981
 11
2452.1485000000002
 21
2600.433482889498
  0
LINE
  8
_0-0_
  6
CONTINUOUS
 62
    7
 10
2352.3795000000005
 20
2621.4066828894979
 11
2363.0360000000001
 21
2613.9523828894976
  0
LINE
  8
_0-0_
  6
CONTINUOUS
 62
    7
 10
2369.0457000000001
 20
2621.952382889498
 11
2380.4825000000001
 21
2613.9523828894976
  0
LINE
  8
_0-0_
  6
CONTINUOUS
 62
    7
 10
2386.4920000000002
 20
2621.952382889498
 11
2397.9288000000006
 21
2613.9523828894976
  0
LINE
  8
_0-0_
  6
CONTINUOUS
 62
    7
 10
2403.9384000000005
 20
2621.952382889498
 11
2415.3753000000006
 21
2613.9523828894976
  0
LINE
  8
_0-0_
  6
CONTINUOUS
 62
    7
 10
2421.3849000000005
 20
2621.952382889498
 11
2432.8216000000002
 21
2613.9523828894976
  0
LINE
  8
_0-0_
  6
CONTINUOUS
 62
    7
 10
2438.8312000000005
 20
2621.952382889498
 11
2452.1485000000002
 21
2612.6370828894978
  0
LINE
  8
_0-0_
  6
CONTINUOUS
 62
    7
 10
2352.1485000000002
 20
2560.5499828894981
 11
2360.1484000000005
 21
2554.9539828894981
  0
LINE
  8
_0-0_
  6
CONTINUOUS
 62
    7
 10
2352.1485000000002
 20
2572.7535828894979
 11
2360.1484000000005
 21
2567.1575828894979
  0
LINE
  8
_0-0_
  6
CONTINUOUS
 62
    7
 10
2352.1485000000002
 20
2584.9573828894977
 11
2360.1484000000005
 21
2579.3613828894981
  0
LINE
  8
_0-0_
  6
CONTINUOUS
 62
    7
 10
2352.1485000000002
 20
2597.1608828894978
 11
2360.1484000000005
 21
2591.5648828894978
  0
LINE
  8
_0-0_
  6
CONTINUOUS
 62
    7
 10
2352.1485000000002
 20
2609.3644828894976
 11
2360.1484000000005
 21
2603.768682889498
  0
LINE
  8
_0-0_
  6
CONTINUOUS
 62
    7
 10
2368.1485000000002
 20
2571.1925828894978
 11
2360.1484000000005
 21
2571.1925828894978
  0
LINE
  8
_0-0_
  6
CONTINUOUS
 62
    7
 10
2368.1485000000002
 20
2571.1925828894978
 11
2368.1485000000002
 21
2521.3195828894977
  0
LINE
  8
_0-0_
  6
CONTINUOUS
 62
    7
 10
2360.1484000000005
 20
2613.9523828894976
 11
2360.1484000000005
 21
2521.1545828894978
  0
LINE
  8
_0-0_
  6
CONTINUOUS
 62
    7
 10
2368.1485000000002
 20
2521.3195828894977
 11
2358.8015000000005
 21
2506.6916828894978
  0
LINE
  8
_0-0_
  6
CONTINUOUS
 62
    7
 10
2346.9931999999999
 20
2551.9524828894978
 11
2358.4300000000003
 21
2543.9522828894978
  0
LINE
  8
_0-0_
  6
CONTINUOUS
 62
    7
 10
2329.5467000000008
 20
2551.9524828894978
 11
2340.9837000000002
 21
2543.9522828894978
  0
LINE
  8
_0-0_
  6
CONTINUOUS
 62
    7
 10
2360.1484000000005
 20
2521.1545828894978
 11
2350.9070000000002
 21
2506.6916828894978
  0
LINE
  8
_0-0_
  6
CONTINUOUS
 62
    7
 10
2358.8015000000005
 20
2506.6916828894978
 11
2350.9070000000002
 21
2506.6916828894978
  0
LINE
  8
_0-0_
  6
CONTINUOUS
 62
    7
 10
2319.7206000000006
 20
2543.9522828894978
 11
2360.1484000000005
 21
2543.9522828894978
  0
LINE
  8
_0-0_
  6
CONTINUOUS
 62
    7
 10
2312.1004000000003
 20
2551.9524828894978
 11
2323.5371000000005
 21
2543.9522828894978
  0
LINE
  8
_0-0_
  6
CONTINUOUS
 62
    7
 10
2352.1485000000002
 20
2551.9524828894978
 11
2302.1485000000002
 21
2551.9524828894978
  0
LINE
  8
_0-0_
  6
CONTINUOUS
 62
    7
 10
1998.5196900000003
 20
2571.952382889498
 11
1962.8314300000006
 21
2571.952382889498
  0
LINE
  8
_0-0_
  6
CONTINUOUS
 62
    7
 10
1970.6484800000003
 20
2571.952382889498
 11
1970.6484800000003
 21
2566.952382889498
  0
LINE
  8
_0-0_
  6
CONTINUOUS
 62
    7
 10
1980.6485100000004
 20
2571.952382889498
 11
1980.6485100000004
 21
2566.952382889498
  0
LINE
  8
_0-0_
  6
CONTINUOUS
 62
    7
 10
1990.6484800000003
 20
2571.952382889498
 11
1990.6484800000003
 21
2566.952382889498
  0
LINE
  8
_0-0_
  6
CONTINUOUS
 62
    7
 10
1975.6485
 20
2543.9522828894978
 11
1975.6485
 21
2533.952382889498
  0
LINE
  8
_0-0_
  6
CONTINUOUS
 62
    7
 10
1985.6484600000003
 20
2533.952382889498
 11
1975.6485
 21
2533.952382889498
  0
LINE
  8
_0-0_
  6
CONTINUOUS
 62
    7
 10
1985.6484600000003
 20
2543.9522828894978
 11
1985.6484600000003
 21
2533.952382889498
  0
LINE
  8
_0-0_
  6
CONTINUOUS
 62
    7
 10
2305.7771000000002
 20
2571.952382889498
 11
2341.4655000000002
 21
2571.952382889498
  0
LINE
  8
_0-0_
  6
CONTINUOUS
 62
    7
 10
2333.6483000000007
 20
2571.952382889498
 11
2333.6483000000007
 21
2566.952382889498
  0
LINE
  8
_0-0_
  6
CONTINUOUS
 62
    7
 10
2323.6484000000005
 20
2571.952382889498
 11
2323.6484000000005
 21
2566.952382889498
  0
LINE
  8
_0-0_
  6
CONTINUOUS
 62
    7
 10
2313.6484
 20
2571.952382889498
 11
2313.6484
 21
2566.952382889498
  0
LINE
  8
_0-0_
  6
CONTINUOUS
 62
    7
 10
2328.6483000000003
 20
2543.9522828894978
 11
2328.6483000000003
 21
2533.952382889498
  0
LINE
  8
_0-0_
  6
CONTINUOUS
 62
    7
 10
2318.6484000000005
 20
2533.952382889498
 11
2328.6483000000003
 21
2533.952382889498
  0
LINE
  8
_0-0_
  6
CONTINUOUS
 62
    7
 10
2318.6484000000005
 20
2543.9522828894978
 11
2318.6484000000005
 21
2533.952382889498
  0
LINE
  8
_0-0_
  6
CONTINUOUS
 62
    7
 10
1852.1485000000002
 20
2116.9522828894978
 11
1852.1485000000002
 21
2621.952382889498
  0
LINE
  8
_0-0_
  6
CONTINUOUS
 62
    7
 10
1852.1485000000002
 20
2116.9522828894978
 11
1892.1484900000003
 21
2076.9522828894983
  0
LINE
  8
_0-0_
  6
CONTINUOUS
 62
    7
 10
2452.1485000000002
 20
2116.9522828894978
 11
2452.1485000000002
 21
2621.952382889498
  0
LINE
  8
_0-0_
  6
CONTINUOUS
 62
    7
 10
2412.1485000000002
 20
2076.9522828894983
 11
2452.1485000000002
 21
2116.9522828894978
  0
LINE
  8
_0-0_
  6
CONTINUOUS
 62
    7
 10
1892.1484900000003
 20
2368.4401828894979
 11
1852.1485000000002
 21
2368.4401828894979
  0
LINE
  8
_0-0_
  6
CONTINUOUS
 62
    7
 10
1892.1484900000003
 20
2328.4401828894979
 11
1852.1485000000002
 21
2328.4401828894979
  0
LINE
  8
_0-0_
  6
CONTINUOUS
 62
    7
 10
1892.1484900000003
 20
2328.4401828894979
 11
1892.1484900000003
 21
2368.4401828894979
  0
LINE
  8
_0-0_
  6
CONTINUOUS
 62
    7
 10
2412.1485000000002
 20
2328.4401828894979
 11
2412.1485000000002
 21
2368.4401828894979
  0
LINE
  8
_0-0_
  6
CONTINUOUS
 62
    7
 10
2412.1485000000002
 20
2328.4401828894979
 11
2452.1485000000002
 21
2328.4401828894979
  0
LINE
  8
_0-0_
  6
CONTINUOUS
 62
    7
 10
2412.1485000000002
 20
2368.4401828894979
 11
2452.1485000000002
 21
2368.4401828894979
  0
LINE
  8
_0-0_
  6
CONTINUOUS
 62
    7
 10
1852.1485000000002
 20
2333.7455828894981
 11
1852.1485000000002
 21
2255.930082889498
  0
LINE
  8
_0-0_
  6
CONTINUOUS
 62
    7
 10
2011.2537500000001
 20
2256.0297828894977
 11
2001.8407400000008
 21
2561.952382889498
  0
LINE
  8
_0-0_
  6
CONTINUOUS
 62
    7
 10
2293.0431000000008
 20
2256.0297828894977
 11
2302.4561000000003
 21
2561.952382889498
  0
LINE
  8
_0-0_
  6
CONTINUOUS
 62
    7
 10
2301.9023000000002
 20
2543.9522828894978
 11
2319.7206000000006
 21
2543.9522828894978
  0
LINE
  8
_0-0_
  6
CONTINUOUS
 62
    7
 10
2350.1484
 20
2556.952382889498
 11
2302.3023000000003
 21
2556.952382889498
  0
ARC
  8
_0-0_
  6
CONTINUOUS
 62
    7
 10
1980.6756000000005
 20
2566.8866828894979
 40
18.549265999999996
 50
0.2028961
 51
179.79707999999999
  0
ARC
  8
_0-0_
  6
CONTINUOUS
 62
    7
 10
2323.6214000000004
 20
2566.8866828894979
 40
18.549265999999996
 50
0.2028961
 51
179.79707999999999
  0
CIRCLE
  8
_0-0_
  6
CONTINUOUS
 62
    7
 10
1872.1739500000001
 20
2348.3053828894977
 40
10.000954999999998
  0
CIRCLE
  8
_0-0_
  6
CONTINUOUS
 62
    7
 10
2432.1231000000002
 20
2348.3053828894977
 40
10.000954999999998
  0
LINE
  8
_0-0_
  6
CONTINUOUS
 62
    7
 10
2198.7445283049528
 20
2561.952382889498
 11
2152.1485000000002
 21
2561.952382889498
  0
LINE
  8
_0-0_
  6
CONTINUOUS
 62
    7
 10
1852.1485000000002
 20
2283.2228817209011
 11
1852.1485000000002
 21
2251.385404073962
  0
LINE
  8
_0-0_
  6
CONTINUOUS
 62
    7
 10
2452.1485000000002
 20
2283.2228817209011
 11
2452.1485000000002
 21
2251.385404073962
  0
LINE
  8
_0-0_
  6
CONTINUOUS
 62
    7
 10
1892.1484900000003
 20
2076.9522828894983
 11
2412.1485000000002
 21
2076.9522828894983
  0
LINE
  8
_0-0_
  6
CONTINUOUS
 62
    7
 10
2041.2395500000005
 20
2226.9522838894977
 11
2263.0573000000004
 21
2226.9522838894977
  0
LINE
  8
_0-0_
  6
CONTINUOUS
 62
    7
 10
1954.1484900000007
 20
2621.952382889498
 11
2350.1484
 21
2621.952382889498
  0
LINE
  8
_0-0_
  6
CONTINUOUS
 62
    7
 10
2517.9452831946014
 20
2076.9522828894983
 11
2517.9452831946014
 21
2226.9522838894977
  0
POINT
  8
_0-0_
 62
    7
 10
2517.9452831946014
 20
2076.9522828894983
  0
POINT
  8
_0-0_
 62
    7
 10
2517.9452831946014
 20
2226.9522838894977
  0
LINE
  8
_0-0_
  6
CONTINUOUS
 62
    7
 10
2517.9452831946014
 20
2076.9522828894983
 11
2472.7390670553937
 21
2076.9522828894983
  0
LINE
  8
_0-0_
  6
CONTINUOUS
 62
    7
 10
2517.9452831946014
 20
2226.9522838894977
 11
2472.7390670553937
 21
2226.9522838894977
  0
LINE
  8
_0-0_
  6
CONTINUOUS
 62
    7
 10
2517.9452831946014
 20
2226.9522838894977
 11
2517.9452831946014
 21
2561.952382889498
  0
POINT
  8
_0-0_
 62
    7
 10
2517.9452831946014
 20
2561.952382889498
  0
LINE
  8
_0-0_
  6
CONTINUOUS
 62
    7
 10
2517.9452831946014
 20
2561.952382889498
 11
2472.7390670553937
 21
2561.952382889498
  0
LINE
  8
_0-0_
  6
CONTINUOUS
 62
    7
 10
2517.9452831946014
 20
2561.952382889498
 11
2517.9452831946014
 21
2621.952382889498
  0
POINT
  8
_0-0_
 62
    7
 10
2517.9452831946014
 20
2621.952382889498
  0
LINE
  8
_0-0_
  6
CONTINUOUS
 62
    7
 10
2517.9452831946014
 20
2621.952382889498
 11
2472.7390670553937
 21
2621.952382889498
  0
LINE
  8
_0-0_
  6
CONTINUOUS
 62
    7
 10
1852.1485000000002
 20
1837.4252232523427
 11
2452.1485000000002
 21
1837.4252232523427
  0
POINT
  8
_0-0_
 62
    7
 10
1852.1485000000002
 20
1837.4252232523427
  0
POINT
  8
_0-0_
 62
    7
 10
2452.1485000000002
 20
1837.4252232523427
  0
LINE
  8
_0-0_
  6
CONTINUOUS
 62
    7
 10
1852.1485000000002
 20
1922.7084549709521
 11
1892.1484900000003
 21
1922.7084549709521
  0
POINT
  8
_0-0_
 62
    7
 10
1852.1485000000002
 20
1922.7084549709521
  0
POINT
  8
_0-0_
 62
    7
 10
1892.1484900000003
 20
1922.7084549709521
  0
LINE
  8
_0-0_
  6
CONTINUOUS
 62
    7
 10
1852.1485000000002
 20
1922.7084549709521
 11
1852.1485000000002
 21
2038.6846686235713
  0
LINE
  8
_0-0_
  6
CONTINUOUS
 62
    7
 10
1892.1484900000003
 20
1922.7084549709521
 11
2412.1485000000002
 21
1922.7084549709521
  0
POINT
  8
_0-0_
 62
    7
 10
2412.1485000000002
 20
1922.7084549709521
  0
LINE
  8
_0-0_
  6
CONTINUOUS
 62
    7
 10
2412.1485000000002
 20
1922.7084549709521
 11
2452.1485000000002
 21
1922.7084549709521
  0
POINT
  8
_0-0_
 62
    7
 10
2452.1485000000002
 20
1922.7084549709521
  0
LINE
  8
_0-0_
  6
CONTINUOUS
 62
    7
 10
2452.1485000000002
 20
1922.7084549709521
 11
2452.1485000000002
 21
2038.6846686235713
  0
LINE
  8
_0-0_
  6
CONTINUOUS
 62
    7
 10
1852.1485000000002
 20
2013.677279200394
 11
2011.2537500000001
 21
2013.677279200394
  0
POINT
  8
_0-0_
 62
    7
 10
1852.1485000000002
 20
2013.677279200394
  0
POINT
  8
_0-0_
 62
    7
 10
2011.2537500000001
 20
2013.677279200394
  0
LINE
  8
_0-0_
  6
CONTINUOUS
 62
    7
 10
1852.1485000000002
 20
2013.677279200394
 11
1852.1485000000002
 21
2038.6846686235713
  0
LINE
  8
_0-0_
  6
CONTINUOUS
 62
    7
 10
2011.2537500000001
 20
2013.677279200394
 11
2293.0431000000008
 21
2013.677279200394
  0
POINT
  8
_0-0_
 62
    7
 10
2293.0431000000008
 20
2013.677279200394
  0
LINE
  8
_0-0_
  6
CONTINUOUS
 62
    7
 10
2293.0431000000008
 20
2013.677279200394
 11
2452.1485000000002
 21
2013.677279200394
  0
POINT
  8
_0-0_
 62
    7
 10
2452.1485000000002
 20
2013.677279200394
  0
LINE
  8
_0-0_
  6
CONTINUOUS
 62
    7
 10
2452.1485000000002
 20
2013.677279200394
 11
2452.1485000000002
 21
2038.6846686235713
  0
LINE
  8
_0-0_
  6
CONTINUOUS
 62
    7
 10
2412.1485000000002
 20
1922.7084549709521
 11
2412.1485000000002
 21
2013.677279200394
  0
LINE
  8
_0-0_
  6
CONTINUOUS
 62
    7
 10
1892.1484900000003
 20
1922.7084549709521
 11
1892.1484900000003
 21
2013.677279200394
  0
LINE
  8
_0-0_
  6
CONTINUOUS
 62
    7
 10
4431.928128994392
 20
2116.952382889498
 11
4431.928128994392
 21
2621.952382889498
  0
LINE
  8
_0-0_
  6
CONTINUOUS
 62
    7
 10
4391.9282289943922
 20
2076.9523828894985
 11
4431.928128994392
 21
2116.952382889498
  0
LINE
  8
_0-0_
  6
CONTINUOUS
 62
    7
 10
4392.1650289943927
 20
2368.475282889498
 11
4432.1652289943931
 21
2368.475282889498
  0
LINE
  8
_0-0_
  6
CONTINUOUS
 62
    7
 10
4392.1650289943927
 20
2328.4751828894978
 11
4432.1652289943931
 21
2328.4751828894978
  0
LINE
  8
_0-0_
  6
CONTINUOUS
 62
    7
 10
4392.1650289943927
 20
2328.4751828894978
 11
4392.1650289943927
 21
2368.475282889498
  0
CIRCLE
  8
_0-0_
  6
CONTINUOUS
 62
    7
 10
4412.1395289943921
 20
2348.3404828894977
 40
10.000954999999998
  0
LINE
  8
_0-0_
  6
CONTINUOUS
 62
    7
 10
2971.2337695957272
 20
2328.4751828894978
 11
2971.2337695957272
 21
2368.475282889498
  0
CIRCLE
  8
_0-0_
  6
CONTINUOUS
 62
    7
 10
2951.2591695957267
 20
2348.3404828894977
 40
10.000954999999998
  0
LINE
  8
_0-0_
  6
CONTINUOUS
 62
    7
 10
2971.2337695957272
 20
2328.4751828894978
 11
2931.9280289943936
 21
2328.4751828894978
  0
LINE
  8
_0-0_
  6
CONTINUOUS
 62
    7
 10
2971.2337695957272
 20
2368.475282889498
 11
2931.9280289943936
 21
2368.475282889498
  0
LINE
  8
_0-0_
  6
CONTINUOUS
 62
    7
 10
4431.928128994392
 20
2226.952382889498
 11
2931.9280289943936
 21
2226.952382889498
  0
LINE
  8
_0-0_
  6
CONTINUOUS
 62
    7
 10
4391.9282289943922
 20
2076.9523828894985
 11
2971.9280289943936
 21
2076.9523828894985
  0
LINE
  8
_0-0_
  6
CONTINUOUS
 62
    7
 10
2931.9280289943936
 20
2116.952382889498
 11
2931.9280289943936
 21
2621.952382889498
  0
LINE
  8
_0-0_
  6
CONTINUOUS
 62
    7
 10
2931.9280289943936
 20
2116.952382889498
 11
2971.9280289943936
 21
2076.952382889498
  0
LINE
  8
_0-0_
  6
CONTINUOUS
 62
    7
 10
4431.928128994392
 20
2551.9524828894978
 11
2931.9280289943936
 21
2551.9524828894978
  0
LINE
  8
_0-0_
  6
CONTINUOUS
 62
    7
 10
4431.928128994392
 20
2621.952382889498
 11
2931.9280289943936
 21
2621.952382889498
  0
LINE
  8
_0-0_
  6
CONTINUOUS
 62
    7
 10
1852.1485000000002
 20
1837.4252232523427
 11
1852.1485000000002
 21
2068.3968658892131
  0
LINE
  8
_0-0_
  6
CONTINUOUS
 62
    7
 10
2011.2537500000001
 20
2013.677279200394
 11
2011.2537500000001
 21
2068.3968658892131
  0
LINE
  8
_0-0_
  6
CONTINUOUS
 62
    7
 10
2293.0431000000008
 20
2013.677279200394
 11
2293.0431000000008
 21
2068.3968658892131
  0
LINE
  8
_0-0_
  6
CONTINUOUS
 62
    7
 10
2452.1485000000002
 20
1837.4252232523427
 11
2452.1485000000002
 21
2068.3968658892131
  0
LINE
  8
_0-0_
  6
CONTINUOUS
 62
    7
 10
2580.2222629672292
 20
2621.952382889498
 11
2580.2222629672292
 21
2076.9522828894983
  0
POINT
  8
_0-0_
 62
    7
 10
2580.2222629672292
 20
2621.952382889498
  0
POINT
  8
_0-0_
 62
    7
 10
2580.2222629672292
 20
2076.9522828894983
  0
LINE
  8
_0-0_
  6
CONTINUOUS
 62
    7
 10
2580.2222629672292
 20
2621.952382889498
 11
2472.7390670553937
 21
2621.952382889498
  0
LINE
  8
_0-0_
  6
CONTINUOUS
 62
    7
 10
2580.2222629672292
 20
2076.9522828894983
 11
2472.7390670553937
 21
2076.9522828894983
  0
LINE
  8
_0-0_
  6
CONTINUOUS
 62
    7
 10
2452.1485000000002
 20
2668.3356009070294
 11
2352.1485000000002
 21
2668.3356009070294
  0
POINT
  8
_0-0_
 62
    7
 10
2452.1485000000002
 20
2668.3356009070294
  0
POINT
  8
_0-0_
 62
    7
 10
2352.1485000000002
 20
2668.3356009070294
  0
LINE
  8
_0-0_
  6
CONTINUOUS
 62
    7
 10
2452.1485000000002
 20
2668.3356009070294
 11
2452.1485000000002
 21
2634.6787603930461
  0
LINE
  8
_0-0_
  6
CONTINUOUS
 62
    7
 10
2352.1485000000002
 20
2668.3356009070294
 11
2352.1485000000002
 21
2634.6787603930461
  0
LINE
  8
_0-0_
  6
CONTINUOUS
 62
    7
 10
2352.1485000000002
 20
2668.3356009070294
 11
2302.1485000000002
 21
2668.3356009070294
  0
POINT
  8
_0-0_
 62
    7
 10
2302.1485000000002
 20
2668.3356009070294
  0
LINE
  8
_0-0_
  6
CONTINUOUS
 62
    7
 10
2302.1485000000002
 20
2668.3356009070294
 11
2302.1485000000002
 21
2634.6787603930461
  0
LINE
  8
_0-0_
  6
CONTINUOUS
 62
    7
 10
2302.1485000000002
 20
2668.3356009070294
 11
2002.1485200000004
 21
2668.3356009070294
  0
POINT
  8
_0-0_
 62
    7
 10
2002.1485200000004
 20
2668.3356009070294
  0
LINE
  8
_0-0_
  6
CONTINUOUS
 62
    7
 10
2002.1485200000004
 20
2668.3356009070294
 11
2002.1485200000004
 21
2634.6787603930461
  0
LINE
  8
_0-0_
  6
CONTINUOUS
 62
    7
 10
2002.1485200000004
 20
2668.3356009070294
 11
1952.1484900000009
 21
2668.3356009070294
  0
POINT
  8
_0-0_
 62
    7
 10
1952.1484900000009
 20
2668.3356009070294
  0
LINE
  8
_0-0_
  6
CONTINUOUS
 62
    7
 10
1952.1484900000009
 20
2668.3356009070294
 11
1952.1484900000009
 21
2634.6787603930461
  0
LINE
  8
_0-0_
  6
CONTINUOUS
 62
    7
 10
1952.1484900000009
 20
2668.3356009070294
 11
1852.1485000000002
 21
2668.3356009070294
  0
POINT
  8
_0-0_
 62
    7
 10
1852.1485000000002
 20
2668.3356009070294
  0
LINE
  8
_0-0_
  6
CONTINUOUS
 62
    7
 10
1852.1485000000002
 20
2668.3356009070294
 11
1852.1485000000002
 21
2634.6787603930461
  0
LINE
  8
_0-0_
  6
CONTINUOUS
 62
    7
 10
2931.9280289943936
 20
2668.3356009070294
 11
4431.928128994392
 21
2668.3356009070294
  0
POINT
  8
_0-0_
 62
    7
 10
2931.9280289943936
 20
2668.3356009070294
  0
POINT
  8
_0-0_
 62
    7
 10
4431.928128994392
 20
2668.3356009070294
  0
LINE
  8
_0-0_
  6
CONTINUOUS
 62
    7
 10
2931.9280289943936
 20
2668.3356009070294
 11
2931.9280289943936
 21
2634.6787603930461
  0
LINE
  8
_0-0_
  6
CONTINUOUS
 62
    7
 10
4431.928128994392
 20
2668.3356009070294
 11
4431.928128994392
 21
2634.6787603930461
  0
TEXT
  8
_0-0_
 62
    4
 10
2117.7734250000003
 20
2019.177279200394
 40
27.5
 41
1
 50
0
  1
250
  0
TEXT
  8
_0-0_
 62
    7
 10
1909.5553395961558
 20
1439.5395914318108
 40
44
 41
1
 50
0
  1
横断側溝　GLG300E×2M
  0
TEXT
  8
_0-0_
 62
    7
 10
3513.501954400766
 20
1439.0998752003304
 40
44
 41
1
 50
0
  1
1544㎏
  0
TEXT
  8
_0-0_
 62
    4
 10
2131.5234950000004
 20
1928.2084549709521
 40
27.5
 41
1
 50
0
  1
300
  0
TEXT
  8
_0-0_
 62
    4
 10
2512.4452831946014
 20
2373.8273333894981
 40
27.5
 41
1
 50
90
  1
725
  0
TEXT
  8
_0-0_
 62
    4
 10
1897.3261250000003
 20
2019.177279200394
 40
27.5
 41
1
 50
0
  1
150
  0
TEXT
  8
_0-0_
 62
    4
 10
2338.2208000000005
 20
2019.177279200394
 40
27.5
 41
1
 50
0
  1
150
  0
TEXT
  8
_0-0_
 62
    4
 10
2574.7222629672292
 20
2328.8273328894984
 40
27.5
 41
1
 50
90
  1
945
  0
ENDSEC
  0
EOF
