  0
SECTION
  2
HEADER
  9
$ACADVER
  1
AC1009
  9
$INSBASE
 10
0
 20
0
 30
0
  9
$EXTMIN
 10
0
 20
0
  9
$EXTMAX
 10
4200
 20
2970
  9
$LIMMIN
 10
0
 20
0
  9
$LIMMAX
 10
4200
 20
2970
  9
$LTSCALE
 40
10
  0
ENDSEC
  0
SECTION
  2
TABLES
  0
TABLE
  2
LTYPE
 70
     9
  0
LTYPE
  2
CONTINUOUS
 70
    64
  3
実線
 72
    65
 73
     0
 40
0.0
  0
LTYPE
  2
DASHED1
 70
    64
  3
--  --  --  --  --  --  --  --  
 72
    65
 73
     2
 40
2.5
 49
1.25
 49
-1.25
  0
LTYPE
  2
DASHED2
 70
    64
  3
----    ----    ----    ----    
 72
    65
 73
     2
 40
5.0
 49
2.5
 49
-2.5
  0
LTYPE
  2
DASHED3
 70
    64
  3
------  ------  ------  ------  
 72
    65
 73
     2
 40
5.0
 49
3.75
 49
-1.25
  0
LTYPE
  2
CENTER1
 70
    64
  3
----- - ----- - ----- - ----- - 
 72
    65
 73
     4
 40
10.0
 49
6.25
 49
-1.25
 49
1.25
 49
-1.25
  0
LTYPE
  2
CENTER2
 70
    64
  3
----------  --  ----------  --  
 72
    65
 73
     4
 40
20.0
 49
12.5
 49
-2.5
 49
2.5
 49
-2.5
  0
LTYPE
  2
PHANTOM1
 70
    64
  3
--- - - --- - - --- - - --- - - 
 72
    65
 73
     6
 40
10.0
 49
3.25
 49
-1.25
 49
1.25
 49
-1.25
 49
1.25
 49
-1.25
  0
LTYPE
  2
PHANTOM2
 70
    64
  3
--------  -  -  --------  -  -  
 72
    65
 73
     6
 40
20.0
 49
10.0
 49
-2.5
 49
1.25
 49
-2.5
 49
1.25
 49
-2.5
  0
LTYPE
  2
DOT
 70
    64
  3
-   -   -   -   -   -   -   -   
 72
    65
 73
     2
 40
2.5
 49
0.625
 49
-1.875
  0
LTYPE
  2
DUMMY
 70
    64
  3
ダミー
 72
    65
 73
     0
 40
0.0
  0
LTYPE
  2
RAND1
 70
    64
  3
ランダム線1
 72
    65
 73
     4
 40
10.0
 49
1.0
 49
-2.0
 49
3.0
 49
-4.0
  0
LTYPE
  2
RAND2
 70
    64
  3
ランダム線2
 72
    65
 73
     4
 40
14.0
 49
2.0
 49
-3.0
 49
4.0
 49
-5.0
  0
LTYPE
  2
RAND3
 70
    64
  3
ランダム線3
 72
    65
 73
     4
 40
18.0
 49
3.0
 49
-4.0
 49
5.0
 49
-6.0
  0
LTYPE
  2
RAND4
 70
    64
  3
ランダム線4
 72
    65
 73
     4
 40
22.0
 49
4.0
 49
-5.0
 49
6.0
 49
-7.0
  0
LTYPE
  2
RAND5
 70
    64
  3
ランダム線5
 72
    65
 73
     4
 40
26.0
 49
5.0
 49
-6.0
 49
7.0
 49
-8.0
  0
LTYPE
  2
LONG1
 70
    64
  3
----------  --  ----------  --  
 72
    65
 73
     4
 40
40.0
 49
32.5
 49
-2.5
 49
2.5
 49
-2.5
  0
LTYPE
  2
LONG2
 70
    64
  3
--------  -  -  --------  -  -  
 72
    65
 73
     6
 40
40.0
 49
30.0
 49
-2.5
 49
1.25
 49
-2.5
 49
1.25
 49
-2.5
  0
LTYPE
  2
LONG3
 70
    64
  3
+++++++++++++++..+++++++++++++++
 72
    65
 73
     2
 40
40.0
 49
37.5
 49
-2.5
  0
LTYPE
  2
LONG4
 70
    64
  3
+++++++++++++++..+++++++++++++++
 72
    65
 73
     2
 40
80.0
 49
75.0
 49
-5.0
  0
LTYPE
  2
LONG5
 70
    64
  3
----------  --  ----------  --  
 72
    65
 73
     4
 40
60.0
 49
37.5
 49
-7.5
 49
7.5
 49
-7.5
  0
LTYPE
  2
dashed
 70
   64
  3
-------   -------------   ------
 72
   65
 73
    2
 40
7.5
 49
6
 49
-1.5
  0
LTYPE
  2
dashed_spaced
 70
   64
  3
----        --------        ----
 72
   65
 73
    2
 40
12
 49
6
 49
-6
  0
LTYPE
  2
long_dashed_dotted
 70
   64
  3
------------- --- --------------
 72
   65
 73
    4
 40
15.25
 49
12
 49
-1.5
 49
0.25
 49
-1.5
  0
LTYPE
  2
long_dashed_double-dotted
 70
   64
  3
----------- --- --- ------------
 72
   65
 73
    6
 40
17
 49
12
 49
-1.5
 49
0.25
 49
-1.5
 49
0.25
 49
-1.5
  0
LTYPE
  2
long_dashed_triplicate-dotted
 70
   64
  3
--------- --- --- --- ----------
 72
   65
 73
    8
 40
18.75
 49
12
 49
-1.5
 49
0.25
 49
-1.5
 49
0.25
 49
-1.5
 49
0.25
 49
-1.5
  0
LTYPE
  2
dotted
 70
   64
  3
   -       -       -       -    
 72
   65
 73
    2
 40
1.75
 49
0.25
 49
-1.5
  0
LTYPE
  2
chain
 70
   64
  3
-------------- -- --------------
 72
   65
 73
    4
 40
18.5
 49
12
 49
-1.5
 49
3.5
 49
-1.5
  0
LTYPE
  2
chain_double_dash
 70
   64
  3
------------ -- -- -------------
 72
   65
 73
    6
 40
23.5
 49
12
 49
-1.5
 49
3.5
 49
-1.5
 49
3.5
 49
-1.5
  0
LTYPE
  2
dashed_dotted
 70
   64
  3
-----------     -     ----------
 72
   65
 73
    4
 40
9.25
 49
6
 49
-1.5
 49
0.25
 49
-1.5
  0
LTYPE
  2
double-dashed_dotted
 70
   64
  3
------   -----------   -   -----
 72
   65
 73
    6
 40
16.75
 49
6
 49
-1.5
 49
6
 49
-1.5
 49
0.25
 49
-1.5
  0
LTYPE
  2
dashed_double-dotted
 70
   64
  3
---------    -    -    ---------
 72
   65
 73
    6
 40
11
 49
6
 49
-1.5
 49
0.25
 49
-1.5
 49
0.25
 49
-1.5
  0
LTYPE
  2
double-dashed_double-dotted
 70
   64
  3
-----   ---------   -   -   ----
 72
   65
 73
    8
 40
18.5
 49
6
 49
-1.5
 49
6
 49
-1.5
 49
0.25
 49
-1.5
 49
0.25
 49
-1.5
  0
LTYPE
  2
dashed_triplicate-dotted
 70
   64
  3
-------    -    -    -    ------
 72
   65
 73
    8
 40
12.75
 49
6
 49
-1.5
 49
0.25
 49
-1.5
 49
0.25
 49
-1.5
 49
0.25
 49
-1.5
  0
LTYPE
  2
double-dashed_triplicate-dotted
 70
   64
  3
-----  ---------  -  -  -  -----
 72
   65
 73
   10
 40
20.25
 49
6
 49
-1.5
 49
6
 49
-1.5
 49
0.25
 49
-1.5
 49
0.25
 49
-1.5
 49
0.25
 49
-1.5
  0
LTYPE
  2
undefined
 70
   64
  3
--------------------------------
 72
   65
 73
    0
 40
0
  0
ENDTAB
  0
TABLE
  2
STYLE
  5
3
100
AcDbSymbolTable
 70
     1
  0
STYLE
  5
10
100
AcDbSymbolTableRecord
100
AcDbTextStyleTableRecord
  2
STANDARD
 70
     0
 40
0.0
 41
1.0
 50
0.0
 71
     0
 42
0.2
  3
txt
  4
bigfont.shx
  0
STYLE
  5
26
100
AcDbSymbolTableRecord
100
AcDbTextStyleTableRecord
  2
TATEGAKI
 70
    68
 40
0.0
 41
1.0
 50
0.0
 71
     0
 42
1.0
  3
txt
  4
bigfont.shx
  0
ENDTAB
  0
TABLE
  2
LAYER
 70
    2
  0
LAYER
  2
_0-0_
 70
   64
 62
    7
  6
CONTINUOUS
  0
LAYER
  2
ADD_LINE
 70
   64
 62
    7
  6
CONTINUOUS
  0
ENDTAB
  0
ENDSEC
  0
SECTION
  2
BLOCKS
  0
ENDSEC
  0
SECTION
  2
ENTITIES
  0
LINE
  8
_0-0_
  6
CONTINUOUS
 62
    7
 10
744.2356959863364
 20
473.98377455166525
 11
3369.6840307429547
 21
473.98377455166525
  0
LINE
  8
_0-0_
  6
CONTINUOUS
 62
    7
 10
744.2356959863364
 20
573.98377455166519
 11
744.2356959863364
 21
473.98377455166525
  0
LINE
  8
_0-0_
  6
CONTINUOUS
 62
    7
 10
3369.6840307429547
 20
573.98377455166519
 11
3369.6840307429547
 21
473.98377455166525
  0
LINE
  8
_0-0_
  6
CONTINUOUS
 62
    7
 10
744.2356959863364
 20
2245.3757472245943
 11
3369.6840307429547
 21
2245.3757472245943
  0
LINE
  8
_0-0_
  6
CONTINUOUS
 62
    7
 10
744.2356959863364
 20
2245.3757472245943
 11
744.2356959863364
 21
573.98377455166519
  0
LINE
  8
_0-0_
  6
CONTINUOUS
 62
    7
 10
744.2356959863364
 20
573.98377455166519
 11
3369.6840307429547
 21
573.98377455166519
  0
LINE
  8
_0-0_
  6
CONTINUOUS
 62
    7
 10
3369.6840307429547
 20
2245.3757472245943
 11
3369.6840307429547
 21
573.98377455166542
  0
TEXT
  8
_0-0_
 62
    7
 10
1285.1349252246689
 20
1424.4032121268253
 40
50
 41
1
 50
90
  1
100
  0
TEXT
  8
_0-0_
 62
    7
 10
1476.7205035438701
 20
1339.2540662071804
 40
50
 41
1
 50
0
  1
250
  0
TEXT
  8
_0-0_
 62
    7
 10
2475.0942394517083
 20
1826.732926597148
 40
50
 41
1
 50
90
  1
100
  0
TEXT
  8
_0-0_
 62
    7
 10
2517.55792219161
 20
924.44011263345931
 40
50
 41
1
 50
90
  1
100
  0
TEXT
  8
_0-0_
 62
    7
 10
2226.7168241854297
 20
2018.1872529018017
 40
50
 41
1
 50
0
  1
250
  0
TEXT
  8
_0-0_
 62
    7
 10
2891.9591142975792
 20
1341.7460873330194
 40
50
 41
1
 50
0
  1
100
  0
TEXT
  8
_0-0_
 62
    7
 10
1585.9902541272868
 20
2049.4090528065904
 40
50
 41
1
 50
0
  1
M16ｲﾝｻｰﾄ穴
  0
LINE
  8
_0-0_
  6
CONTINUOUS
 62
    7
 10
1379.0777113578138
 20
1911.8146883005977
 11
2379.0777113578138
 21
1911.8146883005977
  0
LINE
  8
_0-0_
  6
CONTINUOUS
 62
    7
 10
1379.0777113578138
 20
1411.8146883005977
 11
2379.0777113578138
 21
1411.8146883005977
  0
LINE
  8
_0-0_
  6
CONTINUOUS
 62
    7
 10
1379.0777113578138
 20
1911.8146883005977
 11
1379.0777113578138
 21
1411.8146883005977
  0
LINE
  8
_0-0_
  6
CONTINUOUS
 62
    7
 10
2379.0777113578138
 20
1411.8146883005977
 11
2379.0777113578138
 21
1911.8146883005977
  0
LINE
  8
_0-0_
  6
CONTINUOUS
 62
    7
 10
2879.0777113578138
 20
1411.8146883005977
 11
2879.0777113578138
 21
1911.8146883005977
  0
LINE
  8
_0-0_
  6
CONTINUOUS
 62
    7
 10
2979.0777113578138
 20
1411.8146883005977
 11
2979.0777113578138
 21
1911.8146883005977
  0
LINE
  8
_0-0_
  6
CONTINUOUS
 62
    7
 10
2979.0777113578138
 20
1911.8146883005977
 11
2879.0777113578138
 21
1911.8146883005977
  0
LINE
  8
_0-0_
  6
CONTINUOUS
 62
    7
 10
2979.0777113578138
 20
1411.8146883005977
 11
2879.0777113578138
 21
1411.8146883005977
  0
LINE
  8
_0-0_
  6
CONTINUOUS
 62
    7
 10
1379.0777113578138
 20
911.81468830059771
 11
2379.0777113578138
 21
911.81468830059771
  0
LINE
  8
_0-0_
  6
CONTINUOUS
 62
    7
 10
1379.0777113578138
 20
1011.8146883005977
 11
2379.0777113578138
 21
1011.8146883005977
  0
LINE
  8
_0-0_
  6
CONTINUOUS
 62
    7
 10
1379.0777113578138
 20
1011.8146883005977
 11
1379.0777113578138
 21
911.81468830059771
  0
LINE
  8
_0-0_
  6
CONTINUOUS
 62
    7
 10
2379.0777113578138
 20
1011.8146883005977
 11
2379.0777113578138
 21
911.81468830059771
  0
LINE
  8
_0-0_
  6
CONTINUOUS
 62
    7
 10
1379.0777113578138
 20
1330.7728437233136
 11
1629.0777113578138
 21
1330.7728437233136
  0
POINT
  8
_0-0_
 62
    7
 10
1379.0777113578138
 20
1330.7728437233136
  0
POINT
  8
_0-0_
 62
    7
 10
1629.0777113578138
 20
1330.7728437233136
  0
LINE
  8
_0-0_
  6
CONTINUOUS
 62
    7
 10
1379.0777113578138
 20
1330.7728437233136
 11
1379.0777113578138
 21
1366.6396242527753
  0
LINE
  8
_0-0_
  6
CONTINUOUS
 62
    7
 10
1629.0777113578138
 20
1330.7728437233136
 11
1629.0777113578138
 21
1366.6396242527753
  0
LINE
  8
_0-0_
  6
CONTINUOUS
 62
    7
 10
2879.0777113578138
 20
1330.7728437233136
 11
2979.0777113578138
 21
1330.7728437233136
  0
POINT
  8
_0-0_
 62
    7
 10
2879.0777113578138
 20
1330.7728437233136
  0
POINT
  8
_0-0_
 62
    7
 10
2979.0777113578138
 20
1330.7728437233136
  0
LINE
  8
_0-0_
  6
CONTINUOUS
 62
    7
 10
2879.0777113578138
 20
1330.7728437233136
 11
2879.0777113578138
 21
1366.6396242527753
  0
LINE
  8
_0-0_
  6
CONTINUOUS
 62
    7
 10
2979.0777113578138
 20
1330.7728437233136
 11
2979.0777113578138
 21
1366.6396242527753
  0
LINE
  8
_0-0_
  6
CONTINUOUS
 62
    7
 10
1379.0777113578138
 20
1269.7993168232281
 11
2379.0777113578138
 21
1269.7993168232281
  0
POINT
  8
_0-0_
 62
    7
 10
1379.0777113578138
 20
1269.7993168232281
  0
POINT
  8
_0-0_
 62
    7
 10
2379.0777113578138
 20
1269.7993168232281
  0
LINE
  8
_0-0_
  6
CONTINUOUS
 62
    7
 10
1379.0777113578138
 20
1269.7993168232281
 11
1379.0777113578138
 21
1366.6396242527753
  0
LINE
  8
_0-0_
  6
CONTINUOUS
 62
    7
 10
2379.0777113578138
 20
1269.7993168232281
 11
2379.0777113578138
 21
1366.6396242527753
  0
LINE
  8
_0-0_
  6
CONTINUOUS
 62
    7
 10
1379.0777113578138
 20
785.59777967549098
 11
2379.0777113578138
 21
785.59777967549098
  0
POINT
  8
_0-0_
 62
    7
 10
1379.0777113578138
 20
785.59777967549098
  0
POINT
  8
_0-0_
 62
    7
 10
2379.0777113578138
 20
785.59777967549098
  0
LINE
  8
_0-0_
  6
CONTINUOUS
 62
    7
 10
1379.0777113578138
 20
785.59777967549098
 11
1379.0777113578138
 21
882.43808710503845
  0
LINE
  8
_0-0_
  6
CONTINUOUS
 62
    7
 10
2379.0777113578138
 20
785.59777967549098
 11
2379.0777113578138
 21
882.43808710503845
  0
LINE
  8
_0-0_
  6
CONTINUOUS
 62
    7
 10
2129.0777113578138
 20
2012.2416737830915
 11
2379.0777113578138
 21
2012.2416737830915
  0
POINT
  8
_0-0_
 62
    7
 10
2129.0777113578138
 20
2012.2416737830915
  0
POINT
  8
_0-0_
 62
    7
 10
2379.0777113578138
 20
2012.2416737830915
  0
LINE
  8
_0-0_
  6
CONTINUOUS
 62
    7
 10
2129.0777113578138
 20
2012.2416737830915
 11
2129.0777113578138
 21
1936.9214346712213
  0
LINE
  8
_0-0_
  6
CONTINUOUS
 62
    7
 10
2379.0777113578138
 20
2012.2416737830915
 11
2379.0777113578138
 21
1936.9214346712213
  0
LINE
  8
_0-0_
  6
CONTINUOUS
 62
    7
 10
2481.7819527469401
 20
1911.8146883005977
 11
2481.7819527469401
 21
1811.8146883005977
  0
POINT
  8
_0-0_
 62
    7
 10
2481.7819527469401
 20
1911.8146883005977
  0
POINT
  8
_0-0_
 62
    7
 10
2481.7819527469401
 20
1811.8146883005977
  0
LINE
  8
_0-0_
  6
CONTINUOUS
 62
    7
 10
2481.7819527469401
 20
1911.8146883005977
 11
2416.424708226587
 21
1911.8146883005977
  0
LINE
  8
_0-0_
  6
CONTINUOUS
 62
    7
 10
2481.7819527469401
 20
1811.8146883005977
 11
2416.424708226587
 21
1811.8146883005977
  0
LINE
  8
_0-0_
  6
CONTINUOUS
 62
    7
 10
2529.6043267862228
 20
1911.8146883005977
 11
2529.6043267862228
 21
1411.8146883005977
  0
POINT
  8
_0-0_
 62
    7
 10
2529.6043267862228
 20
1911.8146883005977
  0
POINT
  8
_0-0_
 62
    7
 10
2529.6043267862228
 20
1411.8146883005977
  0
LINE
  8
_0-0_
  6
CONTINUOUS
 62
    7
 10
2529.6043267862228
 20
1911.8146883005977
 11
2416.424708226587
 21
1911.8146883005977
  0
LINE
  8
_0-0_
  6
CONTINUOUS
 62
    7
 10
2529.6043267862228
 20
1411.8146883005977
 11
2416.424708226587
 21
1411.8146883005977
  0
LINE
  8
_0-0_
  6
CONTINUOUS
 62
    7
 10
3081.0247651579848
 20
1911.8146883005977
 11
3081.0247651579848
 21
1411.8146883005977
  0
POINT
  8
_0-0_
 62
    7
 10
3081.0247651579848
 20
1911.8146883005977
  0
POINT
  8
_0-0_
 62
    7
 10
3081.0247651579848
 20
1411.8146883005977
  0
LINE
  8
_0-0_
  6
CONTINUOUS
 62
    7
 10
3081.0247651579848
 20
1911.8146883005977
 11
3008.9837745516652
 21
1911.8146883005977
  0
LINE
  8
_0-0_
  6
CONTINUOUS
 62
    7
 10
3081.0247651579848
 20
1411.8146883005977
 11
3008.9837745516652
 21
1411.8146883005977
  0
LINE
  8
_0-0_
  6
CONTINUOUS
 62
    7
 10
1293.0515788253119
 20
1511.8146883005977
 11
1293.0515788253119
 21
1411.8146883005977
  0
POINT
  8
_0-0_
 62
    7
 10
1293.0515788253119
 20
1511.8146883005977
  0
POINT
  8
_0-0_
 62
    7
 10
1293.0515788253119
 20
1411.8146883005977
  0
LINE
  8
_0-0_
  6
CONTINUOUS
 62
    7
 10
1293.0515788253119
 20
1511.8146883005977
 11
1362.030656901303
 21
1511.8146883005977
  0
LINE
  8
_0-0_
  6
CONTINUOUS
 62
    7
 10
1293.0515788253119
 20
1411.8146883005977
 11
1362.030656901303
 21
1411.8146883005977
  0
LINE
  8
_0-0_
  6
CONTINUOUS
 62
    7
 10
2529.6043267862228
 20
1011.8146883005977
 11
2529.6043267862228
 21
911.81468830059771
  0
POINT
  8
_0-0_
 62
    7
 10
2529.6043267862228
 20
1011.8146883005977
  0
POINT
  8
_0-0_
 62
    7
 10
2529.6043267862228
 20
911.81468830059771
  0
LINE
  8
_0-0_
  6
CONTINUOUS
 62
    7
 10
2529.6043267862228
 20
1011.8146883005977
 11
2416.424708226587
 21
1011.8146883005977
  0
LINE
  8
_0-0_
  6
CONTINUOUS
 62
    7
 10
2529.6043267862228
 20
911.81468830059771
 11
2416.424708226587
 21
911.81468830059771
  0
CIRCLE
  8
_0-0_
  6
CONTINUOUS
 62
    7
 10
1629.0777113578138
 20
1511.8146883005977
 40
16.989028319376189
  0
CIRCLE
  8
_0-0_
  6
CONTINUOUS
 62
    7
 10
2129.0777113578138
 20
1811.8146883005977
 40
16.989028319376189
  0
LINE
  8
_0-0_
  6
CONTINUOUS
 62
    7
 10
1629.0777113578138
 20
1511.8146883005977
 11
1700.5151176647128
 21
2026.6227694795245
  0
LINE
  8
_0-0_
  6
CONTINUOUS
 62
    7
 10
2129.0777113578138
 20
1811.8146883005977
 11
1700.5151176647128
 21
2026.6227694795245
  0
LINE
  8
_0-0_
  6
CONTINUOUS
 62
    7
 10
944.2356959863364
 20
573.98377455166519
 11
944.2356959863364
 21
473.98377455166525
  0
LINE
  8
_0-0_
  6
CONTINUOUS
 62
    7
 10
1944.2356959863364
 20
573.98377455166519
 11
1944.2356959863364
 21
473.98377455166525
  0
LINE
  8
_0-0_
  6
CONTINUOUS
 62
    7
 10
2194.2356959863364
 20
573.98377455166519
 11
2194.2356959863364
 21
473.98377455166525
  0
LINE
  8
_0-0_
  6
CONTINUOUS
 62
    7
 10
2444.2356959863364
 20
573.98377455166519
 11
2444.2356959863364
 21
473.98377455166525
  0
TEXT
  8
_0-0_
 62
    7
 10
788.55326956325712
 20
497.06063749227923
 40
50
 41
1
 50
0
  1
名称
  0
TEXT
  8
_0-0_
 62
    7
 10
1962.1662900072265
 20
497.06063749227923
 40
50
 41
1
 50
0
  1
参考重量
  0
TEXT
  8
_0-0_
 62
    7
 10
2596.267653291879
 20
497.06063749227923
 40
50
 41
1
 50
0
  1
岩城ブロック工業株式会社
  0
TEXT
  8
_0-0_
 62
    7
 10
2524.0549983555043
 20
1605.345147206071
 40
50
 41
1
 50
90
  1
1000
  0
TEXT
  8
_0-0_
 62
    7
 10
3076.0247651579848
 20
1643.0646883005977
 40
50
 41
1
 50
90
  1
1000
  0
TEXT
  8
_0-0_
 62
    7
 10
1138.8855144719046
 20
497.06063749227906
 40
50
 41
1
 50
0
  1
床板　1000×100×1.5M
  0
TEXT
  8
_0-0_
 62
    7
 10
2249.4387308323176
 20
497.06063749227923
 40
50
 41
1
 50
0
  1
360㎏
  0
TEXT
  8
_0-0_
 62
    7
 10
1847.8277113578138
 20
790.59777967549098
 40
50
 41
1
 50
0
  1
1500
  0
TEXT
  8
_0-0_
 62
    7
 10
1847.8277113578138
 20
1274.7993168232281
 40
50
 41
1
 50
0
  1
1500
  0
ENDSEC
  0
EOF
