  0
SECTION
  2
HEADER
  9
$ACADVER
  1
AC1009
  9
$INSBASE
 10
0
 20
0
 30
0
  9
$EXTMIN
 10
0
 20
0
  9
$EXTMAX
 10
4200
 20
2970
  9
$LIMMIN
 10
0
 20
0
  9
$LIMMAX
 10
4200
 20
2970
  9
$LTSCALE
 40
10
  0
ENDSEC
  0
SECTION
  2
TABLES
  0
TABLE
  2
LTYPE
 70
     9
  0
LTYPE
  2
CONTINUOUS
 70
    64
  3
実線
 72
    65
 73
     0
 40
0.0
  0
LTYPE
  2
DASHED1
 70
    64
  3
--  --  --  --  --  --  --  --  
 72
    65
 73
     2
 40
2.5
 49
1.25
 49
-1.25
  0
LTYPE
  2
DASHED2
 70
    64
  3
----    ----    ----    ----    
 72
    65
 73
     2
 40
5.0
 49
2.5
 49
-2.5
  0
LTYPE
  2
DASHED3
 70
    64
  3
------  ------  ------  ------  
 72
    65
 73
     2
 40
5.0
 49
3.75
 49
-1.25
  0
LTYPE
  2
CENTER1
 70
    64
  3
----- - ----- - ----- - ----- - 
 72
    65
 73
     4
 40
10.0
 49
6.25
 49
-1.25
 49
1.25
 49
-1.25
  0
LTYPE
  2
CENTER2
 70
    64
  3
----------  --  ----------  --  
 72
    65
 73
     4
 40
20.0
 49
12.5
 49
-2.5
 49
2.5
 49
-2.5
  0
LTYPE
  2
PHANTOM1
 70
    64
  3
--- - - --- - - --- - - --- - - 
 72
    65
 73
     6
 40
10.0
 49
3.25
 49
-1.25
 49
1.25
 49
-1.25
 49
1.25
 49
-1.25
  0
LTYPE
  2
PHANTOM2
 70
    64
  3
--------  -  -  --------  -  -  
 72
    65
 73
     6
 40
20.0
 49
10.0
 49
-2.5
 49
1.25
 49
-2.5
 49
1.25
 49
-2.5
  0
LTYPE
  2
DOT
 70
    64
  3
-   -   -   -   -   -   -   -   
 72
    65
 73
     2
 40
2.5
 49
0.625
 49
-1.875
  0
LTYPE
  2
DUMMY
 70
    64
  3
ダミー
 72
    65
 73
     0
 40
0.0
  0
LTYPE
  2
RAND1
 70
    64
  3
ランダム線1
 72
    65
 73
     4
 40
10.0
 49
1.0
 49
-2.0
 49
3.0
 49
-4.0
  0
LTYPE
  2
RAND2
 70
    64
  3
ランダム線2
 72
    65
 73
     4
 40
14.0
 49
2.0
 49
-3.0
 49
4.0
 49
-5.0
  0
LTYPE
  2
RAND3
 70
    64
  3
ランダム線3
 72
    65
 73
     4
 40
18.0
 49
3.0
 49
-4.0
 49
5.0
 49
-6.0
  0
LTYPE
  2
RAND4
 70
    64
  3
ランダム線4
 72
    65
 73
     4
 40
22.0
 49
4.0
 49
-5.0
 49
6.0
 49
-7.0
  0
LTYPE
  2
RAND5
 70
    64
  3
ランダム線5
 72
    65
 73
     4
 40
26.0
 49
5.0
 49
-6.0
 49
7.0
 49
-8.0
  0
LTYPE
  2
LONG1
 70
    64
  3
----------  --  ----------  --  
 72
    65
 73
     4
 40
40.0
 49
32.5
 49
-2.5
 49
2.5
 49
-2.5
  0
LTYPE
  2
LONG2
 70
    64
  3
--------  -  -  --------  -  -  
 72
    65
 73
     6
 40
40.0
 49
30.0
 49
-2.5
 49
1.25
 49
-2.5
 49
1.25
 49
-2.5
  0
LTYPE
  2
LONG3
 70
    64
  3
+++++++++++++++..+++++++++++++++
 72
    65
 73
     2
 40
40.0
 49
37.5
 49
-2.5
  0
LTYPE
  2
LONG4
 70
    64
  3
+++++++++++++++..+++++++++++++++
 72
    65
 73
     2
 40
80.0
 49
75.0
 49
-5.0
  0
LTYPE
  2
LONG5
 70
    64
  3
----------  --  ----------  --  
 72
    65
 73
     4
 40
60.0
 49
37.5
 49
-7.5
 49
7.5
 49
-7.5
  0
LTYPE
  2
dashed
 70
   64
  3
-------   -------------   ------
 72
   65
 73
    2
 40
7.5
 49
6
 49
-1.5
  0
LTYPE
  2
dashed_spaced
 70
   64
  3
----        --------        ----
 72
   65
 73
    2
 40
12
 49
6
 49
-6
  0
LTYPE
  2
long_dashed_dotted
 70
   64
  3
------------- --- --------------
 72
   65
 73
    4
 40
15.25
 49
12
 49
-1.5
 49
0.25
 49
-1.5
  0
LTYPE
  2
long_dashed_double-dotted
 70
   64
  3
----------- --- --- ------------
 72
   65
 73
    6
 40
17
 49
12
 49
-1.5
 49
0.25
 49
-1.5
 49
0.25
 49
-1.5
  0
LTYPE
  2
long_dashed_triplicate-dotted
 70
   64
  3
--------- --- --- --- ----------
 72
   65
 73
    8
 40
18.75
 49
12
 49
-1.5
 49
0.25
 49
-1.5
 49
0.25
 49
-1.5
 49
0.25
 49
-1.5
  0
LTYPE
  2
dotted
 70
   64
  3
   -       -       -       -    
 72
   65
 73
    2
 40
1.75
 49
0.25
 49
-1.5
  0
LTYPE
  2
chain
 70
   64
  3
-------------- -- --------------
 72
   65
 73
    4
 40
18.5
 49
12
 49
-1.5
 49
3.5
 49
-1.5
  0
LTYPE
  2
chain_double_dash
 70
   64
  3
------------ -- -- -------------
 72
   65
 73
    6
 40
23.5
 49
12
 49
-1.5
 49
3.5
 49
-1.5
 49
3.5
 49
-1.5
  0
LTYPE
  2
dashed_dotted
 70
   64
  3
-----------     -     ----------
 72
   65
 73
    4
 40
9.25
 49
6
 49
-1.5
 49
0.25
 49
-1.5
  0
LTYPE
  2
double-dashed_dotted
 70
   64
  3
------   -----------   -   -----
 72
   65
 73
    6
 40
16.75
 49
6
 49
-1.5
 49
6
 49
-1.5
 49
0.25
 49
-1.5
  0
LTYPE
  2
dashed_double-dotted
 70
   64
  3
---------    -    -    ---------
 72
   65
 73
    6
 40
11
 49
6
 49
-1.5
 49
0.25
 49
-1.5
 49
0.25
 49
-1.5
  0
LTYPE
  2
double-dashed_double-dotted
 70
   64
  3
-----   ---------   -   -   ----
 72
   65
 73
    8
 40
18.5
 49
6
 49
-1.5
 49
6
 49
-1.5
 49
0.25
 49
-1.5
 49
0.25
 49
-1.5
  0
LTYPE
  2
dashed_triplicate-dotted
 70
   64
  3
-------    -    -    -    ------
 72
   65
 73
    8
 40
12.75
 49
6
 49
-1.5
 49
0.25
 49
-1.5
 49
0.25
 49
-1.5
 49
0.25
 49
-1.5
  0
LTYPE
  2
double-dashed_triplicate-dotted
 70
   64
  3
-----  ---------  -  -  -  -----
 72
   65
 73
   10
 40
20.25
 49
6
 49
-1.5
 49
6
 49
-1.5
 49
0.25
 49
-1.5
 49
0.25
 49
-1.5
 49
0.25
 49
-1.5
  0
LTYPE
  2
undefined
 70
   64
  3
--------------------------------
 72
   65
 73
    0
 40
0
  0
ENDTAB
  0
TABLE
  2
STYLE
  5
3
100
AcDbSymbolTable
 70
     1
  0
STYLE
  5
10
100
AcDbSymbolTableRecord
100
AcDbTextStyleTableRecord
  2
STANDARD
 70
     0
 40
0.0
 41
1.0
 50
0.0
 71
     0
 42
0.2
  3
txt
  4
bigfont.shx
  0
STYLE
  5
26
100
AcDbSymbolTableRecord
100
AcDbTextStyleTableRecord
  2
TATEGAKI
 70
    68
 40
0.0
 41
1.0
 50
0.0
 71
     0
 42
1.0
  3
txt
  4
bigfont.shx
  0
ENDTAB
  0
TABLE
  2
LAYER
 70
    2
  0
LAYER
  2
_0-0_
 70
   64
 62
    7
  6
CONTINUOUS
  0
LAYER
  2
ADD_LINE
 70
   64
 62
    7
  6
CONTINUOUS
  0
ENDTAB
  0
ENDSEC
  0
SECTION
  2
BLOCKS
  0
ENDSEC
  0
SECTION
  2
ENTITIES
  0
TEXT
  8
_0-0_
 62
    7
 10
746.1112341641458
 20
1458.270424802331
 40
30
 41
1
 50
0
  1
65
  0
TEXT
  8
_0-0_
 62
    7
 10
2858.8383090634161
 20
607.67723245511911
 40
35
 41
1
 50
0.0000074705934989
  1
岩城ブロック工業株式会社
  0
TEXT
  8
_0-0_
 62
    7
 10
1874.9450285186181
 20
608.2018100340855
 40
35
 41
1
 50
0
  1
図　番
  0
TEXT
  8
_0-0_
 62
    7
 10
569.8043420784262
 20
606.91303378366592
 40
35
 41
1
 50
0
  1
名　称
  0
TEXT
  8
_0-0_
 62
    7
 10
1473.7173770477411
 20
600.45651807748209
 40
35
 41
1
 50
0
  1
分　類
  0
TEXT
  8
_0-0_
 62
    7
 10
2342.1194829167548
 20
603.68480689737328
 40
35
 41
1
 50
0
  1
参考重量
  0
TEXT
  8
_0-0_
 62
    7
 10
1111.1112297823991
 20
1458.270424802331
 40
30
 41
1
 50
0
  1
65
  0
TEXT
  8
_0-0_
 62
    7
 10
629.36601970901188
 20
1121.4144984359448
 40
30
 41
1
 50
90.000002504478104
  1
500
  0
TEXT
  8
_0-0_
 62
    7
 10
629.36601935385681
 20
835.66454276154855
 40
30
 41
1
 50
90.000002504477919
  1
80
  0
TEXT
  8
_0-0_
 62
    7
 10
739.98618707693686
 20
1945.772569869936
 40
30
 41
1
 50
0
  1
65
  0
TEXT
  8
_0-0_
 62
    7
 10
619.63191603856046
 20
2078.9302267715275
 40
30
 41
1
 50
90.000002504478104
  1
138
  0
TEXT
  8
_0-0_
 62
    7
 10
619.1719967812179
 20
1984.1648157775171
 40
30
 41
1
 50
90.000002504477919
  1
12
  0
TEXT
  8
_0-0_
 62
    7
 10
901.86123509204526
 20
2278.2834074395964
 40
30
 41
1
 50
0
  1
420
  0
TEXT
  8
_0-0_
 62
    7
 10
1094.986198086536
 20
1945.772569869936
 40
30
 41
1
 50
0
  1
65
  0
TEXT
  8
_0-0_
 62
    7
 10
901.86123509204526
 20
1945.772569869936
 40
30
 41
1
 50
0
  1
290
  0
TEXT
  8
_0-0_
 62
    7
 10
2282.2254310519538
 20
2407.5338727442913
 40
30
 41
1
 50
0
  1
1,000
  0
TEXT
  8
_0-0_
 62
    7
 10
2113.4754370906639
 20
2327.2976572633247
 40
30
 41
1
 50
0
  1
100
  0
TEXT
  8
_0-0_
 62
    7
 10
2513.4755646400008
 20
2327.2976572633247
 40
30
 41
1
 50
0
  1
100
  0
TEXT
  8
_0-0_
 62
    7
 10
1727.7384458340853
 20
1986.9445263925206
 40
30
 41
1
 50
90.000002504478104
  1
420
  0
TEXT
  8
_0-0_
 62
    7
 10
921.73622230765432
 20
1458.270424802331
 40
30
 41
1
 50
0
  1
300
  0
LINE
  8
_0-0_
  6
CONTINUOUS
 62
    7
 10
726.73622610025882
 20
1337.914491307321
 11
726.73622610025882
 21
1382.9144530130629
  0
LINE
  8
_0-0_
  6
CONTINUOUS
 62
    7
 10
525.53204930427
 20
575.91923150316632
 11
3385.53216853197
 21
575.91923150316632
  0
LINE
  8
_0-0_
  6
CONTINUOUS
 62
    7
 10
525.53204930427
 20
2575.9191879802688
 11
525.53204930427
 21
575.91923150316632
  0
LINE
  8
_0-0_
  6
CONTINUOUS
 62
    7
 10
725.53205114533989
 20
675.9192014569021
 11
725.53205114533989
 21
575.91923150316632
  0
LINE
  8
_0-0_
  6
CONTINUOUS
 62
    7
 10
1425.5320885558845
 20
675.9192014569021
 11
1425.5320885558845
 21
575.91923150316632
  0
LINE
  8
_0-0_
  6
CONTINUOUS
 62
    7
 10
1625.5320284633563
 20
675.9192014569021
 11
1625.5320284633563
 21
575.91923150316632
  0
LINE
  8
_0-0_
  6
CONTINUOUS
 62
    7
 10
1825.5320922380247
 20
675.9192014569021
 11
1825.5320922380247
 21
575.91923150316632
  0
LINE
  8
_0-0_
  6
CONTINUOUS
 62
    7
 10
2025.5320321454965
 20
675.9192014569021
 11
2025.5320321454965
 21
575.91923150316632
  0
LINE
  8
_0-0_
  6
CONTINUOUS
 62
    7
 10
2325.531942006704
 20
675.9192014569021
 11
2325.531942006704
 21
575.91923150316632
  0
LINE
  8
_0-0_
  6
CONTINUOUS
 62
    7
 10
2525.5321296485695
 20
675.9192014569021
 11
2525.5321296485695
 21
575.91923150316632
  0
LINE
  8
_0-0_
  6
CONTINUOUS
 62
    7
 10
3539.8043030845611
 20
2575.9191879802688
 11
525.53204930427
 21
2575.9191879802688
  0
LINE
  8
_0-0_
  6
CONTINUOUS
 62
    7
 10
3539.8043030845611
 20
2575.9191879802688
 11
3539.8043030845611
 21
575.91923150316632
  0
LINE
  8
_0-0_
  6
CONTINUOUS
 62
    7
 10
3385.53216853197
 20
575.91923150316632
 11
3539.8043030845611
 21
575.91923150316632
  0
LINE
  8
_0-0_
  6
CONTINUOUS
 62
    7
 10
525.53204930427
 20
675.9192014569021
 11
3539.8043030845611
 21
675.9192014569021
  0
LINE
  8
_0-0_
  6
CONTINUOUS
 62
    7
 10
2755.5322091827979
 20
675.9192014569021
 11
2755.5322091827979
 21
575.91923150316632
  0
LINE
  8
_0-0_
  6
CONTINUOUS
 62
    7
 10
731.73618743778661
 20
2187.8051089135838
 11
1151.7361603372344
 21
2187.8051089135838
  0
LINE
  8
_0-0_
  6
CONTINUOUS
 62
    7
 10
731.73618743778661
 20
2049.8052841540007
 11
796.73618029443446
 21
2049.8052841540007
  0
LINE
  8
_0-0_
  6
CONTINUOUS
 62
    7
 10
1086.7362294141849
 20
2049.8052841540007
 11
1151.7361603372344
 21
2049.8052841540007
  0
LINE
  8
_0-0_
  6
CONTINUOUS
 62
    7
 10
796.73618029443446
 20
2037.8052778501769
 11
1086.7362294141849
 21
2037.8052778501769
  0
LINE
  8
_0-0_
  6
CONTINUOUS
 62
    7
 10
1086.7362294141849
 20
2049.8052841540007
 11
1086.7362294141849
 21
2037.8052778501769
  0
LINE
  8
_0-0_
  6
CONTINUOUS
 62
    7
 10
796.73618029443446
 20
2049.8052841540007
 11
796.73618029443446
 21
2037.8052778501769
  0
LINE
  8
_0-0_
  6
CONTINUOUS
 62
    7
 10
936.73621254998284
 20
2187.8051089135838
 11
936.73621254998284
 21
2037.8052778501769
  0
LINE
  8
_0-0_
  6
CONTINUOUS
 62
    7
 10
946.73619715863651
 20
2187.8051089135838
 11
946.73619715863651
 21
2037.8052778501769
  0
LINE
  8
_0-0_
  6
CONTINUOUS
 62
    7
 10
731.73618743778661
 20
2275.7832719368362
 11
1151.7361603372344
 21
2275.7832719368362
  0
LINE
  8
_0-0_
  6
CONTINUOUS
 62
    7
 10
731.73618743778661
 20
2275.7832719368362
 11
731.73618743778661
 21
2214.4464656284877
  0
LINE
  8
_0-0_
  6
CONTINUOUS
 62
    7
 10
1151.7361603372344
 20
2275.7832719368362
 11
1151.7361603372344
 21
2214.4464656284877
  0
LINE
  8
_0-0_
  6
CONTINUOUS
 62
    7
 10
622.13192663597795
 20
2187.8051089135838
 11
622.13192663597795
 21
2049.8052841540007
  0
LINE
  8
_0-0_
  6
CONTINUOUS
 62
    7
 10
622.13192663597795
 20
2187.8051089135838
 11
716.77848020575675
 21
2187.8051089135838
  0
LINE
  8
_0-0_
  6
CONTINUOUS
 62
    7
 10
622.13192663597795
 20
2049.8052841540007
 11
716.77848020575675
 21
2049.8052841540007
  0
LINE
  8
_0-0_
  6
CONTINUOUS
 62
    7
 10
622.13192663597795
 20
2049.8052841540007
 11
622.13192663597795
 21
2037.8052778501769
  0
LINE
  8
_0-0_
  6
CONTINUOUS
 62
    7
 10
622.13192663597795
 20
2037.8052778501769
 11
716.77848020575675
 21
2037.8052778501769
  0
LINE
  8
_0-0_
  6
CONTINUOUS
 62
    7
 10
731.73618743778661
 20
1943.272558234373
 11
796.73618029443446
 21
1943.272558234373
  0
LINE
  8
_0-0_
  6
CONTINUOUS
 62
    7
 10
731.73618743778661
 20
1943.272558234373
 11
731.73618743778661
 21
2020.7507467085791
  0
LINE
  8
_0-0_
  6
CONTINUOUS
 62
    7
 10
796.73618029443446
 20
1943.272558234373
 11
796.73618029443446
 21
2020.7507467085791
  0
LINE
  8
_0-0_
  6
CONTINUOUS
 62
    7
 10
796.73618029443446
 20
1943.272558234373
 11
1086.7362294141849
 21
1943.272558234373
  0
LINE
  8
_0-0_
  6
CONTINUOUS
 62
    7
 10
1086.7362294141849
 20
1943.272558234373
 11
1086.7362294141849
 21
2020.7507467085791
  0
LINE
  8
_0-0_
  6
CONTINUOUS
 62
    7
 10
1086.7362294141849
 20
1943.272558234373
 11
1151.7361603372344
 21
1943.272558234373
  0
LINE
  8
_0-0_
  6
CONTINUOUS
 62
    7
 10
1151.7361603372344
 20
1943.272558234373
 11
1151.7361603372344
 21
2020.7507467085791
  0
LINE
  8
_0-0_
  6
CONTINUOUS
 62
    7
 10
622.13192663597795
 20
2037.8052778501769
 11
622.13192663597795
 21
1984.1649598228425
  0
LINE
  8
_0-0_
  6
CONTINUOUS
 62
    7
 10
622.13192663597795
 20
2037.8052778501769
 11
617.36818004298868
 21
2023.8484175693113
  0
LINE
  8
_0-0_
  6
CONTINUOUS
 62
    7
 10
1853.3504350581225
 20
2236.8196064717058
 11
1853.3504350581225
 21
1816.8195097050611
  0
LINE
  8
_0-0_
  6
CONTINUOUS
 62
    7
 10
1884.9350838679604
 20
2219.4437638212817
 11
1884.3885817951218
 21
2219.8195768967557
  0
LINE
  8
_0-0_
  6
CONTINUOUS
 62
    7
 10
1884.9350838679604
 20
2219.4437638212817
 11
1886.3963451900997
 21
2216.8133200273551
  0
LINE
  8
_0-0_
  6
CONTINUOUS
 62
    7
 10
1886.3963451900997
 20
2216.8133200273551
 11
1888.4421358145341
 21
2210.9908185686386
  0
LINE
  8
_0-0_
  6
CONTINUOUS
 62
    7
 10
1892.0341606581994
 20
2213.6792322107262
 11
1892.1335021501341
 21
2215.764908072571
  0
LINE
  8
_0-0_
  6
CONTINUOUS
 62
    7
 10
1892.1335021501341
 20
2215.764908072571
 11
1892.4257048676832
 21
2217.8106986970051
  0
LINE
  8
_0-0_
  6
CONTINUOUS
 62
    7
 10
1892.4257048676832
 20
2217.8106986970051
 11
1893.7040143399624
 21
2219.8195768967557
  0
LINE
  8
_0-0_
  6
CONTINUOUS
 62
    7
 10
1936.6361370602169
 20
2184.0276548761199
 11
1941.4352477379289
 21
2185.7811189158083
  0
LINE
  8
_0-0_
  6
CONTINUOUS
 62
    7
 10
1937.3994067276767
 20
2180.0933849673474
 11
1941.0174436826965
 21
2180.0933849673474
  0
LINE
  8
_0-0_
  6
CONTINUOUS
 62
    7
 10
1941.0174436826965
 20
2180.0933849673474
 11
1942.7710315895818
 21
2179.8010583826012
  0
LINE
  8
_0-0_
  6
CONTINUOUS
 62
    7
 10
1942.7710315895818
 20
2179.8010583826012
 11
1944.8503902243831
 21
2177.9197633956851
  0
LINE
  8
_0-0_
  6
CONTINUOUS
 62
    7
 10
1912.279634659815
 20
2150.7101039812833
 11
1912.6988012542133
 21
2144.63317930008
  0
LINE
  8
_0-0_
  6
CONTINUOUS
 62
    7
 10
1912.6988012542133
 20
2144.63317930008
 11
1912.4064746694673
 21
2140.249271466465
  0
LINE
  8
_0-0_
  6
CONTINUOUS
 62
    7
 10
1912.4064746694673
 20
2140.249271466465
 11
1911.8219453671725
 21
2137.6188276725388
  0
LINE
  8
_0-0_
  6
CONTINUOUS
 62
    7
 10
1911.8219453671725
 20
2137.6188276725388
 11
1911.0226303454069
 21
2136.8193887835764
  0
LINE
  8
_0-0_
  6
CONTINUOUS
 62
    7
 10
1918.4288977840231
 20
2140.166775913312
 11
1920.1933860042379
 21
2138.0104957492194
  0
LINE
  8
_0-0_
  6
CONTINUOUS
 62
    7
 10
1920.1933860042379
 20
2138.0104957492194
 11
1921.6225657223733
 21
2136.8193887835764
  0
LINE
  8
_0-0_
  6
CONTINUOUS
 62
    7
 10
1861.8504498455973
 20
2176.7365839306453
 11
1863.8382706218704
 21
2176.0738944270897
  0
LINE
  8
_0-0_
  6
CONTINUOUS
 62
    7
 10
1863.8382706218704
 20
2176.0738944270897
 11
1871.0475892173738
 21
2177.7560109613482
  0
LINE
  8
_0-0_
  6
CONTINUOUS
 62
    7
 10
1874.5319734669099
 20
2174.6308415828985
 11
1867.1528329444209
 21
2171.402366962212
  0
LINE
  8
_0-0_
  6
CONTINUOUS
 62
    7
 10
1867.1528329444209
 20
2171.402366962212
 11
1863.759986553413
 21
2169.4232168897238
  0
LINE
  8
_0-0_
  6
CONTINUOUS
 62
    7
 10
1863.759986553413
 20
2169.4232168897238
 11
1861.8504498455973
 21
2168.1501098397157
  0
LINE
  8
_0-0_
  6
CONTINUOUS
 62
    7
 10
1911.4680567855542
 20
2177.5025786764372
 11
1936.6361370602169
 21
2184.0276548761199
  0
LINE
  8
_0-0_
  6
CONTINUOUS
 62
    7
 10
1916.7263431622714
 20
2174.7334036219531
 11
1937.3994067276767
 21
2180.0933849673474
  0
LINE
  8
_0-0_
  6
CONTINUOUS
 62
    7
 10
1912.5422331172988
 20
2170.1104320982708
 11
1918.4288977840231
 21
2140.166775913312
  0
LINE
  8
_0-0_
  6
CONTINUOUS
 62
    7
 10
1908.13107450036
 20
2171.8123673840378
 11
1912.279634659815
 21
2150.7101039812833
  0
LINE
  8
_0-0_
  6
CONTINUOUS
 62
    7
 10
1897.7578160937687
 20
2179.3427497539742
 11
1905.9983291036835
 21
2174.6605697101609
  0
LINE
  8
_0-0_
  6
CONTINUOUS
 62
    7
 10
1898.147626162496
 20
2183.721702899712
 11
1908.5778634796729
 21
2177.7956484643651
  0
LINE
  8
_0-0_
  6
CONTINUOUS
 62
    7
 10
1897.0997096764995
 20
2184.5986826539497
 11
1892.0341606581994
 21
2213.6792322107262
  0
LINE
  8
_0-0_
  6
CONTINUOUS
 62
    7
 10
1891.8794505292385
 20
2191.2580308951005
 11
1888.4421358145341
 21
2210.9908185686386
  0
LINE
  8
_0-0_
  6
CONTINUOUS
 62
    7
 10
1891.6655318801465
 20
2183.9899992482542
 11
1871.0475892173738
 21
2177.7560109613482
  0
LINE
  8
_0-0_
  6
CONTINUOUS
 62
    7
 10
1893.1046209740362
 20
2180.2464848227482
 11
1874.5319734669099
 21
2174.6308415828985
  0
LINE
  8
_0-0_
  6
CONTINUOUS
 62
    7
 10
1908.5778634796729
 20
2177.7956484643651
 11
1909.9026231507996
 21
2177.39407101193
  0
LINE
  8
_0-0_
  6
CONTINUOUS
 62
    7
 10
1909.9026231507996
 20
2177.39407101193
 11
1911.4680567855542
 21
2177.5025786764372
  0
LINE
  8
_0-0_
  6
CONTINUOUS
 62
    7
 10
1912.5422331172988
 20
2170.1104320982708
 11
1912.4305049056713
 21
2172.6192383048156
  0
LINE
  8
_0-0_
  6
CONTINUOUS
 62
    7
 10
1912.4305049056713
 20
2172.6192383048156
 11
1913.5539803817926
 21
2174.0236445835658
  0
LINE
  8
_0-0_
  6
CONTINUOUS
 62
    7
 10
1913.5539803817926
 20
2174.0236445835658
 11
1916.7263431622714
 21
2174.7334036219531
  0
LINE
  8
_0-0_
  6
CONTINUOUS
 62
    7
 10
1905.9983291036835
 20
2174.6605697101609
 11
1906.8130036578673
 21
2174.304327651801
  0
LINE
  8
_0-0_
  6
CONTINUOUS
 62
    7
 10
1906.8130036578673
 20
2174.304327651801
 11
1907.65554833136
 21
2172.9001691074445
  0
LINE
  8
_0-0_
  6
CONTINUOUS
 62
    7
 10
1907.65554833136
 20
2172.9001691074445
 11
1908.13107450036
 21
2171.8123673840378
  0
LINE
  8
_0-0_
  6
CONTINUOUS
 62
    7
 10
1893.1046209740362
 20
2180.2464848227482
 11
1894.7352087543736
 21
2180.20288356943
  0
LINE
  8
_0-0_
  6
CONTINUOUS
 62
    7
 10
1894.7352087543736
 20
2180.20288356943
 11
1896.4204219685557
 21
2179.9219527668015
  0
LINE
  8
_0-0_
  6
CONTINUOUS
 62
    7
 10
1896.4204219685557
 20
2179.9219527668015
 11
1897.7578160937687
 21
2179.3427497539742
  0
LINE
  8
_0-0_
  6
CONTINUOUS
 62
    7
 10
1898.147626162496
 20
2183.721702899712
 11
1897.0997096764995
 21
2184.5986826539497
  0
LINE
  8
_0-0_
  6
CONTINUOUS
 62
    7
 10
1891.8794505292385
 20
2191.2580308951005
 11
1892.4882578021311
 21
2187.5058457658097
  0
LINE
  8
_0-0_
  6
CONTINUOUS
 62
    7
 10
1892.4882578021311
 20
2187.5058457658097
 11
1892.4882578021311
 21
2185.539577881802
  0
LINE
  8
_0-0_
  6
CONTINUOUS
 62
    7
 10
1892.4882578021311
 20
2185.539577881802
 11
1891.6655318801465
 21
2183.9899992482542
  0
LINE
  8
_0-0_
  6
CONTINUOUS
 62
    7
 10
1941.4352477379289
 20
2185.7811189158083
 11
1943.3270714365838
 21
2186.6630533579237
  0
LINE
  8
_0-0_
  6
CONTINUOUS
 62
    7
 10
1943.3270714365838
 20
2186.6630533579237
 11
1944.8503902243831
 21
2188.4041306779191
  0
LINE
  8
_0-0_
  6
CONTINUOUS
 62
    7
 10
1939.968040790337
 20
2136.8193887835764
 11
1921.6225657223733
 21
2136.8193887835764
  0
LINE
  8
_0-0_
  6
CONTINUOUS
 62
    7
 10
1861.8504498455973
 20
2141.7017382176227
 11
1861.8504498455973
 21
2168.1501098397157
  0
LINE
  8
_0-0_
  6
CONTINUOUS
 62
    7
 10
1866.7327992796438
 20
2219.8195768967557
 11
1884.3885817951218
 21
2219.8195768967557
  0
LINE
  8
_0-0_
  6
CONTINUOUS
 62
    7
 10
1944.8503902243831
 20
2214.9372274627094
 11
1944.8503902243831
 21
2188.4041306779191
  0
LINE
  8
_0-0_
  6
CONTINUOUS
 62
    7
 10
1893.7040143399624
 20
2219.8195768967557
 11
1939.968040790337
 21
2219.8195768967557
  0
LINE
  8
_0-0_
  6
CONTINUOUS
 62
    7
 10
1861.8504498455973
 20
2176.7365839306453
 11
1861.8504498455973
 21
2214.9372274627094
  0
LINE
  8
_0-0_
  6
CONTINUOUS
 62
    7
 10
1911.0226303454069
 20
2136.8193887835764
 11
1866.7327992796438
 21
2136.8193887835764
  0
LINE
  8
_0-0_
  6
CONTINUOUS
 62
    7
 10
1944.8503902243831
 20
2177.9197633956851
 11
1944.8503902243831
 21
2141.7017382176227
  0
LINE
  8
_0-0_
  6
CONTINUOUS
 62
    7
 10
2067.8489064986179
 20
2156.4828108268357
 11
2065.3588042388092
 21
2153.6095873269333
  0
LINE
  8
_0-0_
  6
CONTINUOUS
 62
    7
 10
2065.3588042388092
 20
2153.6095873269333
 11
2062.9648229238146
 21
2149.1634981604616
  0
LINE
  8
_0-0_
  6
CONTINUOUS
 62
    7
 10
2062.9648229238146
 20
2149.1634981604616
 11
2061.8503897530691
 21
2145.6612770345682
  0
LINE
  8
_0-0_
  6
CONTINUOUS
 62
    7
 10
2068.1461877712409
 20
2163.0995487522437
 11
2066.1055995690776
 21
2162.2592336882954
  0
LINE
  8
_0-0_
  6
CONTINUOUS
 62
    7
 10
2066.1055995690776
 20
2162.2592336882954
 11
2064.0536155847967
 21
2161.5754867612627
  0
LINE
  8
_0-0_
  6
CONTINUOUS
 62
    7
 10
2064.0536155847967
 20
2161.5754867612627
 11
2062.6855023947464
 21
2161.5754867612627
  0
LINE
  8
_0-0_
  6
CONTINUOUS
 62
    7
 10
2082.9858495646004
 20
2211.5757194725243
 11
2080.6660647005647
 21
2215.6995061925941
  0
LINE
  8
_0-0_
  6
CONTINUOUS
 62
    7
 10
2080.6660647005647
 20
2215.6995061925941
 11
2079.298075377711
 21
2217.409616713358
  0
LINE
  8
_0-0_
  6
CONTINUOUS
 62
    7
 10
2079.298075377711
 20
2217.409616713358
 11
2073.6751239732425
 21
2219.8195768967557
  0
LINE
  8
_0-0_
  6
CONTINUOUS
 62
    7
 10
2089.4608834167243
 20
2209.3508168813341
 11
2088.4189125561807
 21
2212.3464211717996
  0
LINE
  8
_0-0_
  6
CONTINUOUS
 62
    7
 10
2088.4189125561807
 20
2212.3464211717996
 11
2087.050923233327
 21
2216.7922626038776
  0
LINE
  8
_0-0_
  6
CONTINUOUS
 62
    7
 10
2087.050923233327
 20
2216.7922626038776
 11
2087.3927966968431
 21
2219.5284889839791
  0
LINE
  8
_0-0_
  6
CONTINUOUS
 62
    7
 10
2087.3927966968431
 20
2219.5284889839791
 11
2087.5964343685901
 21
2219.8195768967557
  0
LINE
  8
_0-0_
  6
CONTINUOUS
 62
    7
 10
2135.9482424231569
 20
2196.1943864270065
 11
2140.009104607188
 21
2199.9022270997975
  0
LINE
  8
_0-0_
  6
CONTINUOUS
 62
    7
 10
2140.009104607188
 20
2199.9022270997975
 11
2142.4032097893792
 21
2204.0064428027531
  0
LINE
  8
_0-0_
  6
CONTINUOUS
 62
    7
 10
2142.4032097893792
 20
2204.0064428027531
 11
2144.1130725757494
 21
2208.452284234831
  0
LINE
  8
_0-0_
  6
CONTINUOUS
 62
    7
 10
2144.8503301318547
 20
2210.7309451894871
 11
2144.1130725757494
 21
2208.452284234831
  0
LINE
  8
_0-0_
  6
CONTINUOUS
 62
    7
 10
2144.8503301318547
 20
2193.601598260946
 11
2142.6209683215757
 21
2193.601598260946
  0
LINE
  8
_0-0_
  6
CONTINUOUS
 62
    7
 10
2142.6209683215757
 20
2193.601598260946
 11
2139.3828320595285
 21
2192.4806001287629
  0
LINE
  8
_0-0_
  6
CONTINUOUS
 62
    7
 10
2133.0054055585824
 20
2136.8193887835764
 11
2131.1976876866402
 21
2138.7336324448752
  0
LINE
  8
_0-0_
  6
CONTINUOUS
 62
    7
 10
2131.1976876866402
 20
2138.7336324448752
 11
2129.1457037023597
 21
2143.5215950748634
  0
LINE
  8
_0-0_
  6
CONTINUOUS
 62
    7
 10
2129.1457037023597
 20
2143.5215950748634
 11
2127.6630133551521
 21
2147.1461969913203
  0
LINE
  8
_0-0_
  6
CONTINUOUS
 62
    7
 10
2120.5478338293128
 20
2136.8193887835764
 11
2121.3361246705513
 21
2137.8048762023218
  0
LINE
  8
_0-0_
  6
CONTINUOUS
 62
    7
 10
2121.3361246705513
 20
2137.8048762023218
 11
2122.7041139934054
 21
2140.1987336501188
  0
LINE
  8
_0-0_
  6
CONTINUOUS
 62
    7
 10
2122.7041139934054
 20
2140.1987336501188
 11
2122.7041139934054
 21
2143.2768334937373
  0
LINE
  8
_0-0_
  6
CONTINUOUS
 62
    7
 10
2122.7041139934054
 20
2143.2768334937373
 11
2120.9447043282644
 21
2153.330142930668
  0
LINE
  8
_0-0_
  6
CONTINUOUS
 62
    7
 10
2096.2463284643459
 20
2178.9991421497007
 11
2067.8489064986179
 21
2156.4828108268357
  0
LINE
  8
_0-0_
  6
CONTINUOUS
 62
    7
 10
2092.9073643040015
 20
2182.7324994650589
 11
2068.1461877712409
 21
2163.0995487522437
  0
LINE
  8
_0-0_
  6
CONTINUOUS
 62
    7
 10
2093.756597806128
 20
2187.5261599861055
 11
2082.9858495646004
 21
2211.5757194725243
  0
LINE
  8
_0-0_
  6
CONTINUOUS
 62
    7
 10
2098.8968387441746
 20
2188.2812544185681
 11
2089.4608834167243
 21
2209.3508168813341
  0
LINE
  8
_0-0_
  6
CONTINUOUS
 62
    7
 10
2114.1862623295729
 20
2183.2326752062468
 11
2102.7629816946373
 21
2185.408526387454
  0
LINE
  8
_0-0_
  6
CONTINUOUS
 62
    7
 10
2112.3854810206585
 20
2178.4858364856382
 11
2100.5680549651038
 21
2180.7367511881826
  0
LINE
  8
_0-0_
  6
CONTINUOUS
 62
    7
 10
2120.9447043282644
 20
2153.330142930668
 11
2115.2208011583011
 21
2176.0015559840845
  0
LINE
  8
_0-0_
  6
CONTINUOUS
 62
    7
 10
2127.6630133551521
 20
2147.1461969913203
 11
2119.8227152585064
 21
2178.1997032607383
  0
LINE
  8
_0-0_
  6
CONTINUOUS
 62
    7
 10
2120.900359871765
 20
2179.9957776161691
 11
2139.3828320595285
 21
2192.4806001287629
  0
LINE
  8
_0-0_
  6
CONTINUOUS
 62
    7
 10
2117.2252201389624
 20
2183.5470501520458
 11
2135.9482424231569
 21
2196.1943864270065
  0
LINE
  8
_0-0_
  6
CONTINUOUS
 62
    7
 10
2114.6022083768512
 20
2177.2389892813781
 11
2112.3854810206585
 21
2178.4858364856382
  0
LINE
  8
_0-0_
  6
CONTINUOUS
 62
    7
 10
2115.2208011583011
 20
2176.0015559840845
 11
2114.6022083768512
 21
2177.2389892813781
  0
LINE
  8
_0-0_
  6
CONTINUOUS
 62
    7
 10
2120.900359871765
 20
2179.9957776161691
 11
2119.8227152585064
 21
2178.1997032607383
  0
LINE
  8
_0-0_
  6
CONTINUOUS
 62
    7
 10
2117.2252201389624
 20
2183.5470501520458
 11
2114.1862623295729
 21
2183.2326752062468
  0
LINE
  8
_0-0_
  6
CONTINUOUS
 62
    7
 10
2099.0645549288129
 20
2180.5363340635558
 11
2096.2463284643459
 21
2178.9991421497007
  0
LINE
  8
_0-0_
  6
CONTINUOUS
 62
    7
 10
2100.5680549651038
 20
2180.7367511881826
 11
2099.0645549288129
 21
2180.5363340635558
  0
LINE
  8
_0-0_
  6
CONTINUOUS
 62
    7
 10
2102.7629816946373
 20
2185.408526387454
 11
2100.5762302001012
 21
2186.228527231106
  0
LINE
  8
_0-0_
  6
CONTINUOUS
 62
    7
 10
2100.5762302001012
 20
2186.228527231106
 11
2098.8968387441746
 21
2188.2812544185681
  0
LINE
  8
_0-0_
  6
CONTINUOUS
 62
    7
 10
2094.2845197994275
 20
2185.1503871490595
 11
2093.756597806128
 21
2187.5261599861055
  0
LINE
  8
_0-0_
  6
CONTINUOUS
 62
    7
 10
2094.0087914190699
 20
2184.3234497423796
 11
2094.2845197994275
 21
2185.1503871490595
  0
LINE
  8
_0-0_
  6
CONTINUOUS
 62
    7
 10
2092.9073643040015
 20
2182.7324994650589
 11
2094.0087914190699
 21
2184.3234497423796
  0
LINE
  8
_0-0_
  6
CONTINUOUS
 62
    7
 10
2062.6855023947464
 20
2161.5754867612627
 11
2061.8503897530691
 21
2162.2272759514885
  0
LINE
  8
_0-0_
  6
CONTINUOUS
 62
    7
 10
2139.9682284322025
 20
2219.8195768967557
 11
2087.5964343685901
 21
2219.8195768967557
  0
LINE
  8
_0-0_
  6
CONTINUOUS
 62
    7
 10
2061.8503897530691
 20
2214.9372274627094
 11
2061.8503897530691
 21
2162.2272759514885
  0
LINE
  8
_0-0_
  6
CONTINUOUS
 62
    7
 10
2066.7327391871154
 20
2136.8193887835764
 11
2120.5478338293128
 21
2136.8193887835764
  0
LINE
  8
_0-0_
  6
CONTINUOUS
 62
    7
 10
2144.8503301318547
 20
2141.7017382176227
 11
2144.8503301318547
 21
2193.601598260946
  0
LINE
  8
_0-0_
  6
CONTINUOUS
 62
    7
 10
2133.0054055585824
 20
2136.8193887835764
 11
2139.9682284322025
 21
2136.8193887835764
  0
LINE
  8
_0-0_
  6
CONTINUOUS
 62
    7
 10
2144.8503301318547
 20
2210.7309451894871
 11
2144.8503301318547
 21
2214.9372274627094
  0
LINE
  8
_0-0_
  6
CONTINUOUS
 62
    7
 10
2073.6751239732425
 20
2219.8195768967557
 11
2066.7327391871154
 21
2219.8195768967557
  0
LINE
  8
_0-0_
  6
CONTINUOUS
 62
    7
 10
2061.8503897530691
 20
2145.6612770345682
 11
2061.8503897530691
 21
2141.7017382176227
  0
LINE
  8
_0-0_
  6
CONTINUOUS
 62
    7
 10
2198.1298230145426
 20
2208.9856563847957
 11
2195.3326539735535
 21
2216.6783047827053
  0
LINE
  8
_0-0_
  6
CONTINUOUS
 62
    7
 10
2195.3326539735535
 20
2216.6783047827053
 11
2193.919081522231
 21
2219.2225370075712
  0
LINE
  8
_0-0_
  6
CONTINUOUS
 62
    7
 10
2193.919081522231
 20
2219.2225370075712
 11
2193.0510202061714
 21
2219.8195768967557
  0
LINE
  8
_0-0_
  6
CONTINUOUS
 62
    7
 10
2202.998794791321
 20
2206.337623448906
 11
2201.5527691344037
 21
2213.5679994678862
  0
LINE
  8
_0-0_
  6
CONTINUOUS
 62
    7
 10
2201.5527691344037
 20
2213.5679994678862
 11
2200.7045265698525
 21
2217.8089645562486
  0
LINE
  8
_0-0_
  6
CONTINUOUS
 62
    7
 10
2200.7045265698525
 20
2217.8089645562486
 11
2200.9874392476322
 21
2219.5054496853509
  0
LINE
  8
_0-0_
  6
CONTINUOUS
 62
    7
 10
2200.9874392476322
 20
2219.5054496853509
 11
2201.2619289560207
 21
2219.8195768967557
  0
LINE
  8
_0-0_
  6
CONTINUOUS
 62
    7
 10
2231.5268966498061
 20
2187.6373927289455
 11
2238.8744510370789
 21
2187.8388007911476
  0
LINE
  8
_0-0_
  6
CONTINUOUS
 62
    7
 10
2238.8744510370789
 20
2187.8388007911476
 11
2241.9845086175042
 21
2188.1214657345336
  0
LINE
  8
_0-0_
  6
CONTINUOUS
 62
    7
 10
2241.9845086175042
 20
2188.1214657345336
 11
2243.9634109555986
 21
2188.6870433556987
  0
LINE
  8
_0-0_
  6
CONTINUOUS
 62
    7
 10
2243.9634109555986
 20
2188.6870433556987
 11
2244.8505478199845
 21
2190.0807970555134
  0
LINE
  8
_0-0_
  6
CONTINUOUS
 62
    7
 10
2244.8505478199845
 20
2180.8271742419388
 11
2244.2463236333779
 21
2181.9013505736834
  0
LINE
  8
_0-0_
  6
CONTINUOUS
 62
    7
 10
2244.2463236333779
 20
2181.9013505736834
 11
2241.9845086175042
 21
2183.0322580816201
  0
LINE
  8
_0-0_
  6
CONTINUOUS
 62
    7
 10
2241.9845086175042
 20
2183.0322580816201
 11
2238.931429947665
 21
2183.353569590447
  0
LINE
  8
_0-0_
  6
CONTINUOUS
 62
    7
 10
2161.8506074411989
 20
2168.4607687696066
 11
2163.1004274581851
 21
2169.4608725175895
  0
LINE
  8
_0-0_
  6
CONTINUOUS
 62
    7
 10
2163.1004274581851
 20
2169.4608725175895
 11
2165.0795775306729
 21
2169.7435374609749
  0
LINE
  8
_0-0_
  6
CONTINUOUS
 62
    7
 10
2165.0795775306729
 20
2169.7435374609749
 11
2170.1184951016339
 21
2170.0911088155503
  0
LINE
  8
_0-0_
  6
CONTINUOUS
 62
    7
 10
2170.876562346823
 20
2174.0417291943172
 11
2167.6243052243267
 21
2174.8329928482822
  0
LINE
  8
_0-0_
  6
CONTINUOUS
 62
    7
 10
2167.6243052243267
 20
2174.8329928482822
 11
2164.2313349661217
 21
2175.6812354128333
  0
LINE
  8
_0-0_
  6
CONTINUOUS
 62
    7
 10
2164.2313349661217
 20
2175.6812354128333
 11
2161.969519950248
 21
2177.3777205419356
  0
LINE
  8
_0-0_
  6
CONTINUOUS
 62
    7
 10
2225.0275848270844
 20
2136.8193887835764
 11
2224.1719102307175
 21
2137.2288937366147
  0
LINE
  8
_0-0_
  6
CONTINUOUS
 62
    7
 10
2224.1719102307175
 20
2137.2288937366147
 11
2221.0616049158984
 21
2139.2077960747088
  0
LINE
  8
_0-0_
  6
CONTINUOUS
 62
    7
 10
2221.0616049158984
 20
2139.2077960747088
 11
2217.5794502759072
 21
2143.1651052821094
  0
LINE
  8
_0-0_
  6
CONTINUOUS
 62
    7
 10
2213.5136334039989
 20
2136.8193887835764
 11
2213.710334512718
 21
2136.9459810588351
  0
LINE
  8
_0-0_
  6
CONTINUOUS
 62
    7
 10
2213.6791199790928
 20
2136.8193887835764
 11
2213.9932471904976
 21
2138.0768885667721
  0
LINE
  8
_0-0_
  6
CONTINUOUS
 62
    7
 10
2213.9932471904976
 20
2138.0768885667721
 11
2213.9932471904976
 21
2140.0560386392599
  0
LINE
  8
_0-0_
  6
CONTINUOUS
 62
    7
 10
2213.9932471904976
 20
2140.0560386392599
 11
2210.5418116153437
 21
2145.9087636940267
  0
LINE
  8
_0-0_
  6
CONTINUOUS
 62
    7
 10
2203.8941068907043
 20
2187.8660515744714
 11
2198.1298230145426
 21
2208.9856563847957
  0
LINE
  8
_0-0_
  6
CONTINUOUS
 62
    7
 10
2207.3173007449586
 20
2190.5153231823306
 11
2202.998794791321
 21
2206.337623448906
  0
LINE
  8
_0-0_
  6
CONTINUOUS
 62
    7
 10
2209.2350126877714
 20
2188.4834056839518
 11
2231.5268966498061
 21
2187.6373927289455
  0
LINE
  8
_0-0_
  6
CONTINUOUS
 62
    7
 10
2208.4095616874547
 20
2184.5119756161016
 11
2238.931429947665
 21
2183.353569590447
  0
LINE
  8
_0-0_
  6
CONTINUOUS
 62
    7
 10
2198.9302528410803
 20
2172.1705913175488
 11
2207.0769983829218
 21
2184.1567244953171
  0
LINE
  8
_0-0_
  6
CONTINUOUS
 62
    7
 10
2194.974430040043
 20
2173.4662421973976
 11
2203.1303417544568
 21
2185.4657530324339
  0
LINE
  8
_0-0_
  6
CONTINUOUS
 62
    7
 10
2193.1753828718856
 20
2172.1814916308781
 11
2170.876562346823
 21
2174.0417291943172
  0
LINE
  8
_0-0_
  6
CONTINUOUS
 62
    7
 10
2170.1184951016339
 20
2170.0911088155503
 11
2193.089171302825
 21
2168.1746355447067
  0
LINE
  8
_0-0_
  6
CONTINUOUS
 62
    7
 10
2194.9962306667016
 20
2166.7442171546022
 11
2210.5418116153437
 21
2145.9087636940267
  0
LINE
  8
_0-0_
  6
CONTINUOUS
 62
    7
 10
2198.8948268227596
 20
2168.2083274222709
 11
2217.5794502759072
 21
2143.1651052821094
  0
LINE
  8
_0-0_
  6
CONTINUOUS
 62
    7
 10
2193.1753828718856
 20
2172.1814916308781
 11
2194.974430040043
 21
2173.4662421973976
  0
LINE
  8
_0-0_
  6
CONTINUOUS
 62
    7
 10
2194.9962306667016
 20
2166.7442171546022
 11
2193.089171302825
 21
2168.1746355447067
  0
LINE
  8
_0-0_
  6
CONTINUOUS
 62
    7
 10
2198.8948268227596
 20
2168.2083274222709
 11
2198.1597988761991
 21
2170.1676587432507
  0
LINE
  8
_0-0_
  6
CONTINUOUS
 62
    7
 10
2198.1597988761991
 20
2170.1676587432507
 11
2198.9302528410803
 21
2172.1705913175488
  0
LINE
  8
_0-0_
  6
CONTINUOUS
 62
    7
 10
2209.2350126877714
 20
2188.4834056839518
 11
2208.338461916419
 21
2189.1111646379745
  0
LINE
  8
_0-0_
  6
CONTINUOUS
 62
    7
 10
2208.338461916419
 20
2189.1111646379745
 11
2207.3173007449586
 21
2190.5153231823306
  0
LINE
  8
_0-0_
  6
CONTINUOUS
 62
    7
 10
2203.1303417544568
 20
2185.4657530324339
 11
2203.8941068907043
 21
2187.8660515744714
  0
LINE
  8
_0-0_
  6
CONTINUOUS
 62
    7
 10
2207.0769983829218
 20
2184.1567244953171
 11
2208.4095616874547
 21
2184.5119756161016
  0
LINE
  8
_0-0_
  6
CONTINUOUS
 62
    7
 10
2244.8505478199845
 20
2141.7017382176227
 11
2244.8505478199845
 21
2180.8271742419388
  0
LINE
  8
_0-0_
  6
CONTINUOUS
 62
    7
 10
2239.9679506515445
 20
2219.8195768967557
 11
2201.2619289560207
 21
2219.8195768967557
  0
LINE
  8
_0-0_
  6
CONTINUOUS
 62
    7
 10
2161.8506074411989
 20
2214.9372274627094
 11
2161.8506074411989
 21
2177.3777205419356
  0
LINE
  8
_0-0_
  6
CONTINUOUS
 62
    7
 10
2166.7327091408511
 20
2136.8193887835764
 11
2213.5136334039989
 21
2136.8193887835764
  0
LINE
  8
_0-0_
  6
CONTINUOUS
 62
    7
 10
2244.8505478199845
 20
2190.0807970555134
 11
2244.8505478199845
 21
2214.9372274627094
  0
LINE
  8
_0-0_
  6
CONTINUOUS
 62
    7
 10
2225.0275848270844
 20
2136.8193887835764
 11
2239.9679506515445
 21
2136.8193887835764
  0
LINE
  8
_0-0_
  6
CONTINUOUS
 62
    7
 10
2161.8506074411989
 20
2168.4607687696066
 11
2161.8506074411989
 21
2141.7017382176227
  0
LINE
  8
_0-0_
  6
CONTINUOUS
 62
    7
 10
2193.0510202061714
 20
2219.8195768967557
 11
2166.7327091408511
 21
2219.8195768967557
  0
LINE
  8
_0-0_
  6
CONTINUOUS
 62
    7
 10
2026.0358000353958
 20
2194.9829652410676
 11
2001.2866386207374
 21
2190.7999700008672
  0
LINE
  8
_0-0_
  6
CONTINUOUS
 62
    7
 10
2002.2638269372887
 20
2185.894333533799
 11
2029.4328579110988
 21
2190.4863382582498
  0
LINE
  8
_0-0_
  6
CONTINUOUS
 62
    7
 10
1986.185740909061
 20
2211.0138578672668
 11
1999.2314340893367
 21
2191.9065995382066
  0
LINE
  8
_0-0_
  6
CONTINUOUS
 62
    7
 10
1979.2421174509645
 20
2212.3166930445373
 11
1994.3920665726239
 21
2190.1268756527697
  0
LINE
  8
_0-0_
  6
CONTINUOUS
 62
    7
 10
1994.5299307628029
 20
2185.8160494653416
 11
1987.0012825336235
 21
2174.7856755790563
  0
LINE
  8
_0-0_
  6
CONTINUOUS
 62
    7
 10
1999.8704649582794
 20
2184.7711057920715
 11
1992.2850855529077
 21
2173.6577408838457
  0
LINE
  8
_0-0_
  6
CONTINUOUS
 62
    7
 10
1992.3051520388099
 20
2170.3182812547134
 11
2010.4727538119871
 21
2149.4330331809733
  0
LINE
  8
_0-0_
  6
CONTINUOUS
 62
    7
 10
1989.4710705731363
 20
2165.9581559229082
 11
2008.7244921945696
 21
2143.8240787697573
  0
LINE
  8
_0-0_
  6
CONTINUOUS
 62
    7
 10
1985.1862564970629
 20
2167.4524897866268
 11
1969.6566544168243
 21
2159.5718109837831
  0
LINE
  8
_0-0_
  6
CONTINUOUS
 62
    7
 10
1984.6027181323429
 20
2172.7636674564319
 11
1974.2237618346931
 21
2167.4965865087324
  0
LINE
  8
_0-0_
  6
CONTINUOUS
 62
    7
 10
1992.2850855529077
 20
2173.6577408838457
 11
1991.8219461036006
 21
2172.0900776395465
  0
LINE
  8
_0-0_
  6
CONTINUOUS
 62
    7
 10
1991.8219461036006
 20
2172.0900776395465
 11
1992.3051520388099
 21
2170.3182812547134
  0
LINE
  8
_0-0_
  6
CONTINUOUS
 62
    7
 10
1989.4710705731363
 20
2165.9581559229082
 11
1987.6067453921992
 21
2167.4653719751072
  0
LINE
  8
_0-0_
  6
CONTINUOUS
 62
    7
 10
1986.5727020322586
 20
2167.7299523077418
 11
1985.1862564970629
 21
2167.4524897866268
  0
LINE
  8
_0-0_
  6
CONTINUOUS
 62
    7
 10
1987.0012825336235
 20
2174.7856755790563
 11
1984.6027181323429
 21
2172.7636674564319
  0
LINE
  8
_0-0_
  6
CONTINUOUS
 62
    7
 10
1987.6067453921992
 20
2167.4653719751072
 11
1986.5727020322586
 21
2167.7299523077418
  0
LINE
  8
_0-0_
  6
CONTINUOUS
 62
    7
 10
2002.2638269372887
 20
2185.894333533799
 11
2000.6424053295241
 21
2185.3753299786777
  0
LINE
  8
_0-0_
  6
CONTINUOUS
 62
    7
 10
2000.6424053295241
 20
2185.3753299786777
 11
1999.8704649582794
 21
2184.7711057920715
  0
LINE
  8
_0-0_
  6
CONTINUOUS
 62
    7
 10
1994.3920665726239
 20
2190.1268756527697
 11
1995.1975749542353
 21
2187.8799247005272
  0
LINE
  8
_0-0_
  6
CONTINUOUS
 62
    7
 10
1995.1975749542353
 20
2187.8799247005272
 11
1994.5299307628029
 21
2185.8160494653416
  0
LINE
  8
_0-0_
  6
CONTINUOUS
 62
    7
 10
1999.2314340893367
 20
2191.9065995382066
 11
2001.2866386207374
 21
2190.7999700008672
  0
LINE
  8
_0-0_
  6
CONTINUOUS
 62
    7
 10
1985.6362660234959
 20
2219.8195768967557
 11
1983.6138862992807
 21
2218.497170702371
  0
LINE
  8
_0-0_
  6
CONTINUOUS
 62
    7
 10
1983.6138862992807
 20
2218.497170702371
 11
1983.2883633057581
 21
2217.194830993888
  0
LINE
  8
_0-0_
  6
CONTINUOUS
 62
    7
 10
1983.2883633057581
 20
2217.194830993888
 11
1986.185740909061
 21
2211.0138578672668
  0
LINE
  8
_0-0_
  6
CONTINUOUS
 62
    7
 10
1969.881101777655
 20
2219.8195768967557
 11
1971.8951823996761
 21
2219.1482166894152
  0
LINE
  8
_0-0_
  6
CONTINUOUS
 62
    7
 10
1971.8951823996761
 20
2219.1482166894152
 11
1975.1504123348989
 21
2217.194830993888
  0
LINE
  8
_0-0_
  6
CONTINUOUS
 62
    7
 10
1975.1504123348989
 20
2217.194830993888
 11
1979.2421174509645
 21
2212.3166930445373
  0
LINE
  8
_0-0_
  6
CONTINUOUS
 62
    7
 10
2044.8105988079055
 20
2201.8959935015232
 11
2042.857460846772
 21
2199.6173325468676
  0
LINE
  8
_0-0_
  6
CONTINUOUS
 62
    7
 10
2042.857460846772
 20
2199.6173325468676
 11
2040.2532768985939
 21
2198.3152405727783
  0
LINE
  8
_0-0_
  6
CONTINUOUS
 62
    7
 10
2040.2532768985939
 20
2198.3152405727783
 11
2026.0358000353958
 21
2194.9829652410676
  0
LINE
  8
_0-0_
  6
CONTINUOUS
 62
    7
 10
2029.4328579110988
 20
2190.4863382582498
 11
2034.3941107495871
 21
2190.8284594561601
  0
LINE
  8
_0-0_
  6
CONTINUOUS
 62
    7
 10
2034.3941107495871
 20
2190.8284594561601
 11
2040.2532768985939
 21
2191.1537347152889
  0
LINE
  8
_0-0_
  6
CONTINUOUS
 62
    7
 10
2040.2532768985939
 20
2191.1537347152889
 11
2042.5320617204466
 21
2190.8284594561601
  0
LINE
  8
_0-0_
  6
CONTINUOUS
 62
    7
 10
2042.5320617204466
 20
2190.8284594561601
 11
2044.4850758143832
 21
2189.2008444885487
  0
LINE
  8
_0-0_
  6
CONTINUOUS
 62
    7
 10
2044.4850758143832
 20
2189.2008444885487
 11
2044.850360178119
 21
2188.3134598897691
  0
LINE
  8
_0-0_
  6
CONTINUOUS
 62
    7
 10
1974.2237618346931
 20
2167.4965865087324
 11
1967.9891542118028
 21
2165.1128861710831
  0
LINE
  8
_0-0_
  6
CONTINUOUS
 62
    7
 10
1967.9891542118028
 20
2165.1128861710831
 11
1964.4084012830579
 21
2164.1360694561226
  0
LINE
  8
_0-0_
  6
CONTINUOUS
 62
    7
 10
1964.4084012830579
 20
2164.1360694561226
 11
1962.4553871891212
 21
2164.1360694561226
  0
LINE
  8
_0-0_
  6
CONTINUOUS
 62
    7
 10
1962.4553871891212
 20
2164.1360694561226
 11
1961.8504197993334
 21
2164.7841426304408
  0
LINE
  8
_0-0_
  6
CONTINUOUS
 62
    7
 10
1969.6566544168243
 20
2159.5718109837831
 11
1967.0125852312362
 21
2157.9513803135933
  0
LINE
  8
_0-0_
  6
CONTINUOUS
 62
    7
 10
1967.0125852312362
 20
2157.9513803135933
 11
1962.4553871891212
 21
2155.021673371893
  0
LINE
  8
_0-0_
  6
CONTINUOUS
 62
    7
 10
1962.4553871891212
 20
2155.021673371893
 11
1961.8504197993334
 21
2154.071116502681
  0
LINE
  8
_0-0_
  6
CONTINUOUS
 62
    7
 10
2010.4727538119871
 20
2149.4330331809733
 11
2020.7225166232431
 21
2139.7225881451345
  0
LINE
  8
_0-0_
  6
CONTINUOUS
 62
    7
 10
2020.7225166232431
 20
2139.7225881451345
 11
2026.8914746317623
 21
2136.8193887835764
  0
LINE
  8
_0-0_
  6
CONTINUOUS
 62
    7
 10
2008.7244921945696
 20
2143.8240787697573
 11
2010.3060285649244
 21
2140.0481111386571
  0
LINE
  8
_0-0_
  6
CONTINUOUS
 62
    7
 10
2010.3060285649244
 20
2140.0481111386571
 11
2009.9805055714021
 21
2138.0949731775231
  0
LINE
  8
_0-0_
  6
CONTINUOUS
 62
    7
 10
2009.9805055714021
 20
2138.0949731775231
 11
2009.2302419596197
 21
2136.8193887835764
  0
LINE
  8
_0-0_
  6
CONTINUOUS
 62
    7
 10
1961.8504197993334
 20
2141.7017382176227
 11
1961.8504197993334
 21
2154.071116502681
  0
LINE
  8
_0-0_
  6
CONTINUOUS
 62
    7
 10
1966.7327692333797
 20
2219.8195768967557
 11
1969.881101777655
 21
2219.8195768967557
  0
LINE
  8
_0-0_
  6
CONTINUOUS
 62
    7
 10
2044.850360178119
 20
2214.9372274627094
 11
2044.850360178119
 21
2201.8959935015232
  0
LINE
  8
_0-0_
  6
CONTINUOUS
 62
    7
 10
2039.9680107440727
 20
2136.8193887835764
 11
2026.8914746317623
 21
2136.8193887835764
  0
LINE
  8
_0-0_
  6
CONTINUOUS
 62
    7
 10
2044.850360178119
 20
2188.3134598897691
 11
2044.850360178119
 21
2141.7017382176227
  0
LINE
  8
_0-0_
  6
CONTINUOUS
 62
    7
 10
1985.6362660234959
 20
2219.8195768967557
 11
2039.9680107440727
 21
2219.8195768967557
  0
LINE
  8
_0-0_
  6
CONTINUOUS
 62
    7
 10
1961.8504197993334
 20
2164.7841426304408
 11
1961.8504197993334
 21
2214.9372274627094
  0
LINE
  8
_0-0_
  6
CONTINUOUS
 62
    7
 10
2009.2302419596197
 20
2136.8193887835764
 11
1966.7327692333797
 21
2136.8193887835764
  0
LINE
  8
_0-0_
  6
CONTINUOUS
 62
    7
 10
2044.4747948370386
 20
2096.7347251862629
 11
2044.850360178119
 21
2097.2812272591018
  0
LINE
  8
_0-0_
  6
CONTINUOUS
 62
    7
 10
2044.4747948370386
 20
2096.7347251862629
 11
2041.8443510431121
 21
2095.273339996927
  0
LINE
  8
_0-0_
  6
CONTINUOUS
 62
    7
 10
2041.8443510431121
 20
2095.273339996927
 11
2036.0217257171985
 21
2093.2277971068866
  0
LINE
  8
_0-0_
  6
CONTINUOUS
 62
    7
 10
2038.7100154920895
 20
2089.6356483960244
 11
2040.7959390883279
 21
2089.5365546384833
  0
LINE
  8
_0-0_
  6
CONTINUOUS
 62
    7
 10
2040.7959390883279
 20
2089.5365546384833
 11
2042.8418535799594
 21
2089.2442280537371
  0
LINE
  8
_0-0_
  6
CONTINUOUS
 62
    7
 10
2042.8418535799594
 20
2089.2442280537371
 11
2044.850360178119
 21
2087.965918581458
  0
LINE
  8
_0-0_
  6
CONTINUOUS
 62
    7
 10
2009.0585620246798
 20
2045.0336719940069
 11
2010.8120260643682
 21
2040.234561316295
  0
LINE
  8
_0-0_
  6
CONTINUOUS
 62
    7
 10
2005.1241682487105
 20
2044.270526193744
 11
2005.1241682487105
 21
2040.6524892387242
  0
LINE
  8
_0-0_
  6
CONTINUOUS
 62
    7
 10
2005.1241682487105
 20
2040.6524892387242
 11
2004.8319655311614
 21
2038.8989013318387
  0
LINE
  8
_0-0_
  6
CONTINUOUS
 62
    7
 10
2004.8319655311614
 20
2038.8989013318387
 11
2002.950670544245
 21
2036.8194188298407
  0
LINE
  8
_0-0_
  6
CONTINUOUS
 62
    7
 10
1975.7410111298432
 20
2069.3902982616055
 11
1969.6642103158367
 21
2068.9711316672074
  0
LINE
  8
_0-0_
  6
CONTINUOUS
 62
    7
 10
1969.6642103158367
 20
2068.9711316672074
 11
1965.2801786150253
 21
2069.2634582519531
  0
LINE
  8
_0-0_
  6
CONTINUOUS
 62
    7
 10
1965.2801786150253
 20
2069.2634582519531
 11
1962.6497348210987
 21
2069.8478636870514
  0
LINE
  8
_0-0_
  6
CONTINUOUS
 62
    7
 10
1962.6497348210987
 20
2069.8478636870514
 11
1961.8504197993334
 21
2070.6470548416196
  0
LINE
  8
_0-0_
  6
CONTINUOUS
 62
    7
 10
1965.1979307962661
 20
2063.2407874030037
 11
1963.0414028977796
 21
2061.4765469171825
  0
LINE
  8
_0-0_
  6
CONTINUOUS
 62
    7
 10
1963.0414028977796
 20
2061.4765469171825
 11
1961.8504197993334
 21
2060.0473671990471
  0
LINE
  8
_0-0_
  6
CONTINUOUS
 62
    7
 10
2001.7673672120081
 20
2119.8193592086263
 11
2001.1048015756496
 21
2117.8317861667474
  0
LINE
  8
_0-0_
  6
CONTINUOUS
 62
    7
 10
2001.1048015756496
 20
2117.8317861667474
 11
2002.7870419771054
 21
2110.62221983685
  0
LINE
  8
_0-0_
  6
CONTINUOUS
 62
    7
 10
1999.6617487314586
 20
2107.1378355873135
 11
1996.4332741107719
 21
2114.5170999769998
  0
LINE
  8
_0-0_
  6
CONTINUOUS
 62
    7
 10
1996.4332741107719
 20
2114.5170999769998
 11
1994.4541240382839
 21
2117.9098225008106
  0
LINE
  8
_0-0_
  6
CONTINUOUS
 62
    7
 10
1994.4541240382839
 20
2117.9098225008106
 11
1993.1811408554724
 21
2119.8193592086263
  0
LINE
  8
_0-0_
  6
CONTINUOUS
 62
    7
 10
2002.5334858249973
 20
2070.2018761358668
 11
2009.0585620246798
 21
2045.0336719940069
  0
LINE
  8
_0-0_
  6
CONTINUOUS
 62
    7
 10
1999.7645585049074
 20
2064.9437136263459
 11
2005.1241682487105
 21
2044.270526193744
  0
LINE
  8
_0-0_
  6
CONTINUOUS
 62
    7
 10
1995.1415869812245
 20
2069.1276998041217
 11
1965.1979307962661
 21
2063.2407874030037
  0
LINE
  8
_0-0_
  6
CONTINUOUS
 62
    7
 10
1996.8433983997948
 20
2073.5388584210605
 11
1975.7410111298432
 21
2069.3902982616055
  0
LINE
  8
_0-0_
  6
CONTINUOUS
 62
    7
 10
2004.373533035337
 20
2083.9122406948486
 11
1999.6914768587208
 21
2075.6716038177374
  0
LINE
  8
_0-0_
  6
CONTINUOUS
 62
    7
 10
2008.7526100482719
 20
2083.522306758925
 11
2002.8264317457279
 21
2073.0921933089444
  0
LINE
  8
_0-0_
  6
CONTINUOUS
 62
    7
 10
2009.6295898025098
 20
2084.5702232449212
 11
2038.7100154920895
 21
2089.6356483960244
  0
LINE
  8
_0-0_
  6
CONTINUOUS
 62
    7
 10
2016.2889380436607
 20
2089.7902346577885
 11
2036.0217257171985
 21
2093.2277971068866
  0
LINE
  8
_0-0_
  6
CONTINUOUS
 62
    7
 10
2009.0210302640112
 20
2090.0042771740768
 11
2002.7870419771054
 21
2110.62221983685
  0
LINE
  8
_0-0_
  6
CONTINUOUS
 62
    7
 10
2005.2772681041115
 20
2088.5651880801875
 11
1999.6617487314586
 21
2107.1378355873135
  0
LINE
  8
_0-0_
  6
CONTINUOUS
 62
    7
 10
2002.8264317457279
 20
2073.0921933089444
 11
2002.4251020276868
 21
2071.7673097706206
  0
LINE
  8
_0-0_
  6
CONTINUOUS
 62
    7
 10
2002.4251020276868
 20
2071.7673097706206
 11
2002.5334858249973
 21
2070.2018761358668
  0
LINE
  8
_0-0_
  6
CONTINUOUS
 62
    7
 10
1995.1415869812245
 20
2069.1276998041217
 11
1997.6501454533759
 21
2069.2394280157496
  0
LINE
  8
_0-0_
  6
CONTINUOUS
 62
    7
 10
1997.6501454533759
 20
2069.2394280157496
 11
1999.0545517321257
 21
2068.1159525396279
  0
LINE
  8
_0-0_
  6
CONTINUOUS
 62
    7
 10
1999.0545517321257
 20
2068.1159525396279
 11
1999.7645585049074
 21
2064.9437136263459
  0
LINE
  8
_0-0_
  6
CONTINUOUS
 62
    7
 10
1999.6914768587208
 20
2075.6716038177374
 11
1999.3354825347546
 21
2074.8568053963563
  0
LINE
  8
_0-0_
  6
CONTINUOUS
 62
    7
 10
1999.3354825347546
 20
2074.8568053963563
 11
1997.9310762560044
 21
2074.0142607228636
  0
LINE
  8
_0-0_
  6
CONTINUOUS
 62
    7
 10
1997.9310762560044
 20
2074.0142607228636
 11
1996.8433983997948
 21
2073.5388584210605
  0
LINE
  8
_0-0_
  6
CONTINUOUS
 62
    7
 10
2005.2772681041115
 20
2088.5651880801875
 11
2005.2339145851872
 21
2086.93460029985
  0
LINE
  8
_0-0_
  6
CONTINUOUS
 62
    7
 10
2005.2339145851872
 20
2086.93460029985
 11
2004.9529837825582
 21
2085.2492632184708
  0
LINE
  8
_0-0_
  6
CONTINUOUS
 62
    7
 10
2004.9529837825582
 20
2085.2492632184708
 11
2004.373533035337
 21
2083.9122406948486
  0
LINE
  8
_0-0_
  6
CONTINUOUS
 62
    7
 10
2008.7526100482719
 20
2083.522306758925
 11
2009.6295898025098
 21
2084.5702232449212
  0
LINE
  8
_0-0_
  6
CONTINUOUS
 62
    7
 10
2016.2889380436607
 20
2089.7902346577885
 11
2012.5367529143696
 21
2089.1815512520925
  0
LINE
  8
_0-0_
  6
CONTINUOUS
 62
    7
 10
2012.5367529143696
 20
2089.1815512520925
 11
2010.5706088975589
 21
2089.1815512520925
  0
LINE
  8
_0-0_
  6
CONTINUOUS
 62
    7
 10
2010.5706088975589
 20
2089.1815512520925
 11
2009.0210302640112
 21
2090.0042771740768
  0
LINE
  8
_0-0_
  6
CONTINUOUS
 62
    7
 10
2010.8120260643682
 20
2040.234561316295
 11
2011.6940843736802
 21
2038.3428614848369
  0
LINE
  8
_0-0_
  6
CONTINUOUS
 62
    7
 10
2011.6940843736802
 20
2038.3428614848369
 11
2013.4350378264789
 21
2036.8194188298407
  0
LINE
  8
_0-0_
  6
CONTINUOUS
 62
    7
 10
1961.8504197993334
 20
2041.7018921310837
 11
1961.8504197993334
 21
2060.0473671990471
  0
LINE
  8
_0-0_
  6
CONTINUOUS
 62
    7
 10
1966.7327692333797
 20
2119.8193592086263
 11
1993.1811408554724
 21
2119.8193592086263
  0
LINE
  8
_0-0_
  6
CONTINUOUS
 62
    7
 10
2044.850360178119
 20
2114.9372575089737
 11
2044.850360178119
 21
2097.2812272591018
  0
LINE
  8
_0-0_
  6
CONTINUOUS
 62
    7
 10
2039.9680107440727
 20
2036.8194188298407
 11
2013.4350378264789
 21
2036.8194188298407
  0
LINE
  8
_0-0_
  6
CONTINUOUS
 62
    7
 10
2044.850360178119
 20
2087.965918581458
 11
2044.850360178119
 21
2041.7018921310837
  0
LINE
  8
_0-0_
  6
CONTINUOUS
 62
    7
 10
2001.7673672120081
 20
2119.8193592086263
 11
2039.9680107440727
 21
2119.8193592086263
  0
LINE
  8
_0-0_
  6
CONTINUOUS
 62
    7
 10
1961.8504197993334
 20
2070.6470548416196
 11
1961.8504197993334
 21
2114.9372575089737
  0
LINE
  8
_0-0_
  6
CONTINUOUS
 62
    7
 10
2002.950670544245
 20
2036.8194188298407
 11
1966.7327692333797
 21
2036.8194188298407
  0
LINE
  8
_0-0_
  6
CONTINUOUS
 62
    7
 10
2121.7659438438859
 20
1934.1951984420245
 11
2122.3121981823306
 21
1933.8193853665503
  0
LINE
  8
_0-0_
  6
CONTINUOUS
 62
    7
 10
2121.7659438438859
 20
1934.1951984420245
 11
2120.3045586545495
 21
1936.825518368754
  0
LINE
  8
_0-0_
  6
CONTINUOUS
 62
    7
 10
2120.3045586545495
 20
1936.825518368754
 11
2118.2587680301149
 21
1942.6482675618647
  0
LINE
  8
_0-0_
  6
CONTINUOUS
 62
    7
 10
2114.6666193192532
 20
1939.9598539197766
 11
2114.5672778273179
 21
1937.8739303235379
  0
LINE
  8
_0-0_
  6
CONTINUOUS
 62
    7
 10
2114.5672778273179
 20
1937.8739303235379
 11
2114.2751989769658
 21
1935.8281396991038
  0
LINE
  8
_0-0_
  6
CONTINUOUS
 62
    7
 10
2114.2751989769658
 20
1935.8281396991038
 11
2112.9968895046868
 21
1933.8193853665503
  0
LINE
  8
_0-0_
  6
CONTINUOUS
 62
    7
 10
2070.0646429172357
 20
1969.6113073871861
 11
2065.2656561067206
 21
1967.8579672146948
  0
LINE
  8
_0-0_
  6
CONTINUOUS
 62
    7
 10
2069.3013732497757
 20
1973.5455772959588
 11
2065.6833362947559
 21
1973.5455772959588
  0
LINE
  8
_0-0_
  6
CONTINUOUS
 62
    7
 10
2065.6833362947559
 20
1973.5455772959588
 11
2063.9297483878709
 21
1973.8380277479016
  0
LINE
  8
_0-0_
  6
CONTINUOUS
 62
    7
 10
2063.9297483878709
 20
1973.8380277479016
 11
2061.8503897530691
 21
1975.719322734818
  0
LINE
  8
_0-0_
  6
CONTINUOUS
 62
    7
 10
2094.4212691848343
 20
2002.9288582820229
 11
2094.0021025904357
 21
2009.0056590960294
  0
LINE
  8
_0-0_
  6
CONTINUOUS
 62
    7
 10
2094.0021025904357
 20
2009.0056590960294
 11
2094.2944291751819
 21
2013.3898146640379
  0
LINE
  8
_0-0_
  6
CONTINUOUS
 62
    7
 10
2094.2944291751819
 20
2013.3898146640379
 11
2094.8788346102801
 21
2016.0201345907674
  0
LINE
  8
_0-0_
  6
CONTINUOUS
 62
    7
 10
2094.8788346102801
 20
2016.0201345907674
 11
2095.6782734992421
 21
2016.8195734797296
  0
LINE
  8
_0-0_
  6
CONTINUOUS
 62
    7
 10
2088.2720060606262
 20
2013.4719386156003
 11
2086.5073939732142
 21
2015.6287142484805
  0
LINE
  8
_0-0_
  6
CONTINUOUS
 62
    7
 10
2086.5073939732142
 20
2015.6287142484805
 11
2085.078461989473
 21
2016.8195734797296
  0
LINE
  8
_0-0_
  6
CONTINUOUS
 62
    7
 10
2144.8503301318547
 20
1976.9026260670548
 11
2142.8627570899757
 21
1977.5650678362167
  0
LINE
  8
_0-0_
  6
CONTINUOUS
 62
    7
 10
2142.8627570899757
 20
1977.5650678362167
 11
2135.6534384944725
 21
1975.8829513019577
  0
LINE
  8
_0-0_
  6
CONTINUOUS
 62
    7
 10
2132.1688065105423
 20
1979.0083684148017
 11
2139.5480709002286
 21
1982.2367191682911
  0
LINE
  8
_0-0_
  6
CONTINUOUS
 62
    7
 10
2139.5480709002286
 20
1982.2367191682911
 11
2142.9410411584331
 21
1984.2157453735822
  0
LINE
  8
_0-0_
  6
CONTINUOUS
 62
    7
 10
2142.9410411584331
 20
1984.2157453735822
 11
2144.8503301318547
 21
1985.4887285563937
  0
LINE
  8
_0-0_
  6
CONTINUOUS
 62
    7
 10
2095.2328470590955
 20
1976.1365074540658
 11
2070.0646429172357
 21
1969.6113073871861
  0
LINE
  8
_0-0_
  6
CONTINUOUS
 62
    7
 10
2089.9746845495747
 20
1978.9054347741558
 11
2069.3013732497757
 21
1973.5455772959588
  0
LINE
  8
_0-0_
  6
CONTINUOUS
 62
    7
 10
2094.1586707273505
 20
1983.5282824306414
 11
2088.2720060606262
 21
2013.4719386156003
  0
LINE
  8
_0-0_
  6
CONTINUOUS
 62
    7
 10
2098.5698293442892
 20
1981.8267187464651
 11
2094.4212691848343
 21
2002.9288582820229
  0
LINE
  8
_0-0_
  6
CONTINUOUS
 62
    7
 10
2108.9432116180774
 20
1974.2963363765289
 11
2100.7025747409662
 21
1978.9783925531451
  0
LINE
  8
_0-0_
  6
CONTINUOUS
 62
    7
 10
2108.5532776821533
 20
1969.9171354963971
 11
2098.122916497779
 21
1975.8435615333351
  0
LINE
  8
_0-0_
  6
CONTINUOUS
 62
    7
 10
2109.6011941681495
 20
1969.0404034765529
 11
2114.6666193192532
 21
1939.9598539197766
  0
LINE
  8
_0-0_
  6
CONTINUOUS
 62
    7
 10
2114.821453315411
 20
1962.3808075010086
 11
2118.2587680301149
 21
1942.6482675618647
  0
LINE
  8
_0-0_
  6
CONTINUOUS
 62
    7
 10
2115.0354958316993
 20
1969.6489630150518
 11
2135.6534384944725
 21
1975.8829513019577
  0
LINE
  8
_0-0_
  6
CONTINUOUS
 62
    7
 10
2113.59640673781
 20
1973.3927251749517
 11
2132.1688065105423
 21
1979.0083684148017
  0
LINE
  8
_0-0_
  6
CONTINUOUS
 62
    7
 10
2098.122916497779
 20
1975.8435615333351
 11
2096.7982806938494
 21
1976.2448912513762
  0
LINE
  8
_0-0_
  6
CONTINUOUS
 62
    7
 10
2096.7982806938494
 20
1976.2448912513762
 11
2095.2328470590955
 21
1976.1365074540658
  0
LINE
  8
_0-0_
  6
CONTINUOUS
 62
    7
 10
2094.1586707273505
 20
1983.5282824306414
 11
2094.2703989389784
 21
1981.0197239584904
  0
LINE
  8
_0-0_
  6
CONTINUOUS
 62
    7
 10
2094.2703989389784
 20
1981.0197239584904
 11
2093.1469234628566
 21
1979.6153176797404
  0
LINE
  8
_0-0_
  6
CONTINUOUS
 62
    7
 10
2093.1469234628566
 20
1979.6153176797404
 11
2089.9746845495747
 21
1978.9054347741558
  0
LINE
  8
_0-0_
  6
CONTINUOUS
 62
    7
 10
2100.7025747409662
 20
1978.9783925531451
 11
2099.8880240539784
 21
1979.3345107443085
  0
LINE
  8
_0-0_
  6
CONTINUOUS
 62
    7
 10
2099.8880240539784
 20
1979.3345107443085
 11
2099.0452316460924
 21
1980.7389170230585
  0
LINE
  8
_0-0_
  6
CONTINUOUS
 62
    7
 10
2099.0452316460924
 20
1980.7389170230585
 11
2098.5698293442892
 21
1981.8267187464651
  0
LINE
  8
_0-0_
  6
CONTINUOUS
 62
    7
 10
2113.59640673781
 20
1973.3927251749517
 11
2111.9655712230788
 21
1973.4359548266789
  0
LINE
  8
_0-0_
  6
CONTINUOUS
 62
    7
 10
2111.9655712230788
 20
1973.4359548266789
 11
2110.2804818760933
 21
1973.7168856293079
  0
LINE
  8
_0-0_
  6
CONTINUOUS
 62
    7
 10
2110.2804818760933
 20
1973.7168856293079
 11
2108.9432116180774
 21
1974.2963363765289
  0
LINE
  8
_0-0_
  6
CONTINUOUS
 62
    7
 10
2108.5532776821533
 20
1969.9171354963971
 11
2109.6011941681495
 21
1969.0404034765529
  0
LINE
  8
_0-0_
  6
CONTINUOUS
 62
    7
 10
2114.821453315411
 20
1962.3808075010086
 11
2114.212769909715
 21
1966.1332403646932
  0
LINE
  8
_0-0_
  6
CONTINUOUS
 62
    7
 10
2114.212769909715
 20
1966.1332403646932
 11
2114.212769909715
 21
1968.099384381504
  0
LINE
  8
_0-0_
  6
CONTINUOUS
 62
    7
 10
2114.212769909715
 20
1968.099384381504
 11
2115.0354958316993
 21
1969.6489630150518
  0
LINE
  8
_0-0_
  6
CONTINUOUS
 62
    7
 10
2065.2656561067206
 20
1967.8579672146948
 11
2063.3737085408684
 21
1966.9757850381859
  0
LINE
  8
_0-0_
  6
CONTINUOUS
 62
    7
 10
2063.3737085408684
 20
1966.9757850381859
 11
2061.8503897530691
 21
1965.2348315853872
  0
LINE
  8
_0-0_
  6
CONTINUOUS
 62
    7
 10
2066.7327391871154
 20
2016.8195734797296
 11
2085.078461989473
 21
2016.8195734797296
  0
LINE
  8
_0-0_
  6
CONTINUOUS
 62
    7
 10
2144.8503301318547
 20
2011.9371001784864
 11
2144.8503301318547
 21
1985.4887285563937
  0
LINE
  8
_0-0_
  6
CONTINUOUS
 62
    7
 10
2139.9682284322025
 20
1933.8193853665503
 11
2122.3121981823306
 21
1933.8193853665503
  0
LINE
  8
_0-0_
  6
CONTINUOUS
 62
    7
 10
2061.8503897530691
 20
1938.7018586677934
 11
2061.8503897530691
 21
1965.2348315853872
  0
LINE
  8
_0-0_
  6
CONTINUOUS
 62
    7
 10
2112.9968895046868
 20
1933.8193853665503
 11
2066.7327391871154
 21
1933.8193853665503
  0
LINE
  8
_0-0_
  6
CONTINUOUS
 62
    7
 10
2144.8503301318547
 20
1976.9026260670548
 11
2144.8503301318547
 21
1938.7018586677934
  0
LINE
  8
_0-0_
  6
CONTINUOUS
 62
    7
 10
2095.6782734992421
 20
2016.8195734797296
 11
2139.9682284322025
 21
2016.8195734797296
  0
LINE
  8
_0-0_
  6
CONTINUOUS
 62
    7
 10
2061.8503897530691
 20
1975.719322734818
 11
2061.8503897530691
 21
2011.9371001784864
  0
LINE
  8
_0-0_
  6
CONTINUOUS
 62
    7
 10
2162.2261727822793
 20
1856.9041733023744
 11
2161.8506074411989
 21
1856.3577950967326
  0
LINE
  8
_0-0_
  6
CONTINUOUS
 62
    7
 10
2162.2261727822793
 20
1856.9041733023744
 11
2164.8563688418117
 21
1858.3655584917105
  0
LINE
  8
_0-0_
  6
CONTINUOUS
 62
    7
 10
2164.8563688418117
 20
1858.3655584917105
 11
2170.6791180349223
 21
1860.4113491161452
  0
LINE
  8
_0-0_
  6
CONTINUOUS
 62
    7
 10
2167.9907043928342
 20
1864.0032500926131
 11
2165.9047807965958
 21
1864.1024677173509
  0
LINE
  8
_0-0_
  6
CONTINUOUS
 62
    7
 10
2165.9047807965958
 20
1864.1024677173509
 11
2163.8589901721616
 21
1864.3946704349003
  0
LINE
  8
_0-0_
  6
CONTINUOUS
 62
    7
 10
2163.8589901721616
 20
1864.3946704349003
 11
2161.8506074411989
 21
1865.6729799071795
  0
LINE
  8
_0-0_
  6
CONTINUOUS
 62
    7
 10
2197.6422817274411
 20
1908.6052264946306
 11
2195.8888176877526
 21
1913.4043371723424
  0
LINE
  8
_0-0_
  6
CONTINUOUS
 62
    7
 10
2201.5767993706072
 20
1909.3686200292873
 11
2201.5767993706072
 21
1912.9864092499133
  0
LINE
  8
_0-0_
  6
CONTINUOUS
 62
    7
 10
2201.5767993706072
 20
1912.9864092499133
 11
2201.8688782209592
 21
1914.7399971567986
  0
LINE
  8
_0-0_
  6
CONTINUOUS
 62
    7
 10
2201.8688782209592
 20
1914.7399971567986
 11
2203.7501732078758
 21
1916.8194796587968
  0
LINE
  8
_0-0_
  6
CONTINUOUS
 62
    7
 10
2230.9598326222776
 20
1884.2487240942287
 11
2237.0365095690872
 21
1884.6678906886273
  0
LINE
  8
_0-0_
  6
CONTINUOUS
 62
    7
 10
2237.0365095690872
 20
1884.6678906886273
 11
2241.420665137096
 21
1884.3756879710782
  0
LINE
  8
_0-0_
  6
CONTINUOUS
 62
    7
 10
2241.420665137096
 20
1884.3756879710782
 11
2244.0511089310221
 21
1883.7910348015862
  0
LINE
  8
_0-0_
  6
CONTINUOUS
 62
    7
 10
2244.0511089310221
 20
1883.7910348015862
 11
2244.8505478199845
 21
1882.9917197798209
  0
LINE
  8
_0-0_
  6
CONTINUOUS
 62
    7
 10
2241.5029129558548
 20
1890.3981110856339
 11
2243.6596885887352
 21
1892.162351571455
  0
LINE
  8
_0-0_
  6
CONTINUOUS
 62
    7
 10
2243.6596885887352
 20
1892.162351571455
 11
2244.8505478199845
 21
1893.5916551567875
  0
LINE
  8
_0-0_
  6
CONTINUOUS
 62
    7
 10
2204.9336004073093
 20
1833.8196631472083
 11
2205.5960421764712
 21
1835.8073600562843
  0
LINE
  8
_0-0_
  6
CONTINUOUS
 62
    7
 10
2205.5960421764712
 20
1835.8073600562843
 11
2203.9139256422122
 21
1843.0166786517875
  0
LINE
  8
_0-0_
  6
CONTINUOUS
 62
    7
 10
2207.0390950206624
 20
1846.5010629013238
 11
2210.2675696413489
 21
1839.1220462460317
  0
LINE
  8
_0-0_
  6
CONTINUOUS
 62
    7
 10
2210.2675696413489
 20
1839.1220462460317
 11
2212.2467197138367
 21
1835.7291998550238
  0
LINE
  8
_0-0_
  6
CONTINUOUS
 62
    7
 10
2212.2467197138367
 20
1835.7291998550238
 11
2213.5195790294515
 21
1833.8196631472083
  0
LINE
  8
_0-0_
  6
CONTINUOUS
 62
    7
 10
2204.1673579271237
 20
1883.4371462199679
 11
2197.6422817274411
 21
1908.6052264946306
  0
LINE
  8
_0-0_
  6
CONTINUOUS
 62
    7
 10
2206.9362852472136
 20
1888.6955564638822
 11
2201.5767993706072
 21
1909.3686200292873
  0
LINE
  8
_0-0_
  6
CONTINUOUS
 62
    7
 10
2211.5592567708964
 20
1884.5113225517125
 11
2241.5029129558548
 21
1890.3981110856339
  0
LINE
  8
_0-0_
  6
CONTINUOUS
 62
    7
 10
2209.8575692195227
 20
1880.1001639347739
 11
2230.9598326222776
 21
1884.2487240942287
  0
LINE
  8
_0-0_
  6
CONTINUOUS
 62
    7
 10
2202.3271868495867
 20
1869.7267816609858
 11
2207.0093668934001
 21
1877.9672946709002
  0
LINE
  8
_0-0_
  6
CONTINUOUS
 62
    7
 10
2197.9482337038489
 20
1870.1167155969097
 11
2203.8745358735896
 21
1880.54682904689
  0
LINE
  8
_0-0_
  6
CONTINUOUS
 62
    7
 10
2197.0712539496108
 20
1869.0687991109132
 11
2167.9907043928342
 21
1864.0032500926131
  0
LINE
  8
_0-0_
  6
CONTINUOUS
 62
    7
 10
2190.4119057084604
 20
1863.8485399636522
 11
2170.6791180349223
 21
1860.4113491161452
  0
LINE
  8
_0-0_
  6
CONTINUOUS
 62
    7
 10
2197.6796896209125
 20
1863.6344974473636
 11
2203.9139256422122
 21
1843.0166786517875
  0
LINE
  8
_0-0_
  6
CONTINUOUS
 62
    7
 10
2201.4234517808127
 20
1865.0737104084501
 11
2207.0390950206624
 21
1846.5010629013238
  0
LINE
  8
_0-0_
  6
CONTINUOUS
 62
    7
 10
2203.8745358735896
 20
1880.54682904689
 11
2204.2758655916309
 21
1881.8715887180167
  0
LINE
  8
_0-0_
  6
CONTINUOUS
 62
    7
 10
2204.2758655916309
 20
1881.8715887180167
 11
2204.1673579271237
 21
1883.4371462199679
  0
LINE
  8
_0-0_
  6
CONTINUOUS
 62
    7
 10
2211.5592567708964
 20
1884.5113225517125
 11
2209.0506982987454
 21
1884.399470472888
  0
LINE
  8
_0-0_
  6
CONTINUOUS
 62
    7
 10
2209.0506982987454
 20
1884.399470472888
 11
2207.6462920199951
 21
1885.5230698162063
  0
LINE
  8
_0-0_
  6
CONTINUOUS
 62
    7
 10
2207.6462920199951
 20
1885.5230698162063
 11
2206.9362852472136
 21
1888.6955564638822
  0
LINE
  8
_0-0_
  6
CONTINUOUS
 62
    7
 10
2207.0093668934001
 20
1877.9672946709002
 11
2207.3653612173662
 21
1878.7820930922815
  0
LINE
  8
_0-0_
  6
CONTINUOUS
 62
    7
 10
2207.3653612173662
 20
1878.7820930922815
 11
2208.7697674961164
 21
1879.6246377657737
  0
LINE
  8
_0-0_
  6
CONTINUOUS
 62
    7
 10
2208.7697674961164
 20
1879.6246377657737
 11
2209.8575692195227
 21
1880.1001639347739
  0
LINE
  8
_0-0_
  6
CONTINUOUS
 62
    7
 10
2201.4234517808127
 20
1865.0737104084501
 11
2201.4668052997367
 21
1866.7042981887878
  0
LINE
  8
_0-0_
  6
CONTINUOUS
 62
    7
 10
2201.4668052997367
 20
1866.7042981887878
 11
2201.7477361023657
 21
1868.3896352701665
  0
LINE
  8
_0-0_
  6
CONTINUOUS
 62
    7
 10
2201.7477361023657
 20
1868.3896352701665
 11
2202.3271868495867
 21
1869.7267816609858
  0
LINE
  8
_0-0_
  6
CONTINUOUS
 62
    7
 10
2197.9482337038489
 20
1870.1167155969097
 11
2197.0712539496108
 21
1869.0687991109132
  0
LINE
  8
_0-0_
  6
CONTINUOUS
 62
    7
 10
2190.4119057084604
 20
1863.8485399636522
 11
2194.1640908377512
 21
1864.4573472365448
  0
LINE
  8
_0-0_
  6
CONTINUOUS
 62
    7
 10
2194.1640908377512
 20
1864.4573472365448
 11
2196.130358721759
 21
1864.4573472365448
  0
LINE
  8
_0-0_
  6
CONTINUOUS
 62
    7
 10
2196.130358721759
 20
1864.4573472365448
 11
2197.6796896209125
 21
1863.6344974473636
  0
LINE
  8
_0-0_
  6
CONTINUOUS
 62
    7
 10
2195.8888176877526
 20
1913.4043371723424
 11
2195.006635511244
 21
1915.2960370038004
  0
LINE
  8
_0-0_
  6
CONTINUOUS
 62
    7
 10
2195.006635511244
 20
1915.2960370038004
 11
2193.2658059256419
 21
1916.8194796587968
  0
LINE
  8
_0-0_
  6
CONTINUOUS
 62
    7
 10
2244.8505478199845
 20
1911.9370063575539
 11
2244.8505478199845
 21
1893.5916551567875
  0
LINE
  8
_0-0_
  6
CONTINUOUS
 62
    7
 10
2239.9679506515445
 20
1833.8196631472083
 11
2213.5195790294515
 21
1833.8196631472083
  0
LINE
  8
_0-0_
  6
CONTINUOUS
 62
    7
 10
2161.8506074411989
 20
1838.7018887140575
 11
2161.8506074411989
 21
1856.3577950967326
  0
LINE
  8
_0-0_
  6
CONTINUOUS
 62
    7
 10
2166.7327091408511
 20
1916.8194796587968
 11
2193.2658059256419
 21
1916.8194796587968
  0
LINE
  8
_0-0_
  6
CONTINUOUS
 62
    7
 10
2161.8506074411989
 20
1865.6729799071795
 11
2161.8506074411989
 21
1911.9370063575539
  0
LINE
  8
_0-0_
  6
CONTINUOUS
 62
    7
 10
2204.9336004073093
 20
1833.8196631472083
 11
2166.7327091408511
 21
1833.8196631472083
  0
LINE
  8
_0-0_
  6
CONTINUOUS
 62
    7
 10
2244.8505478199845
 20
1882.9917197798209
 11
2244.8505478199845
 21
1838.7018887140575
  0
LINE
  8
_0-0_
  6
CONTINUOUS
 62
    7
 10
2203.7501732078758
 20
1916.8194796587968
 11
2239.9679506515445
 21
1916.8194796587968
  0
LINE
  8
_0-0_
  6
CONTINUOUS
 62
    7
 10
2120.0139662105603
 20
2055.6339789725639
 11
2115.8309709703599
 21
2080.3832642544189
  0
LINE
  8
_0-0_
  6
CONTINUOUS
 62
    7
 10
2110.9250867688975
 20
2079.4059520706705
 11
2115.5170914933487
 21
2052.2369210968604
  0
LINE
  8
_0-0_
  6
CONTINUOUS
 62
    7
 10
2136.0448588367594
 20
2095.4841619660956
 11
2116.9376005076992
 21
2082.4387165202138
  0
LINE
  8
_0-0_
  6
CONTINUOUS
 62
    7
 10
2137.3474462796362
 20
2102.4279092913889
 11
2115.1581243566566
 21
2087.2779601697293
  0
LINE
  8
_0-0_
  6
CONTINUOUS
 62
    7
 10
2110.8470504348343
 20
2087.1399721123539
 11
2099.8166765485489
 21
2094.6686203415329
  0
LINE
  8
_0-0_
  6
CONTINUOUS
 62
    7
 10
2109.8021067615641
 20
2081.7995617840738
 11
2098.6889895877321
 21
2089.384693455052
  0
LINE
  8
_0-0_
  6
CONTINUOUS
 62
    7
 10
2095.349282224206
 20
2089.3648747035431
 11
2074.4639102832689
 21
2071.1972729303661
  0
LINE
  8
_0-0_
  6
CONTINUOUS
 62
    7
 10
2090.9891568924008
 20
2092.1989561692171
 11
2068.8550797392504
 21
2072.9452868133899
  0
LINE
  8
_0-0_
  6
CONTINUOUS
 62
    7
 10
2092.4834907561194
 20
2096.4835225108968
 11
2084.6028119532757
 21
2112.0134961927256
  0
LINE
  8
_0-0_
  6
CONTINUOUS
 62
    7
 10
2097.7944206915308
 20
2097.0671847428134
 11
2092.5275874782251
 21
2107.4462649076604
  0
LINE
  8
_0-0_
  6
CONTINUOUS
 62
    7
 10
2098.6889895877321
 20
2089.384693455052
 11
2097.1210786090392
 21
2089.8479567715558
  0
LINE
  8
_0-0_
  6
CONTINUOUS
 62
    7
 10
2097.1210786090392
 20
2089.8479567715558
 11
2095.349282224206
 21
2089.3648747035431
  0
LINE
  8
_0-0_
  6
CONTINUOUS
 62
    7
 10
2090.9891568924008
 20
2092.1989561692171
 11
2092.4963729445999
 21
2094.0631574829572
  0
LINE
  8
_0-0_
  6
CONTINUOUS
 62
    7
 10
2092.7609532772344
 20
2095.097200842898
 11
2092.4834907561194
 21
2096.4835225108968
  0
LINE
  8
_0-0_
  6
CONTINUOUS
 62
    7
 10
2099.8166765485489
 20
2094.6686203415329
 11
2097.7944206915308
 21
2097.0671847428134
  0
LINE
  8
_0-0_
  6
CONTINUOUS
 62
    7
 10
2092.4963729445999
 20
2094.0631574829572
 11
2092.7609532772344
 21
2095.097200842898
  0
LINE
  8
_0-0_
  6
CONTINUOUS
 62
    7
 10
2110.9250867688975
 20
2079.4059520706705
 11
2110.4063309481708
 21
2081.0276214128294
  0
LINE
  8
_0-0_
  6
CONTINUOUS
 62
    7
 10
2110.4063309481708
 20
2081.0276214128294
 11
2109.8021067615641
 21
2081.7995617840738
  0
LINE
  8
_0-0_
  6
CONTINUOUS
 62
    7
 10
2115.1581243566566
 20
2087.2779601697293
 11
2112.9109256700199
 21
2086.4720801865274
  0
LINE
  8
_0-0_
  6
CONTINUOUS
 62
    7
 10
2112.9109256700199
 20
2086.4720801865274
 11
2110.8470504348343
 21
2087.1399721123539
  0
LINE
  8
_0-0_
  6
CONTINUOUS
 62
    7
 10
2116.9376005076992
 20
2082.4387165202138
 11
2115.8309709703599
 21
2080.3832642544189
  0
LINE
  8
_0-0_
  6
CONTINUOUS
 62
    7
 10
2144.8503301318547
 20
2096.0333891172668
 11
2143.5281716718637
 21
2098.0561404430728
  0
LINE
  8
_0-0_
  6
CONTINUOUS
 62
    7
 10
2143.5281716718637
 20
2098.0561404430728
 11
2142.2258319633806
 21
2098.3816634365949
  0
LINE
  8
_0-0_
  6
CONTINUOUS
 62
    7
 10
2142.2258319633806
 20
2098.3816634365949
 11
2136.0448588367594
 21
2095.4841619660956
  0
LINE
  8
_0-0_
  6
CONTINUOUS
 62
    7
 10
2144.8503301318547
 20
2111.7888010975016
 11
2144.1792176589079
 21
2109.7744727410864
  0
LINE
  8
_0-0_
  6
CONTINUOUS
 62
    7
 10
2144.1792176589079
 20
2109.7744727410864
 11
2142.2258319633806
 21
2106.5194905402577
  0
LINE
  8
_0-0_
  6
CONTINUOUS
 62
    7
 10
2142.2258319633806
 20
2106.5194905402577
 11
2137.3474462796362
 21
2102.4279092913889
  0
LINE
  8
_0-0_
  6
CONTINUOUS
 62
    7
 10
2126.9267467366221
 20
2036.8593040672508
 11
2124.6480857819661
 21
2038.8125658955812
  0
LINE
  8
_0-0_
  6
CONTINUOUS
 62
    7
 10
2124.6480857819661
 20
2038.8125658955812
 11
2123.3462415422714
 21
2041.4166259765625
  0
LINE
  8
_0-0_
  6
CONTINUOUS
 62
    7
 10
2123.3462415422714
 20
2041.4166259765625
 11
2120.0139662105603
 21
2055.6339789725639
  0
LINE
  8
_0-0_
  6
CONTINUOUS
 62
    7
 10
2115.5170914933487
 20
2052.2369210968604
 11
2115.8594604256532
 21
2047.2757921255693
  0
LINE
  8
_0-0_
  6
CONTINUOUS
 62
    7
 10
2115.8594604256532
 20
2047.2757921255693
 11
2116.1849834191753
 21
2041.4166259765625
  0
LINE
  8
_0-0_
  6
CONTINUOUS
 62
    7
 10
2116.1849834191753
 20
2041.4166259765625
 11
2115.8594604256532
 21
2039.1379650219069
  0
LINE
  8
_0-0_
  6
CONTINUOUS
 62
    7
 10
2115.8594604256532
 20
2039.1379650219069
 11
2114.2315977236476
 21
2037.18495092797
  0
LINE
  8
_0-0_
  6
CONTINUOUS
 62
    7
 10
2114.2315977236476
 20
2037.18495092797
 11
2113.3444608592617
 21
2036.8194188298407
  0
LINE
  8
_0-0_
  6
CONTINUOUS
 62
    7
 10
2092.5275874782251
 20
2107.4462649076604
 11
2090.143639406182
 21
2113.6809963977475
  0
LINE
  8
_0-0_
  6
CONTINUOUS
 62
    7
 10
2090.143639406182
 20
2113.6809963977475
 11
2089.1670704256153
 21
2117.2612538577046
  0
LINE
  8
_0-0_
  6
CONTINUOUS
 62
    7
 10
2089.1670704256153
 20
2117.2612538577046
 11
2089.1670704256153
 21
2119.2146395532322
  0
LINE
  8
_0-0_
  6
CONTINUOUS
 62
    7
 10
2089.1670704256153
 20
2119.2146395532322
 11
2089.8151435999334
 21
2119.8193592086263
  0
LINE
  8
_0-0_
  6
CONTINUOUS
 62
    7
 10
2084.6028119532757
 20
2112.0134961927256
 11
2082.9823812830859
 21
2114.6573176439206
  0
LINE
  8
_0-0_
  6
CONTINUOUS
 62
    7
 10
2082.9823812830859
 20
2114.6573176439206
 11
2080.0526743413857
 21
2119.2146395532322
  0
LINE
  8
_0-0_
  6
CONTINUOUS
 62
    7
 10
2080.0526743413857
 20
2119.2146395532322
 11
2079.1021174721736
 21
2119.8193592086263
  0
LINE
  8
_0-0_
  6
CONTINUOUS
 62
    7
 10
2074.4639102832689
 20
2071.1972729303661
 11
2064.7534652474305
 21
2060.9475101191101
  0
LINE
  8
_0-0_
  6
CONTINUOUS
 62
    7
 10
2064.7534652474305
 20
2060.9475101191101
 11
2061.8503897530691
 21
2054.778304376197
  0
LINE
  8
_0-0_
  6
CONTINUOUS
 62
    7
 10
2068.8550797392504
 20
2072.9452868133899
 11
2065.0789882409526
 21
2071.363998177429
  0
LINE
  8
_0-0_
  6
CONTINUOUS
 62
    7
 10
2065.0789882409526
 20
2071.363998177429
 11
2063.1259741470158
 21
2071.6892734365574
  0
LINE
  8
_0-0_
  6
CONTINUOUS
 62
    7
 10
2063.1259741470158
 20
2071.6892734365574
 11
2061.8503897530691
 21
2072.4396609155369
  0
LINE
  8
_0-0_
  6
CONTINUOUS
 62
    7
 10
2066.7327391871154
 20
2119.8193592086263
 11
2079.1021174721736
 21
2119.8193592086263
  0
LINE
  8
_0-0_
  6
CONTINUOUS
 62
    7
 10
2144.8503301318547
 20
2114.9372575089737
 11
2144.8503301318547
 21
2111.7888010975016
  0
LINE
  8
_0-0_
  6
CONTINUOUS
 62
    7
 10
2139.9682284322025
 20
2036.8194188298407
 11
2126.9267467366221
 21
2036.8194188298407
  0
LINE
  8
_0-0_
  6
CONTINUOUS
 62
    7
 10
2061.8503897530691
 20
2041.7018921310837
 11
2061.8503897530691
 21
2054.778304376197
  0
LINE
  8
_0-0_
  6
CONTINUOUS
 62
    7
 10
2113.3444608592617
 20
2036.8194188298407
 11
2066.7327391871154
 21
2036.8194188298407
  0
LINE
  8
_0-0_
  6
CONTINUOUS
 62
    7
 10
2144.8503301318547
 20
2096.0333891172668
 11
2144.8503301318547
 21
2041.7018921310837
  0
LINE
  8
_0-0_
  6
CONTINUOUS
 62
    7
 10
2089.8151435999334
 20
2119.8193592086263
 11
2139.9682284322025
 21
2119.8193592086263
  0
LINE
  8
_0-0_
  6
CONTINUOUS
 62
    7
 10
2061.8503897530691
 20
2072.4396609155369
 11
2061.8503897530691
 21
2114.9372575089737
  0
LINE
  8
_0-0_
  6
CONTINUOUS
 62
    7
 10
2180.6650437167254
 20
1958.6561208894354
 11
2205.4142051313834
 21
1962.8391161296358
  0
LINE
  8
_0-0_
  6
CONTINUOUS
 62
    7
 10
2204.4371406820292
 20
1967.7448764639009
 11
2177.2681097082191
 21
1963.1528717394499
  0
LINE
  8
_0-0_
  6
CONTINUOUS
 62
    7
 10
2220.51510284306
 20
1942.6249805288423
 11
2207.4694096627845
 21
1961.7323627250994
  0
LINE
  8
_0-0_
  6
CONTINUOUS
 62
    7
 10
2227.4586024339596
 20
1941.3225169531624
 11
2212.3086533123001
 21
1963.5119627433394
  0
LINE
  8
_0-0_
  6
CONTINUOUS
 62
    7
 10
2212.1709129893184
 20
1967.8227889307677
 11
2219.6995612184974
 21
1978.8531628170529
  0
LINE
  8
_0-0_
  6
CONTINUOUS
 62
    7
 10
2206.8305026610387
 20
1968.8677326040377
 11
2214.4156343320165
 21
1979.9809736450666
  0
LINE
  8
_0-0_
  6
CONTINUOUS
 62
    7
 10
2214.3955678461139
 20
1983.3206810085928
 11
2196.2279660729369
 21
2004.20605294953
  0
LINE
  8
_0-0_
  6
CONTINUOUS
 62
    7
 10
2217.2298970461811
 20
1987.6808063403978
 11
2197.9762276903543
 21
2009.8148834935487
  0
LINE
  8
_0-0_
  6
CONTINUOUS
 62
    7
 10
2221.514711122255
 20
1986.1863486094826
 11
2237.0441893352963
 21
1994.0670274123261
  0
LINE
  8
_0-0_
  6
CONTINUOUS
 62
    7
 10
2222.0981256197779
 20
1980.8755425412683
 11
2232.4769580502307
 21
1986.1424996217704
  0
LINE
  8
_0-0_
  6
CONTINUOUS
 62
    7
 10
2214.4156343320165
 20
1979.9809736450666
 11
2214.8788976485203
 21
1981.5487607565626
  0
LINE
  8
_0-0_
  6
CONTINUOUS
 62
    7
 10
2214.8788976485203
 20
1981.5487607565626
 11
2214.3955678461139
 21
1983.3206810085928
  0
LINE
  8
_0-0_
  6
CONTINUOUS
 62
    7
 10
2217.2298970461811
 20
1987.6808063403978
 11
2219.0940983599216
 21
1986.1737141553958
  0
LINE
  8
_0-0_
  6
CONTINUOUS
 62
    7
 10
2220.1281417198625
 20
1985.9091338227613
 11
2221.514711122255
 21
1986.1863486094826
  0
LINE
  8
_0-0_
  6
CONTINUOUS
 62
    7
 10
2219.6995612184974
 20
1978.8531628170529
 11
2222.0981256197779
 21
1980.8755425412683
  0
LINE
  8
_0-0_
  6
CONTINUOUS
 62
    7
 10
2219.0940983599216
 20
1986.1737141553958
 11
2220.1281417198625
 21
1985.9091338227613
  0
LINE
  8
_0-0_
  6
CONTINUOUS
 62
    7
 10
2204.4371406820292
 20
1967.7448764639009
 11
2206.0583145554001
 21
1968.2635084174312
  0
LINE
  8
_0-0_
  6
CONTINUOUS
 62
    7
 10
2206.0583145554001
 20
1968.2635084174312
 11
2206.8305026610387
 21
1968.8677326040377
  0
LINE
  8
_0-0_
  6
CONTINUOUS
 62
    7
 10
2212.3086533123001
 20
1963.5119627433394
 11
2211.5032687978855
 21
1965.7589136955821
  0
LINE
  8
_0-0_
  6
CONTINUOUS
 62
    7
 10
2211.5032687978855
 20
1965.7589136955821
 11
2212.1709129893184
 21
1967.8227889307677
  0
LINE
  8
_0-0_
  6
CONTINUOUS
 62
    7
 10
2207.4694096627845
 20
1961.7323627250994
 11
2205.4142051313834
 21
1962.8391161296358
  0
LINE
  8
_0-0_
  6
CONTINUOUS
 62
    7
 10
2221.064577728625
 20
1933.8193853665503
 11
2223.0868335856435
 21
1935.1419154281323
  0
LINE
  8
_0-0_
  6
CONTINUOUS
 62
    7
 10
2223.0868335856435
 20
1935.1419154281323
 11
2223.4126043135593
 21
1936.4440074022214
  0
LINE
  8
_0-0_
  6
CONTINUOUS
 62
    7
 10
2223.4126043135593
 20
1936.4440074022214
 11
2220.51510284306
 21
1942.6249805288423
  0
LINE
  8
_0-0_
  6
CONTINUOUS
 62
    7
 10
2236.8197419744661
 20
1933.8193853665503
 11
2234.8054136180508
 21
1934.4909933082845
  0
LINE
  8
_0-0_
  6
CONTINUOUS
 62
    7
 10
2234.8054136180508
 20
1934.4909933082845
 11
2231.5504314172222
 21
1936.4440074022214
  0
LINE
  8
_0-0_
  6
CONTINUOUS
 62
    7
 10
2231.5504314172222
 20
1936.4440074022214
 11
2227.4586024339596
 21
1941.3225169531624
  0
LINE
  8
_0-0_
  6
CONTINUOUS
 62
    7
 10
2161.8902449442153
 20
1951.7432164961767
 11
2163.8433829053488
 21
1954.0218774508323
  0
LINE
  8
_0-0_
  6
CONTINUOUS
 62
    7
 10
2163.8433829053488
 20
1954.0218774508323
 11
2166.447566853527
 21
1955.3238455577248
  0
LINE
  8
_0-0_
  6
CONTINUOUS
 62
    7
 10
2166.447566853527
 20
1955.3238455577248
 11
2180.6650437167254
 21
1958.6561208894354
  0
LINE
  8
_0-0_
  6
CONTINUOUS
 62
    7
 10
2177.2681097082191
 20
1963.1528717394499
 11
2172.3067330025337
 21
1962.8106266743428
  0
LINE
  8
_0-0_
  6
CONTINUOUS
 62
    7
 10
2172.3067330025337
 20
1962.8106266743428
 11
2166.447566853527
 21
1962.4849798136236
  0
LINE
  8
_0-0_
  6
CONTINUOUS
 62
    7
 10
2166.447566853527
 20
1962.4849798136236
 11
2164.1689058988713
 21
1962.8106266743428
  0
LINE
  8
_0-0_
  6
CONTINUOUS
 62
    7
 10
2164.1689058988713
 20
1962.8106266743428
 11
2162.2157679377374
 21
1964.438365509151
  0
LINE
  8
_0-0_
  6
CONTINUOUS
 62
    7
 10
2162.2157679377374
 20
1964.438365509151
 11
2161.8506074411989
 21
1965.325626240734
  0
LINE
  8
_0-0_
  6
CONTINUOUS
 62
    7
 10
2232.4769580502307
 20
1986.1424996217704
 11
2238.7116895403183
 21
1988.5263238266168
  0
LINE
  8
_0-0_
  6
CONTINUOUS
 62
    7
 10
2238.7116895403183
 20
1988.5263238266168
 11
2242.2924424690627
 21
1989.5027689399865
  0
LINE
  8
_0-0_
  6
CONTINUOUS
 62
    7
 10
2242.2924424690627
 20
1989.5027689399865
 11
2244.2455804301967
 21
1989.5027689399865
  0
LINE
  8
_0-0_
  6
CONTINUOUS
 62
    7
 10
2244.2455804301967
 20
1989.5027689399865
 11
2244.8505478199845
 21
1988.8546957656683
  0
LINE
  8
_0-0_
  6
CONTINUOUS
 62
    7
 10
2237.0441893352963
 20
1994.0670274123261
 11
2239.688258520885
 21
1995.6877058169096
  0
LINE
  8
_0-0_
  6
CONTINUOUS
 62
    7
 10
2239.688258520885
 20
1995.6877058169096
 11
2244.2455804301967
 21
1998.6171650242161
  0
LINE
  8
_0-0_
  6
CONTINUOUS
 62
    7
 10
2244.2455804301967
 20
1998.6171650242161
 11
2244.8505478199845
 21
1999.5678457606252
  0
LINE
  8
_0-0_
  6
CONTINUOUS
 62
    7
 10
2196.2279660729369
 20
2004.20605294953
 11
2185.978450996075
 21
2013.9163741181715
  0
LINE
  8
_0-0_
  6
CONTINUOUS
 62
    7
 10
2185.978450996075
 20
2013.9163741181715
 11
2179.8093691203585
 21
2016.8195734797296
  0
LINE
  8
_0-0_
  6
CONTINUOUS
 62
    7
 10
2197.9762276903543
 20
2009.8148834935487
 11
2196.3949390543935
 21
2013.5909749918462
  0
LINE
  8
_0-0_
  6
CONTINUOUS
 62
    7
 10
2196.3949390543935
 20
2013.5909749918462
 11
2196.7202143135219
 21
2015.5441129529797
  0
LINE
  8
_0-0_
  6
CONTINUOUS
 62
    7
 10
2196.7202143135219
 20
2015.5441129529797
 11
2197.4706017925014
 21
2016.8195734797296
  0
LINE
  8
_0-0_
  6
CONTINUOUS
 62
    7
 10
2244.8505478199845
 20
2011.9371001784864
 11
2244.8505478199845
 21
1999.5678457606252
  0
LINE
  8
_0-0_
  6
CONTINUOUS
 62
    7
 10
2239.9679506515445
 20
1933.8193853665503
 11
2236.8197419744661
 21
1933.8193853665503
  0
LINE
  8
_0-0_
  6
CONTINUOUS
 62
    7
 10
2161.8506074411989
 20
1938.7018586677934
 11
2161.8506074411989
 21
1951.7432164961767
  0
LINE
  8
_0-0_
  6
CONTINUOUS
 62
    7
 10
2166.7327091408511
 20
2016.8195734797296
 11
2179.8093691203585
 21
2016.8195734797296
  0
LINE
  8
_0-0_
  6
CONTINUOUS
 62
    7
 10
2161.8506074411989
 20
1965.325626240734
 11
2161.8506074411989
 21
2011.9371001784864
  0
LINE
  8
_0-0_
  6
CONTINUOUS
 62
    7
 10
2221.064577728625
 20
1933.8193853665503
 11
2166.7327091408511
 21
1933.8193853665503
  0
LINE
  8
_0-0_
  6
CONTINUOUS
 62
    7
 10
2244.8505478199845
 20
1988.8546957656683
 11
2244.8505478199845
 21
1938.7018586677934
  0
LINE
  8
_0-0_
  6
CONTINUOUS
 62
    7
 10
2197.4706017925014
 20
2016.8195734797296
 11
2239.9679506515445
 21
2016.8195734797296
  0
LINE
  8
_0-0_
  6
CONTINUOUS
 62
    7
 10
2286.686941316229
 20
1898.0049195160736
 11
2290.8699365564294
 21
1873.2557581014155
  0
LINE
  8
_0-0_
  6
CONTINUOUS
 62
    7
 10
2295.7755730234981
 20
1874.2329464179668
 11
2291.1838160334405
 21
1901.4021012589737
  0
LINE
  8
_0-0_
  6
CONTINUOUS
 62
    7
 10
2270.6560486900303
 20
1858.154736522542
 11
2289.76330701909
 21
1871.2005535700146
  0
LINE
  8
_0-0_
  6
CONTINUOUS
 62
    7
 10
2269.3534612471531
 20
1851.2111130644457
 11
2291.5427831701331
 21
1866.3610621861048
  0
LINE
  8
_0-0_
  6
CONTINUOUS
 62
    7
 10
2295.8538570919554
 20
1866.4989263762836
 11
2306.8842309782403
 21
1858.9702781471046
  0
LINE
  8
_0-0_
  6
CONTINUOUS
 62
    7
 10
2296.8988007652256
 20
1871.8394605717604
 11
2308.0119179390572
 21
1864.2542050335855
  0
LINE
  8
_0-0_
  6
CONTINUOUS
 62
    7
 10
2311.3513775681899
 20
1864.2741476522908
 11
2332.2371211107175
 21
1882.4417494254683
  0
LINE
  8
_0-0_
  6
CONTINUOUS
 62
    7
 10
2315.7117506343884
 20
1861.4400661866175
 11
2337.8458277875393
 21
1880.6936116752477
  0
LINE
  8
_0-0_
  6
CONTINUOUS
 62
    7
 10
2314.2171690362761
 20
1857.1553759777407
 11
2322.0980955735135
 21
1841.6257738975023
  0
LINE
  8
_0-0_
  6
CONTINUOUS
 62
    7
 10
2308.9064868352589
 20
1856.571837613021
 11
2314.1735677829583
 21
1846.1927574481742
  0
LINE
  8
_0-0_
  6
CONTINUOUS
 62
    7
 10
2308.0119179390572
 20
1864.2542050335855
 11
2309.5798289177501
 21
1863.7909417170815
  0
LINE
  8
_0-0_
  6
CONTINUOUS
 62
    7
 10
2309.5798289177501
 20
1863.7909417170815
 11
2311.3513775681899
 21
1864.2741476522908
  0
LINE
  8
_0-0_
  6
CONTINUOUS
 62
    7
 10
2315.7117506343884
 20
1861.4400661866175
 11
2314.2045345821898
 21
1859.5758648728772
  0
LINE
  8
_0-0_
  6
CONTINUOUS
 62
    7
 10
2313.9399542495548
 20
1858.5416976457395
 11
2314.2171690362761
 21
1857.1553759777407
  0
LINE
  8
_0-0_
  6
CONTINUOUS
 62
    7
 10
2306.8842309782403
 20
1858.9702781471046
 11
2308.9064868352589
 21
1856.571837613021
  0
LINE
  8
_0-0_
  6
CONTINUOUS
 62
    7
 10
2314.2045345821898
 20
1859.5758648728772
 11
2313.9399542495548
 21
1858.5416976457395
  0
LINE
  8
_0-0_
  6
CONTINUOUS
 62
    7
 10
2295.7755730234981
 20
1874.2329464179668
 11
2296.2945765786189
 21
1872.6114009430048
  0
LINE
  8
_0-0_
  6
CONTINUOUS
 62
    7
 10
2296.2945765786189
 20
1872.6114009430048
 11
2296.8988007652256
 21
1871.8394605717604
  0
LINE
  8
_0-0_
  6
CONTINUOUS
 62
    7
 10
2291.5427831701331
 20
1866.3610621861048
 11
2293.7899818567694
 21
1867.1668183021102
  0
LINE
  8
_0-0_
  6
CONTINUOUS
 62
    7
 10
2293.7899818567694
 20
1867.1668183021102
 11
2295.8538570919554
 21
1866.4989263762836
  0
LINE
  8
_0-0_
  6
CONTINUOUS
 62
    7
 10
2289.76330701909
 20
1871.2005535700146
 11
2290.8699365564294
 21
1873.2557581014155
  0
LINE
  8
_0-0_
  6
CONTINUOUS
 62
    7
 10
2261.8503296605409
 20
1857.6053855041737
 11
2263.1729835893198
 21
1855.5828819127619
  0
LINE
  8
_0-0_
  6
CONTINUOUS
 62
    7
 10
2263.1729835893198
 20
1855.5828819127619
 11
2264.4748278290149
 21
1855.2574827864362
  0
LINE
  8
_0-0_
  6
CONTINUOUS
 62
    7
 10
2264.4748278290149
 20
1855.2574827864362
 11
2270.6560486900303
 21
1858.154736522542
  0
LINE
  8
_0-0_
  6
CONTINUOUS
 62
    7
 10
2261.8503296605409
 20
1841.8502212583328
 11
2262.5219376022751
 21
1843.8644257475512
  0
LINE
  8
_0-0_
  6
CONTINUOUS
 62
    7
 10
2262.5219376022751
 20
1843.8644257475512
 11
2264.4748278290149
 21
1847.1194079483798
  0
LINE
  8
_0-0_
  6
CONTINUOUS
 62
    7
 10
2264.4748278290149
 20
1847.1194079483798
 11
2269.3534612471531
 21
1851.2111130644457
  0
LINE
  8
_0-0_
  6
CONTINUOUS
 62
    7
 10
2279.7741607901671
 20
1916.7797182885838
 11
2282.0525740104295
 21
1914.8265803274501
  0
LINE
  8
_0-0_
  6
CONTINUOUS
 62
    7
 10
2282.0525740104295
 20
1914.8265803274501
 11
2283.354913718912
 21
1912.2223963792721
  0
LINE
  8
_0-0_
  6
CONTINUOUS
 62
    7
 10
2283.354913718912
 20
1912.2223963792721
 11
2286.686941316229
 21
1898.0049195160736
  0
LINE
  8
_0-0_
  6
CONTINUOUS
 62
    7
 10
2291.1838160334405
 20
1901.4021012589737
 11
2290.8416948355302
 21
1906.3632302302651
  0
LINE
  8
_0-0_
  6
CONTINUOUS
 62
    7
 10
2290.8416948355302
 20
1906.3632302302651
 11
2290.515924107614
 21
1912.2223963792721
  0
LINE
  8
_0-0_
  6
CONTINUOUS
 62
    7
 10
2290.515924107614
 20
1912.2223963792721
 11
2290.8416948355302
 21
1914.5010573339277
  0
LINE
  8
_0-0_
  6
CONTINUOUS
 62
    7
 10
2290.8416948355302
 20
1914.5010573339277
 11
2292.4690620687479
 21
1916.4540714278644
  0
LINE
  8
_0-0_
  6
CONTINUOUS
 62
    7
 10
2292.4690620687479
 20
1916.4540714278644
 11
2293.3566944019212
 21
1916.8194796587968
  0
LINE
  8
_0-0_
  6
CONTINUOUS
 62
    7
 10
2314.1735677829583
 20
1846.1927574481742
 11
2316.5572681206072
 21
1839.9583975596779
  0
LINE
  8
_0-0_
  6
CONTINUOUS
 62
    7
 10
2316.5572681206072
 20
1839.9583975596779
 11
2317.533837101174
 21
1836.3776446309328
  0
LINE
  8
_0-0_
  6
CONTINUOUS
 62
    7
 10
2317.533837101174
 20
1836.3776446309328
 11
2317.533837101174
 21
1834.4246305369961
  0
LINE
  8
_0-0_
  6
CONTINUOUS
 62
    7
 10
2317.533837101174
 20
1834.4246305369961
 11
2316.8857639268558
 21
1833.8196631472083
  0
LINE
  8
_0-0_
  6
CONTINUOUS
 62
    7
 10
2322.0980955735135
 20
1841.6257738975023
 11
2323.7185262437033
 21
1838.9817047119141
  0
LINE
  8
_0-0_
  6
CONTINUOUS
 62
    7
 10
2323.7185262437033
 20
1838.9817047119141
 11
2326.6482331854036
 21
1834.4246305369961
  0
LINE
  8
_0-0_
  6
CONTINUOUS
 62
    7
 10
2326.6482331854036
 20
1834.4246305369961
 11
2327.5987900546161
 21
1833.8196631472083
  0
LINE
  8
_0-0_
  6
CONTINUOUS
 62
    7
 10
2332.2371211107175
 20
1882.4417494254683
 11
2341.9473184121621
 21
1892.6916361039209
  0
LINE
  8
_0-0_
  6
CONTINUOUS
 62
    7
 10
2341.9473184121621
 20
1892.6916361039209
 11
2344.8502700393265
 21
1898.8605941124406
  0
LINE
  8
_0-0_
  6
CONTINUOUS
 62
    7
 10
2337.8458277875393
 20
1880.6936116752477
 11
2341.6220431530337
 21
1882.2751480456022
  0
LINE
  8
_0-0_
  6
CONTINUOUS
 62
    7
 10
2341.6220431530337
 20
1882.2751480456022
 11
2343.5749333797735
 21
1881.9495011848833
  0
LINE
  8
_0-0_
  6
CONTINUOUS
 62
    7
 10
2343.5749333797735
 20
1881.9495011848833
 11
2344.8502700393265
 21
1881.1993614402977
  0
LINE
  8
_0-0_
  6
CONTINUOUS
 62
    7
 10
2339.9681683396743
 20
1833.8196631472083
 11
2327.5987900546161
 21
1833.8196631472083
  0
LINE
  8
_0-0_
  6
CONTINUOUS
 62
    7
 10
2261.8503296605409
 20
1838.7018887140575
 11
2261.8503296605409
 21
1841.8502212583328
  0
LINE
  8
_0-0_
  6
CONTINUOUS
 62
    7
 10
2266.7329268289809
 20
1916.8194796587968
 11
2279.7741607901671
 21
1916.8194796587968
  0
LINE
  8
_0-0_
  6
CONTINUOUS
 62
    7
 10
2344.8502700393265
 20
1911.9370063575539
 11
2344.8502700393265
 21
1898.8605941124406
  0
LINE
  8
_0-0_
  6
CONTINUOUS
 62
    7
 10
2293.3566944019212
 20
1916.8194796587968
 11
2339.9681683396743
 21
1916.8194796587968
  0
LINE
  8
_0-0_
  6
CONTINUOUS
 62
    7
 10
2261.8503296605409
 20
1857.6053855041737
 11
2261.8503296605409
 21
1911.9370063575539
  0
LINE
  8
_0-0_
  6
CONTINUOUS
 62
    7
 10
2316.8857639268558
 20
1833.8196631472083
 11
2266.7329268289809
 21
1833.8196631472083
  0
LINE
  8
_0-0_
  6
CONTINUOUS
 62
    7
 10
2344.8502700393265
 20
1881.1993614402977
 11
2344.8502700393265
 21
1838.7018887140575
  0
LINE
  8
_0-0_
  6
CONTINUOUS
 62
    7
 10
2181.513781750064
 20
2113.8209663302741
 11
2178.640558250162
 21
2116.31119245728
  0
LINE
  8
_0-0_
  6
CONTINUOUS
 62
    7
 10
2178.640558250162
 20
2116.31119245728
 11
2174.1944690836904
 21
2118.7052976394712
  0
LINE
  8
_0-0_
  6
CONTINUOUS
 62
    7
 10
2174.1944690836904
 20
2118.7052976394712
 11
2170.6920002234028
 21
2119.8193592086263
  0
LINE
  8
_0-0_
  6
CONTINUOUS
 62
    7
 10
2188.1302719410783
 20
2113.5236850576512
 11
2187.2902046115241
 21
2115.5645209942086
  0
LINE
  8
_0-0_
  6
CONTINUOUS
 62
    7
 10
2187.2902046115241
 20
2115.5645209942086
 11
2186.6062099500973
 21
2117.6165049784895
  0
LINE
  8
_0-0_
  6
CONTINUOUS
 62
    7
 10
2186.6062099500973
 20
2117.6165049784895
 11
2186.6062099500973
 21
2118.984246566949
  0
LINE
  8
_0-0_
  6
CONTINUOUS
 62
    7
 10
2236.6066903957526
 20
2098.684394865883
 11
2240.7307248502166
 21
2101.0039319955245
  0
LINE
  8
_0-0_
  6
CONTINUOUS
 62
    7
 10
2240.7307248502166
 20
2101.0039319955245
 11
2242.4405876365868
 21
2102.3719213183781
  0
LINE
  8
_0-0_
  6
CONTINUOUS
 62
    7
 10
2242.4405876365868
 20
2102.3719213183781
 11
2244.8505478199845
 21
2107.9947488556495
  0
LINE
  8
_0-0_
  6
CONTINUOUS
 62
    7
 10
2234.3817878045629
 20
2092.2093610137586
 11
2237.377392095028
 21
2093.2510841399085
  0
LINE
  8
_0-0_
  6
CONTINUOUS
 62
    7
 10
2237.377392095028
 20
2093.2510841399085
 11
2241.8232335271064
 21
2094.6190734627626
  0
LINE
  8
_0-0_
  6
CONTINUOUS
 62
    7
 10
2241.8232335271064
 20
2094.6190734627626
 11
2244.5592121728137
 21
2094.277199999246
  0
LINE
  8
_0-0_
  6
CONTINUOUS
 62
    7
 10
2244.5592121728137
 20
2094.277199999246
 11
2244.8505478199845
 21
2094.0735623274991
  0
LINE
  8
_0-0_
  6
CONTINUOUS
 62
    7
 10
2221.2253573502353
 20
2045.7217542729322
 11
2224.9331980230263
 21
2041.6608920889009
  0
LINE
  8
_0-0_
  6
CONTINUOUS
 62
    7
 10
2224.9331980230263
 20
2041.6608920889009
 11
2229.0371659915882
 21
2039.2669107739071
  0
LINE
  8
_0-0_
  6
CONTINUOUS
 62
    7
 10
2229.0371659915882
 20
2039.2669107739071
 11
2233.4830074236661
 21
2037.5568002531427
  0
LINE
  8
_0-0_
  6
CONTINUOUS
 62
    7
 10
2235.7619161127154
 20
2036.8194188298407
 11
2233.4830074236661
 21
2037.5568002531427
  0
LINE
  8
_0-0_
  6
CONTINUOUS
 62
    7
 10
2218.6325691841744
 20
2036.8194188298407
 11
2218.6325691841744
 21
2039.0491522417105
  0
LINE
  8
_0-0_
  6
CONTINUOUS
 62
    7
 10
2218.6325691841744
 20
2039.0491522417105
 11
2217.5115710519917
 21
2042.2870407693633
  0
LINE
  8
_0-0_
  6
CONTINUOUS
 62
    7
 10
2161.8506074411989
 20
2048.664343403113
 11
2163.7643556337098
 21
2050.4721851422519
  0
LINE
  8
_0-0_
  6
CONTINUOUS
 62
    7
 10
2163.7643556337098
 20
2050.4721851422519
 11
2168.5525659980922
 21
2052.5241691265328
  0
LINE
  8
_0-0_
  6
CONTINUOUS
 62
    7
 10
2168.5525659980922
 20
2052.5241691265328
 11
2172.1771679145486
 21
2054.0071072081341
  0
LINE
  8
_0-0_
  6
CONTINUOUS
 62
    7
 10
2161.8506074411989
 20
2061.1221628667763
 11
2162.8358471255506
 21
2060.3338720255379
  0
LINE
  8
_0-0_
  6
CONTINUOUS
 62
    7
 10
2162.8358471255506
 20
2060.3338720255379
 11
2165.2297045733476
 21
2058.9657588354867
  0
LINE
  8
_0-0_
  6
CONTINUOUS
 62
    7
 10
2165.2297045733476
 20
2058.9657588354867
 11
2168.3078044169661
 21
2058.9657588354867
  0
LINE
  8
_0-0_
  6
CONTINUOUS
 62
    7
 10
2168.3078044169661
 20
2058.9657588354867
 11
2178.3611138538963
 21
2060.7252923678247
  0
LINE
  8
_0-0_
  6
CONTINUOUS
 62
    7
 10
2204.0301130729295
 20
2085.4234204973495
 11
2181.513781750064
 21
2113.8209663302741
  0
LINE
  8
_0-0_
  6
CONTINUOUS
 62
    7
 10
2207.7634703882873
 20
2088.7626323920877
 11
2188.1302719410783
 21
2113.5236850576512
  0
LINE
  8
_0-0_
  6
CONTINUOUS
 62
    7
 10
2212.5568831749406
 20
2087.9133988899612
 11
2236.6066903957526
 21
2098.684394865883
  0
LINE
  8
_0-0_
  6
CONTINUOUS
 62
    7
 10
2213.3122253417969
 20
2082.7731579519145
 11
2234.3817878045629
 21
2092.2093610137586
  0
LINE
  8
_0-0_
  6
CONTINUOUS
 62
    7
 10
2208.2636461294755
 20
2067.4837343665163
 11
2210.4394973106828
 21
2078.9070150014513
  0
LINE
  8
_0-0_
  6
CONTINUOUS
 62
    7
 10
2203.516807408867
 20
2069.2845156754306
 11
2205.7677221114109
 21
2081.1019417309853
  0
LINE
  8
_0-0_
  6
CONTINUOUS
 62
    7
 10
2178.3611138538963
 20
2060.7252923678247
 11
2201.0325269073132
 21
2066.449195537788
  0
LINE
  8
_0-0_
  6
CONTINUOUS
 62
    7
 10
2172.1771679145486
 20
2054.0071072081341
 11
2203.230674183967
 21
2061.8471575703861
  0
LINE
  8
_0-0_
  6
CONTINUOUS
 62
    7
 10
2205.0267485393979
 20
2060.7696368243242
 11
2217.5115710519917
 21
2042.2870407693633
  0
LINE
  8
_0-0_
  6
CONTINUOUS
 62
    7
 10
2208.5780210752746
 20
2064.444528822733
 11
2221.2253573502353
 21
2045.7217542729322
  0
LINE
  8
_0-0_
  6
CONTINUOUS
 62
    7
 10
2202.2697124702127
 20
2067.0680360536317
 11
2203.516807408867
 21
2069.2845156754306
  0
LINE
  8
_0-0_
  6
CONTINUOUS
 62
    7
 10
2201.0325269073132
 20
2066.449195537788
 11
2202.2697124702127
 21
2067.0680360536317
  0
LINE
  8
_0-0_
  6
CONTINUOUS
 62
    7
 10
2205.0267485393979
 20
2060.7696368243242
 11
2203.230674183967
 21
2061.8471575703861
  0
LINE
  8
_0-0_
  6
CONTINUOUS
 62
    7
 10
2208.5780210752746
 20
2064.444528822733
 11
2208.2636461294755
 21
2067.4837343665163
  0
LINE
  8
_0-0_
  6
CONTINUOUS
 62
    7
 10
2205.5673049867842
 20
2082.6054417672767
 11
2204.0301130729295
 21
2085.4234204973495
  0
LINE
  8
_0-0_
  6
CONTINUOUS
 62
    7
 10
2205.7677221114109
 20
2081.1019417309853
 11
2205.5673049867842
 21
2082.6054417672767
  0
LINE
  8
_0-0_
  6
CONTINUOUS
 62
    7
 10
2210.4394973106828
 20
2078.9070150014513
 11
2211.2594981543343
 21
2081.0935187615942
  0
LINE
  8
_0-0_
  6
CONTINUOUS
 62
    7
 10
2211.2594981543343
 20
2081.0935187615942
 11
2213.3122253417969
 21
2082.7731579519145
  0
LINE
  8
_0-0_
  6
CONTINUOUS
 62
    7
 10
2210.1813580722883
 20
2087.3854768966617
 11
2212.5568831749406
 21
2087.9133988899612
  0
LINE
  8
_0-0_
  6
CONTINUOUS
 62
    7
 10
2209.3544206656084
 20
2087.6612052770197
 11
2210.1813580722883
 21
2087.3854768966617
  0
LINE
  8
_0-0_
  6
CONTINUOUS
 62
    7
 10
2207.7634703882873
 20
2088.7626323920877
 11
2209.3544206656084
 21
2087.6612052770197
  0
LINE
  8
_0-0_
  6
CONTINUOUS
 62
    7
 10
2186.6062099500973
 20
2118.984246566949
 11
2187.258494609111
 21
2119.8193592086263
  0
LINE
  8
_0-0_
  6
CONTINUOUS
 62
    7
 10
2244.8505478199845
 20
2041.7018921310837
 11
2244.8505478199845
 21
2094.0735623274991
  0
LINE
  8
_0-0_
  6
CONTINUOUS
 62
    7
 10
2239.9679506515445
 20
2119.8193592086263
 11
2187.258494609111
 21
2119.8193592086263
  0
LINE
  8
_0-0_
  6
CONTINUOUS
 62
    7
 10
2161.8506074411989
 20
2114.9372575089737
 11
2161.8506074411989
 21
2061.1221628667763
  0
LINE
  8
_0-0_
  6
CONTINUOUS
 62
    7
 10
2166.7327091408511
 20
2036.8194188298407
 11
2218.6325691841744
 21
2036.8194188298407
  0
LINE
  8
_0-0_
  6
CONTINUOUS
 62
    7
 10
2161.8506074411989
 20
2048.664343403113
 11
2161.8506074411989
 21
2041.7018921310837
  0
LINE
  8
_0-0_
  6
CONTINUOUS
 62
    7
 10
2235.7619161127154
 20
2036.8194188298407
 11
2239.9679506515445
 21
2036.8194188298407
  0
LINE
  8
_0-0_
  6
CONTINUOUS
 62
    7
 10
2244.8505478199845
 20
2107.9947488556495
 11
2244.8505478199845
 21
2114.9372575089737
  0
LINE
  8
_0-0_
  6
CONTINUOUS
 62
    7
 10
2170.6920002234028
 20
2119.8193592086263
 11
2166.7327091408511
 21
2119.8193592086263
  0
LINE
  8
_0-0_
  6
CONTINUOUS
 62
    7
 10
2338.8518771609743
 20
1997.1560275692739
 11
2341.3421032879801
 21
2000.0293749363727
  0
LINE
  8
_0-0_
  6
CONTINUOUS
 62
    7
 10
2341.3421032879801
 20
2000.0293749363727
 11
2343.7362084701717
 21
2004.4753402356473
  0
LINE
  8
_0-0_
  6
CONTINUOUS
 62
    7
 10
2343.7362084701717
 20
2004.4753402356473
 11
2344.8502700393265
 21
2007.9778090959348
  0
LINE
  8
_0-0_
  6
CONTINUOUS
 62
    7
 10
2338.5548436227455
 20
1990.5395373782596
 11
2340.5954318249087
 21
1991.3798524422075
  0
LINE
  8
_0-0_
  6
CONTINUOUS
 62
    7
 10
2340.5954318249087
 20
1991.3798524422075
 11
2342.6474158091896
 21
1992.0637232364375
  0
LINE
  8
_0-0_
  6
CONTINUOUS
 62
    7
 10
2342.6474158091896
 20
1992.0637232364375
 11
2344.0151573976491
 21
1992.0637232364375
  0
LINE
  8
_0-0_
  6
CONTINUOUS
 62
    7
 10
2323.7153056965831
 20
1942.0631189235849
 11
2326.0348428262246
 21
1937.9392083363182
  0
LINE
  8
_0-0_
  6
CONTINUOUS
 62
    7
 10
2326.0348428262246
 20
1937.9392083363182
 11
2327.4028321490782
 21
1936.2292216827509
  0
LINE
  8
_0-0_
  6
CONTINUOUS
 62
    7
 10
2327.4028321490782
 20
1936.2292216827509
 11
2333.0256596863501
 21
1933.8193853665503
  0
LINE
  8
_0-0_
  6
CONTINUOUS
 62
    7
 10
2317.2402718444587
 20
1944.2880215147748
 11
2318.281994970609
 21
1941.2925410915066
  0
LINE
  8
_0-0_
  6
CONTINUOUS
 62
    7
 10
2318.281994970609
 20
1941.2925410915066
 11
2319.6499842934627
 21
1936.8465757922318
  0
LINE
  8
_0-0_
  6
CONTINUOUS
 62
    7
 10
2319.6499842934627
 20
1936.8465757922318
 11
2319.3081108299461
 21
1934.110597146524
  0
LINE
  8
_0-0_
  6
CONTINUOUS
 62
    7
 10
2319.3081108299461
 20
1934.110597146524
 11
2319.1044731581992
 21
1933.8193853665503
  0
LINE
  8
_0-0_
  6
CONTINUOUS
 62
    7
 10
2270.7526651036324
 20
1957.4446997034963
 11
2266.6918029196013
 21
1953.7368590307051
  0
LINE
  8
_0-0_
  6
CONTINUOUS
 62
    7
 10
2266.6918029196013
 20
1953.7368590307051
 11
2264.2976977374101
 21
1949.6327671949466
  0
LINE
  8
_0-0_
  6
CONTINUOUS
 62
    7
 10
2264.2976977374101
 20
1949.6327671949466
 11
2262.5878349510399
 21
1945.186801895672
  0
LINE
  8
_0-0_
  6
CONTINUOUS
 62
    7
 10
2261.8503296605409
 20
1942.9078932066222
 11
2262.5878349510399
 21
1945.186801895672
  0
LINE
  8
_0-0_
  6
CONTINUOUS
 62
    7
 10
2261.8503296605409
 20
1960.0376117367543
 11
2264.079939205214
 21
1960.0376117367543
  0
LINE
  8
_0-0_
  6
CONTINUOUS
 62
    7
 10
2264.079939205214
 20
1960.0376117367543
 11
2267.3180754672608
 21
1961.1582382673462
  0
LINE
  8
_0-0_
  6
CONTINUOUS
 62
    7
 10
2273.6952542338131
 20
2016.8195734797296
 11
2275.5029721057554
 21
2014.9054536856279
  0
LINE
  8
_0-0_
  6
CONTINUOUS
 62
    7
 10
2275.5029721057554
 20
2014.9054536856279
 11
2277.55520382443
 21
2010.1172433212457
  0
LINE
  8
_0-0_
  6
CONTINUOUS
 62
    7
 10
2277.55520382443
 20
2010.1172433212457
 11
2279.0381419060313
 21
2006.4928891391828
  0
LINE
  8
_0-0_
  6
CONTINUOUS
 62
    7
 10
2286.1530736974769
 20
2016.8195734797296
 11
2285.364782856238
 21
2015.8340860609842
  0
LINE
  8
_0-0_
  6
CONTINUOUS
 62
    7
 10
2285.364782856238
 20
2015.8340860609842
 11
2283.9967935333839
 21
2013.4401047459901
  0
LINE
  8
_0-0_
  6
CONTINUOUS
 62
    7
 10
2283.9967935333839
 20
2013.4401047459901
 11
2283.9967935333839
 21
2010.3621287695687
  0
LINE
  8
_0-0_
  6
CONTINUOUS
 62
    7
 10
2283.9967935333839
 20
2010.3621287695687
 11
2285.7562031985249
 21
2000.3086954654414
  0
LINE
  8
_0-0_
  6
CONTINUOUS
 62
    7
 10
2310.4545790624434
 20
1974.6398201136053
 11
2338.8518771609743
 21
1997.1560275692739
  0
LINE
  8
_0-0_
  6
CONTINUOUS
 62
    7
 10
2313.7935432227882
 20
1970.9064627982475
 11
2338.5548436227455
 21
1990.5395373782596
  0
LINE
  8
_0-0_
  6
CONTINUOUS
 62
    7
 10
2312.9445574550555
 20
1966.1130500115942
 11
2323.7153056965831
 21
1942.0631189235849
  0
LINE
  8
_0-0_
  6
CONTINUOUS
 62
    7
 10
2307.8040687826151
 20
1965.3575839775408
 11
2317.2402718444587
 21
1944.2880215147748
  0
LINE
  8
_0-0_
  6
CONTINUOUS
 62
    7
 10
2292.5146451972164
 20
1970.406287057059
 11
2303.9379258321519
 21
1968.2303120086553
  0
LINE
  8
_0-0_
  6
CONTINUOUS
 62
    7
 10
2294.3154265061307
 20
1975.1532496448649
 11
2306.1328525616855
 21
1972.9022110751237
  0
LINE
  8
_0-0_
  6
CONTINUOUS
 62
    7
 10
2285.7562031985249
 20
2000.3086954654414
 11
2291.4801063684881
 21
1977.6375301464186
  0
LINE
  8
_0-0_
  6
CONTINUOUS
 62
    7
 10
2279.0381419060313
 20
2006.4928891391828
 11
2286.8781922682829
 21
1975.4392590025677
  0
LINE
  8
_0-0_
  6
CONTINUOUS
 62
    7
 10
2285.8005476550247
 20
1973.6430607799398
 11
2267.3180754672608
 21
1961.1582382673462
  0
LINE
  8
_0-0_
  6
CONTINUOUS
 62
    7
 10
2289.4754396534331
 20
1970.0917882440631
 11
2270.7526651036324
 21
1957.4446997034963
  0
LINE
  8
_0-0_
  6
CONTINUOUS
 62
    7
 10
2292.0989468843318
 20
1976.4000968491248
 11
2294.3154265061307
 21
1975.1532496448649
  0
LINE
  8
_0-0_
  6
CONTINUOUS
 62
    7
 10
2291.4801063684881
 20
1977.6375301464186
 11
2292.0989468843318
 21
1976.4000968491248
  0
LINE
  8
_0-0_
  6
CONTINUOUS
 62
    7
 10
2285.8005476550247
 20
1973.6430607799398
 11
2286.8781922682829
 21
1975.4392590025677
  0
LINE
  8
_0-0_
  6
CONTINUOUS
 62
    7
 10
2289.4754396534331
 20
1970.0917882440631
 11
2292.5146451972164
 21
1970.406287057059
  0
LINE
  8
_0-0_
  6
CONTINUOUS
 62
    7
 10
2307.6363525979768
 20
1973.1026281997504
 11
2310.4545790624434
 21
1974.6398201136053
  0
LINE
  8
_0-0_
  6
CONTINUOUS
 62
    7
 10
2306.1328525616855
 20
1972.9022110751237
 11
2307.6363525979768
 21
1973.1026281997504
  0
LINE
  8
_0-0_
  6
CONTINUOUS
 62
    7
 10
2303.9379258321519
 20
1968.2303120086553
 11
2306.1244295922947
 21
1967.4103111650033
  0
LINE
  8
_0-0_
  6
CONTINUOUS
 62
    7
 10
2306.1244295922947
 20
1967.4103111650033
 11
2307.8040687826151
 21
1965.3575839775408
  0
LINE
  8
_0-0_
  6
CONTINUOUS
 62
    7
 10
2312.4163877273618
 20
1968.4884512470494
 11
2312.9445574550555
 21
1966.1130500115942
  0
LINE
  8
_0-0_
  6
CONTINUOUS
 62
    7
 10
2312.6921161077198
 20
1969.3153886537293
 11
2312.4163877273618
 21
1968.4884512470494
  0
LINE
  8
_0-0_
  6
CONTINUOUS
 62
    7
 10
2313.7935432227882
 20
1970.9064627982475
 11
2312.6921161077198
 21
1969.3153886537293
  0
LINE
  8
_0-0_
  6
CONTINUOUS
 62
    7
 10
2344.0151573976491
 20
1992.0637232364375
 11
2344.8502700393265
 21
1991.4114385774237
  0
LINE
  8
_0-0_
  6
CONTINUOUS
 62
    7
 10
2266.7329268289809
 20
1933.8193853665503
 11
2319.1044731581992
 21
1933.8193853665503
  0
LINE
  8
_0-0_
  6
CONTINUOUS
 62
    7
 10
2344.8502700393265
 20
1938.7018586677934
 11
2344.8502700393265
 21
1991.4114385774237
  0
LINE
  8
_0-0_
  6
CONTINUOUS
 62
    7
 10
2339.9681683396743
 20
2016.8195734797296
 11
2286.1530736974769
 21
2016.8195734797296
  0
LINE
  8
_0-0_
  6
CONTINUOUS
 62
    7
 10
2261.8503296605409
 20
2011.9371001784864
 11
2261.8503296605409
 21
1960.0376117367543
  0
LINE
  8
_0-0_
  6
CONTINUOUS
 62
    7
 10
2273.6952542338131
 20
2016.8195734797296
 11
2266.7329268289809
 21
2016.8195734797296
  0
LINE
  8
_0-0_
  6
CONTINUOUS
 62
    7
 10
2261.8503296605409
 20
1942.9078932066222
 11
2261.8503296605409
 21
1938.7018586677934
  0
LINE
  8
_0-0_
  6
CONTINUOUS
 62
    7
 10
2333.0256596863501
 20
1933.8193853665503
 11
2339.9681683396743
 21
1933.8193853665503
  0
LINE
  8
_0-0_
  6
CONTINUOUS
 62
    7
 10
2344.8502700393265
 20
2007.9778090959348
 11
2344.8502700393265
 21
2011.9371001784864
  0
LINE
  8
_0-0_
  6
CONTINUOUS
 62
    7
 10
2425.187065684197
 20
1839.8180560255603
 11
2428.060289184099
 21
1837.3280776329484
  0
LINE
  8
_0-0_
  6
CONTINUOUS
 62
    7
 10
2428.060289184099
 20
1837.3280776329484
 11
2432.5063783505711
 21
1834.9338485835601
  0
LINE
  8
_0-0_
  6
CONTINUOUS
 62
    7
 10
2432.5063783505711
 20
1834.9338485835601
 11
2436.0085994764645
 21
1833.8196631472083
  0
LINE
  8
_0-0_
  6
CONTINUOUS
 62
    7
 10
2418.5703277587891
 20
1840.1155850325772
 11
2419.4106428227369
 21
1838.0746252288227
  0
LINE
  8
_0-0_
  6
CONTINUOUS
 62
    7
 10
2419.4106428227369
 20
1838.0746252288227
 11
2420.0946374841637
 21
1836.0226412445422
  0
LINE
  8
_0-0_
  6
CONTINUOUS
 62
    7
 10
2420.0946374841637
 20
1836.0226412445422
 11
2420.0946374841637
 21
1834.6547757888854
  0
LINE
  8
_0-0_
  6
CONTINUOUS
 62
    7
 10
2370.094157038508
 20
1854.9546274899515
 11
2365.9703703184387
 21
1852.63509036031
  0
LINE
  8
_0-0_
  6
CONTINUOUS
 62
    7
 10
2365.9703703184387
 20
1852.63509036031
 11
2364.2602597976743
 21
1851.2669771702595
  0
LINE
  8
_0-0_
  6
CONTINUOUS
 62
    7
 10
2364.2602597976743
 20
1851.2669771702595
 11
2361.8505473486703
 21
1845.6441496329878
  0
LINE
  8
_0-0_
  6
CONTINUOUS
 62
    7
 10
2372.318811895304
 20
1861.4296613420761
 11
2369.3237030736268
 21
1860.3879382159257
  0
LINE
  8
_0-0_
  6
CONTINUOUS
 62
    7
 10
2369.3237030736268
 20
1860.3879382159257
 11
2364.8776139071551
 21
1859.0198250258752
  0
LINE
  8
_0-0_
  6
CONTINUOUS
 62
    7
 10
2364.8776139071551
 20
1859.0198250258752
 11
2362.1413875270532
 21
1859.3618223565886
  0
LINE
  8
_0-0_
  6
CONTINUOUS
 62
    7
 10
2362.1413875270532
 20
1859.3618223565886
 11
2361.8505473486703
 21
1859.5657077627291
  0
LINE
  8
_0-0_
  6
CONTINUOUS
 62
    7
 10
2385.4754900840258
 20
1907.917391950099
 11
2381.7676494112347
 21
1911.9781302669332
  0
LINE
  8
_0-0_
  6
CONTINUOUS
 62
    7
 10
2381.7676494112347
 20
1911.9781302669332
 11
2377.6636814426734
 21
1914.3721115819276
  0
LINE
  8
_0-0_
  6
CONTINUOUS
 62
    7
 10
2377.6636814426734
 20
1914.3721115819276
 11
2373.2175922762012
 21
1916.0820982354949
  0
LINE
  8
_0-0_
  6
CONTINUOUS
 62
    7
 10
2370.9389313215452
 20
1916.8194796587968
 11
2373.2175922762012
 21
1916.0820982354949
  0
LINE
  8
_0-0_
  6
CONTINUOUS
 62
    7
 10
2388.0685259844804
 20
1916.8194796587968
 11
2388.0685259844804
 21
1914.5898701141241
  0
LINE
  8
_0-0_
  6
CONTINUOUS
 62
    7
 10
2388.0685259844804
 20
1914.5898701141241
 11
2389.1892763822698
 21
1911.351857719274
  0
LINE
  8
_0-0_
  6
CONTINUOUS
 62
    7
 10
2444.8504877274563
 20
1904.9745550855246
 11
2442.9362440661575
 21
1903.1668372135825
  0
LINE
  8
_0-0_
  6
CONTINUOUS
 62
    7
 10
2442.9362440661575
 20
1903.1668372135825
 11
2438.1482814361689
 21
1901.1147293621048
  0
LINE
  8
_0-0_
  6
CONTINUOUS
 62
    7
 10
2438.1482814361689
 20
1901.1147293621048
 11
2434.523679519712
 21
1899.6321628820942
  0
LINE
  8
_0-0_
  6
CONTINUOUS
 62
    7
 10
2444.8504877274563
 20
1892.5167356218612
 11
2443.8650003087105
 21
1893.3050264630997
  0
LINE
  8
_0-0_
  6
CONTINUOUS
 62
    7
 10
2443.8650003087105
 20
1893.3050264630997
 11
2441.4711428609135
 21
1894.6731396531507
  0
LINE
  8
_0-0_
  6
CONTINUOUS
 62
    7
 10
2441.4711428609135
 20
1894.6731396531507
 11
2438.3930430172954
 21
1894.6731396531507
  0
LINE
  8
_0-0_
  6
CONTINUOUS
 62
    7
 10
2438.3930430172954
 20
1894.6731396531507
 11
2428.3397335803647
 21
1892.9136061208128
  0
LINE
  8
_0-0_
  6
CONTINUOUS
 62
    7
 10
2402.6707343613321
 20
1868.2153541240914
 11
2425.187065684197
 21
1839.8180560255603
  0
LINE
  8
_0-0_
  6
CONTINUOUS
 62
    7
 10
2398.9373770459738
 20
1864.8762660965497
 11
2418.5703277587891
 21
1840.1155850325772
  0
LINE
  8
_0-0_
  6
CONTINUOUS
 62
    7
 10
2394.1437165249267
 20
1865.7253757314791
 11
2370.094157038508
 21
1854.9546274899515
  0
LINE
  8
_0-0_
  6
CONTINUOUS
 62
    7
 10
2393.3886220924642
 20
1870.8657405367228
 11
2372.318811895304
 21
1861.4296613420761
  0
LINE
  8
_0-0_
  6
CONTINUOUS
 62
    7
 10
2398.4372013047855
 20
1886.1552879893181
 11
2396.2613501235783
 21
1874.7320073543826
  0
LINE
  8
_0-0_
  6
CONTINUOUS
 62
    7
 10
2403.1840400253946
 20
1884.3543828132069
 11
2400.9331253228502
 21
1872.5372044920462
  0
LINE
  8
_0-0_
  6
CONTINUOUS
 62
    7
 10
2428.3397335803647
 20
1892.9136061208128
 11
2405.6683205269478
 21
1887.1898268180464
  0
LINE
  8
_0-0_
  6
CONTINUOUS
 62
    7
 10
2434.523679519712
 20
1899.6321628820942
 11
2403.4704209846877
 21
1891.7917409182517
  0
LINE
  8
_0-0_
  6
CONTINUOUS
 62
    7
 10
2401.6740988948632
 20
1892.86938553151
 11
2389.1892763822698
 21
1911.351857719274
  0
LINE
  8
_0-0_
  6
CONTINUOUS
 62
    7
 10
2398.1228263589865
 20
1889.1943696659043
 11
2385.4754900840258
 21
1907.917391950099
  0
LINE
  8
_0-0_
  6
CONTINUOUS
 62
    7
 10
2404.4308872296542
 20
1886.5709863022028
 11
2403.1840400253946
 21
1884.3543828132069
  0
LINE
  8
_0-0_
  6
CONTINUOUS
 62
    7
 10
2405.6683205269478
 20
1887.1898268180464
 11
2404.4308872296542
 21
1886.5709863022028
  0
LINE
  8
_0-0_
  6
CONTINUOUS
 62
    7
 10
2401.6740988948632
 20
1892.86938553151
 11
2403.4704209846877
 21
1891.7917409182517
  0
LINE
  8
_0-0_
  6
CONTINUOUS
 62
    7
 10
2398.1228263589865
 20
1889.1943696659043
 11
2398.4372013047855
 21
1886.1552879893181
  0
LINE
  8
_0-0_
  6
CONTINUOUS
 62
    7
 10
2401.1335424474769
 20
1871.0334567213611
 11
2402.6707343613321
 21
1868.2153541240914
  0
LINE
  8
_0-0_
  6
CONTINUOUS
 62
    7
 10
2400.9331253228502
 20
1872.5372044920462
 11
2401.1335424474769
 21
1871.0334567213611
  0
LINE
  8
_0-0_
  6
CONTINUOUS
 62
    7
 10
2396.2613501235783
 20
1874.7320073543826
 11
2395.4413492799263
 21
1872.5453797270434
  0
LINE
  8
_0-0_
  6
CONTINUOUS
 62
    7
 10
2395.4413492799263
 20
1872.5453797270434
 11
2393.3886220924642
 21
1870.8657405367228
  0
LINE
  8
_0-0_
  6
CONTINUOUS
 62
    7
 10
2396.5194893619728
 20
1866.2534215919759
 11
2394.1437165249267
 21
1865.7253757314791
  0
LINE
  8
_0-0_
  6
CONTINUOUS
 62
    7
 10
2397.3464267686527
 20
1865.977817078815
 11
2396.5194893619728
 21
1866.2534215919759
  0
LINE
  8
_0-0_
  6
CONTINUOUS
 62
    7
 10
2398.9373770459738
 20
1864.8762660965497
 11
2397.3464267686527
 21
1865.977817078815
  0
LINE
  8
_0-0_
  6
CONTINUOUS
 62
    7
 10
2420.0946374841637
 20
1834.6547757888854
 11
2419.44235282515
 21
1833.8196631472083
  0
LINE
  8
_0-0_
  6
CONTINUOUS
 62
    7
 10
2361.8505473486703
 20
1911.9370063575539
 11
2361.8505473486703
 21
1859.5657077627291
  0
LINE
  8
_0-0_
  6
CONTINUOUS
 62
    7
 10
2366.7326490483229
 20
1833.8196631472083
 11
2419.44235282515
 21
1833.8196631472083
  0
LINE
  8
_0-0_
  6
CONTINUOUS
 62
    7
 10
2444.8504877274563
 20
1838.7018887140575
 11
2444.8504877274563
 21
1892.5167356218612
  0
LINE
  8
_0-0_
  6
CONTINUOUS
 62
    7
 10
2439.96813829341
 20
1916.8194796587968
 11
2388.0685259844804
 21
1916.8194796587968
  0
LINE
  8
_0-0_
  6
CONTINUOUS
 62
    7
 10
2444.8504877274563
 20
1904.9745550855246
 11
2444.8504877274563
 21
1911.9370063575539
  0
LINE
  8
_0-0_
  6
CONTINUOUS
 62
    7
 10
2370.9389313215452
 20
1916.8194796587968
 11
2366.7326490483229
 21
1916.8194796587968
  0
LINE
  8
_0-0_
  6
CONTINUOUS
 62
    7
 10
2361.8505473486703
 20
1845.6441496329878
 11
2361.8505473486703
 21
1838.7018887140575
  0
LINE
  8
_0-0_
  6
CONTINUOUS
 62
    7
 10
2436.0085994764645
 20
1833.8196631472083
 11
2439.96813829341
 21
1833.8196631472083
  0
LINE
  8
_0-0_
  6
CONTINUOUS
 62
    7
 10
2334.0163495273664
 20
2083.5401436352822
 11
2341.708997925276
 21
2086.3373126762713
  0
LINE
  8
_0-0_
  6
CONTINUOUS
 62
    7
 10
2341.708997925276
 20
2086.3373126762713
 11
2344.2537256189294
 21
2087.7508851275938
  0
LINE
  8
_0-0_
  6
CONTINUOUS
 62
    7
 10
2344.2537256189294
 20
2087.7508851275938
 11
2344.8502700393265
 21
2088.6189464436534
  0
LINE
  8
_0-0_
  6
CONTINUOUS
 62
    7
 10
2331.3685643258705
 20
2078.6711718585038
 11
2338.5989403448511
 21
2080.1171975154211
  0
LINE
  8
_0-0_
  6
CONTINUOUS
 62
    7
 10
2338.5989403448511
 20
2080.1171975154211
 11
2342.8399054332131
 21
2080.9654400799723
  0
LINE
  8
_0-0_
  6
CONTINUOUS
 62
    7
 10
2342.8399054332131
 20
2080.9654400799723
 11
2344.5363905623153
 21
2080.682527402193
  0
LINE
  8
_0-0_
  6
CONTINUOUS
 62
    7
 10
2344.5363905623153
 20
2080.682527402193
 11
2344.8502700393265
 21
2080.4080376938045
  0
LINE
  8
_0-0_
  6
CONTINUOUS
 62
    7
 10
2312.6685813403037
 20
2050.1430700000187
 11
2312.8697416681121
 21
2042.7956394799426
  0
LINE
  8
_0-0_
  6
CONTINUOUS
 62
    7
 10
2312.8697416681121
 20
2042.7956394799426
 11
2313.1526543458913
 21
2039.6854580323206
  0
LINE
  8
_0-0_
  6
CONTINUOUS
 62
    7
 10
2313.1526543458913
 20
2039.6854580323206
 11
2313.7179842326632
 21
2037.7065556942264
  0
LINE
  8
_0-0_
  6
CONTINUOUS
 62
    7
 10
2313.7179842326632
 20
2037.7065556942264
 11
2315.1117379324778
 21
2036.8194188298407
  0
LINE
  8
_0-0_
  6
CONTINUOUS
 62
    7
 10
2305.858362853297
 20
2036.8194188298407
 11
2306.9320437162542
 21
2037.4236430164469
  0
LINE
  8
_0-0_
  6
CONTINUOUS
 62
    7
 10
2306.9320437162542
 20
2037.4236430164469
 11
2308.063198958585
 21
2039.6854580323206
  0
LINE
  8
_0-0_
  6
CONTINUOUS
 62
    7
 10
2308.063198958585
 20
2039.6854580323206
 11
2308.3845104674115
 21
2042.7384128349627
  0
LINE
  8
_0-0_
  6
CONTINUOUS
 62
    7
 10
2293.4917096465711
 20
2119.8193592086263
 11
2294.4918133945539
 21
2118.5695391916402
  0
LINE
  8
_0-0_
  6
CONTINUOUS
 62
    7
 10
2294.4918133945539
 20
2118.5695391916402
 11
2294.7744783379399
 21
2116.590389119152
  0
LINE
  8
_0-0_
  6
CONTINUOUS
 62
    7
 10
2294.7744783379399
 20
2116.590389119152
 11
2295.1220496925148
 21
2111.5514715481909
  0
LINE
  8
_0-0_
  6
CONTINUOUS
 62
    7
 10
2299.0726700712817
 20
2110.7934043030018
 11
2299.8636859908529
 21
2114.0456614254986
  0
LINE
  8
_0-0_
  6
CONTINUOUS
 62
    7
 10
2299.8636859908529
 20
2114.0456614254986
 11
2300.7119285554036
 21
2117.4386316837031
  0
LINE
  8
_0-0_
  6
CONTINUOUS
 62
    7
 10
2300.7119285554036
 20
2117.4386316837031
 11
2302.4084136845063
 21
2119.7004466995768
  0
LINE
  8
_0-0_
  6
CONTINUOUS
 62
    7
 10
2261.8503296605409
 20
2056.6423818227404
 11
2262.2595868791855
 21
2057.4979325519103
  0
LINE
  8
_0-0_
  6
CONTINUOUS
 62
    7
 10
2262.2595868791855
 20
2057.4979325519103
 11
2264.2389846860674
 21
2060.6082378667293
  0
LINE
  8
_0-0_
  6
CONTINUOUS
 62
    7
 10
2264.2389846860674
 20
2060.6082378667293
 11
2268.1960461590738
 21
2064.0905163739176
  0
LINE
  8
_0-0_
  6
CONTINUOUS
 62
    7
 10
2261.8503296605409
 20
2068.1560855114321
 11
2261.9766742014058
 21
2067.9593844027131
  0
LINE
  8
_0-0_
  6
CONTINUOUS
 62
    7
 10
2261.8503296605409
 20
2067.9908466707325
 11
2263.1078294437366
 21
2067.6767194593272
  0
LINE
  8
_0-0_
  6
CONTINUOUS
 62
    7
 10
2263.1078294437366
 20
2067.6767194593272
 11
2265.0872272506185
 21
2067.6767194593272
  0
LINE
  8
_0-0_
  6
CONTINUOUS
 62
    7
 10
2265.0872272506185
 20
2067.6767194593272
 11
2270.9394568365974
 21
2071.1281550344811
  0
LINE
  8
_0-0_
  6
CONTINUOUS
 62
    7
 10
2312.8969924514358
 20
2077.775859759121
 11
2334.0163495273664
 21
2083.5401436352822
  0
LINE
  8
_0-0_
  6
CONTINUOUS
 62
    7
 10
2315.546264059295
 20
2074.3526659048662
 11
2331.3685643258705
 21
2078.6711718585038
  0
LINE
  8
_0-0_
  6
CONTINUOUS
 62
    7
 10
2313.5145942953104
 20
2072.4349539620534
 11
2312.6685813403037
 21
2050.1430700000187
  0
LINE
  8
_0-0_
  6
CONTINUOUS
 62
    7
 10
2309.5429164930661
 20
2073.2604049623701
 11
2308.3845104674115
 21
2042.7384128349627
  0
LINE
  8
_0-0_
  6
CONTINUOUS
 62
    7
 10
2297.2015321945132
 20
2082.7394660743507
 11
2309.1876653722816
 21
2074.5927205325092
  0
LINE
  8
_0-0_
  6
CONTINUOUS
 62
    7
 10
2298.4974308087558
 20
2086.6952888753885
 11
2310.4966939093983
 21
2078.5396248953684
  0
LINE
  8
_0-0_
  6
CONTINUOUS
 62
    7
 10
2297.2121847734488
 20
2088.4943360435459
 11
2299.0726700712817
 21
2110.7934043030018
  0
LINE
  8
_0-0_
  6
CONTINUOUS
 62
    7
 10
2295.1220496925148
 20
2111.5514715481909
 11
2293.2055764216711
 21
2088.5807953470003
  0
LINE
  8
_0-0_
  6
CONTINUOUS
 62
    7
 10
2291.7751580315667
 20
2086.6734882487294
 11
2270.9394568365974
 21
2071.1281550344811
  0
LINE
  8
_0-0_
  6
CONTINUOUS
 62
    7
 10
2293.2390205648417
 20
2082.7751398270657
 11
2268.1960461590738
 21
2064.0905163739176
  0
LINE
  8
_0-0_
  6
CONTINUOUS
 62
    7
 10
2297.2121847734488
 20
2088.4943360435459
 11
2298.4974308087558
 21
2086.6952888753885
  0
LINE
  8
_0-0_
  6
CONTINUOUS
 62
    7
 10
2291.7751580315667
 20
2086.6734882487294
 11
2293.2055764216711
 21
2088.5807953470003
  0
LINE
  8
_0-0_
  6
CONTINUOUS
 62
    7
 10
2293.2390205648417
 20
2082.7751398270657
 11
2295.1985996202152
 21
2083.5101677736257
  0
LINE
  8
_0-0_
  6
CONTINUOUS
 62
    7
 10
2295.1985996202152
 20
2083.5101677736257
 11
2297.2015321945132
 21
2082.7394660743507
  0
LINE
  8
_0-0_
  6
CONTINUOUS
 62
    7
 10
2313.5145942953104
 20
2072.4349539620534
 11
2314.142105514939
 21
2073.3315047334058
  0
LINE
  8
_0-0_
  6
CONTINUOUS
 62
    7
 10
2314.142105514939
 20
2073.3315047334058
 11
2315.546264059295
 21
2074.3526659048662
  0
LINE
  8
_0-0_
  6
CONTINUOUS
 62
    7
 10
2310.4966939093983
 20
2078.5396248953684
 11
2312.8969924514358
 21
2077.775859759121
  0
LINE
  8
_0-0_
  6
CONTINUOUS
 62
    7
 10
2309.1876653722816
 20
2074.5927205325092
 11
2309.5429164930661
 21
2073.2604049623701
  0
LINE
  8
_0-0_
  6
CONTINUOUS
 62
    7
 10
2266.7329268289809
 20
2036.8194188298407
 11
2305.858362853297
 21
2036.8194188298407
  0
LINE
  8
_0-0_
  6
CONTINUOUS
 62
    7
 10
2344.8502700393265
 20
2041.7018921310837
 11
2344.8502700393265
 21
2080.4080376938045
  0
LINE
  8
_0-0_
  6
CONTINUOUS
 62
    7
 10
2339.9681683396743
 20
2119.8193592086263
 11
2302.4084136845063
 21
2119.8193592086263
  0
LINE
  8
_0-0_
  6
CONTINUOUS
 62
    7
 10
2261.8503296605409
 20
2114.9372575089737
 11
2261.8503296605409
 21
2068.1560855114321
  0
LINE
  8
_0-0_
  6
CONTINUOUS
 62
    7
 10
2315.1117379324778
 20
2036.8194188298407
 11
2339.9681683396743
 21
2036.8194188298407
  0
LINE
  8
_0-0_
  6
CONTINUOUS
 62
    7
 10
2261.8503296605409
 20
2056.6423818227404
 11
2261.8503296605409
 21
2041.7018921310837
  0
LINE
  8
_0-0_
  6
CONTINUOUS
 62
    7
 10
2293.4917096465711
 20
2119.8193592086263
 11
2266.7329268289809
 21
2119.8193592086263
  0
LINE
  8
_0-0_
  6
CONTINUOUS
 62
    7
 10
2344.8502700393265
 20
2088.6189464436534
 11
2344.8502700393265
 21
2114.9372575089737
  0
LINE
  8
_0-0_
  6
CONTINUOUS
 62
    7
 10
2408.571024419718
 20
1944.6535536129043
 11
2411.3684411951012
 21
1936.9609052149945
  0
LINE
  8
_0-0_
  6
CONTINUOUS
 62
    7
 10
2411.3684411951012
 20
1936.9609052149945
 11
2412.7820136464238
 21
1934.4161775213411
  0
LINE
  8
_0-0_
  6
CONTINUOUS
 62
    7
 10
2412.7820136464238
 20
1934.4161775213411
 11
2413.6500749624834
 21
1933.8193853665503
  0
LINE
  8
_0-0_
  6
CONTINUOUS
 62
    7
 10
2403.7018049085459
 20
1947.3013388144002
 11
2405.1478305654637
 21
1940.0709627954197
  0
LINE
  8
_0-0_
  6
CONTINUOUS
 62
    7
 10
2405.1478305654637
 20
1940.0709627954197
 11
2405.9960731300148
 21
1935.8298738398607
  0
LINE
  8
_0-0_
  6
CONTINUOUS
 62
    7
 10
2405.9960731300148
 20
1935.8298738398607
 11
2405.713655921023
 21
1934.1333887107585
  0
LINE
  8
_0-0_
  6
CONTINUOUS
 62
    7
 10
2405.713655921023
 20
1934.1333887107585
 11
2405.4386707438466
 21
1933.8193853665503
  0
LINE
  8
_0-0_
  6
CONTINUOUS
 62
    7
 10
2375.173950784455
 20
1966.0014456671638
 11
2367.8266441315754
 21
1965.8002853393555
  0
LINE
  8
_0-0_
  6
CONTINUOUS
 62
    7
 10
2367.8266441315754
 20
1965.8002853393555
 11
2364.7165865511506
 21
1965.5173726615758
  0
LINE
  8
_0-0_
  6
CONTINUOUS
 62
    7
 10
2364.7165865511506
 20
1965.5173726615758
 11
2362.7371887442687
 21
1964.9520427748043
  0
LINE
  8
_0-0_
  6
CONTINUOUS
 62
    7
 10
2362.7371887442687
 20
1964.9520427748043
 11
2361.8505473486703
 21
1963.5581652077929
  0
LINE
  8
_0-0_
  6
CONTINUOUS
 62
    7
 10
2361.8505473486703
 20
1972.8116641541706
 11
2362.4547715352769
 21
1971.7376116896228
  0
LINE
  8
_0-0_
  6
CONTINUOUS
 62
    7
 10
2362.4547715352769
 20
1971.7376116896228
 11
2364.7165865511506
 21
1970.6067041816857
  0
LINE
  8
_0-0_
  6
CONTINUOUS
 62
    7
 10
2364.7165865511506
 20
1970.6067041816857
 11
2367.7694174865956
 21
1970.2852688056621
  0
LINE
  8
_0-0_
  6
CONTINUOUS
 62
    7
 10
2444.8504877274563
 20
1985.1781934936994
 11
2443.600419976076
 21
1984.1780897457168
  0
LINE
  8
_0-0_
  6
CONTINUOUS
 62
    7
 10
2443.600419976076
 20
1984.1780897457168
 11
2441.6212699035877
 21
1983.8953009351339
  0
LINE
  8
_0-0_
  6
CONTINUOUS
 62
    7
 10
2441.6212699035877
 20
1983.8953009351339
 11
2436.5823523326271
 21
1983.5478534477556
  0
LINE
  8
_0-0_
  6
CONTINUOUS
 62
    7
 10
2435.8240373530443
 20
1979.597233068989
 11
2439.0765422099348
 21
1978.8062171494178
  0
LINE
  8
_0-0_
  6
CONTINUOUS
 62
    7
 10
2439.0765422099348
 20
1978.8062171494178
 11
2442.4695124681393
 21
1977.9579745848669
  0
LINE
  8
_0-0_
  6
CONTINUOUS
 62
    7
 10
2442.4695124681393
 20
1977.9579745848669
 11
2444.731327484013
 21
1976.2614894557644
  0
LINE
  8
_0-0_
  6
CONTINUOUS
 62
    7
 10
2381.6732626071771
 20
2016.8195734797296
 11
2382.5289372035431
 21
2016.4103162610852
  0
LINE
  8
_0-0_
  6
CONTINUOUS
 62
    7
 10
2382.5289372035431
 20
2016.4103162610852
 11
2385.6389947839684
 21
2014.4310423214004
  0
LINE
  8
_0-0_
  6
CONTINUOUS
 62
    7
 10
2385.6389947839684
 20
2014.4310423214004
 11
2389.1213971583538
 21
2010.4739808483932
  0
LINE
  8
_0-0_
  6
CONTINUOUS
 62
    7
 10
2393.1869662958679
 20
2016.8195734797296
 11
2392.9902651871494
 21
2016.6928573372741
  0
LINE
  8
_0-0_
  6
CONTINUOUS
 62
    7
 10
2393.0219751895625
 20
2016.8195734797296
 11
2392.7076002437634
 21
2015.5620736965341
  0
LINE
  8
_0-0_
  6
CONTINUOUS
 62
    7
 10
2392.7076002437634
 20
2015.5620736965341
 11
2392.7076002437634
 21
2013.5827997568492
  0
LINE
  8
_0-0_
  6
CONTINUOUS
 62
    7
 10
2392.7076002437634
 20
2013.5827997568492
 11
2396.1592835533115
 21
2007.7301985692793
  0
LINE
  8
_0-0_
  6
CONTINUOUS
 62
    7
 10
2402.8067405435568
 20
1965.7727868216377
 11
2408.571024419718
 21
1944.6535536129043
  0
LINE
  8
_0-0_
  6
CONTINUOUS
 62
    7
 10
2399.3835466893024
 20
1963.1236390809754
 11
2403.7018049085459
 21
1947.3013388144002
  0
LINE
  8
_0-0_
  6
CONTINUOUS
 62
    7
 10
2397.465587012096
 20
1965.1554327121573
 11
2375.173950784455
 21
1966.0014456671638
  0
LINE
  8
_0-0_
  6
CONTINUOUS
 62
    7
 10
2398.2912857468064
 20
1969.1271105144015
 11
2367.7694174865956
 21
1970.2852688056621
  0
LINE
  8
_0-0_
  6
CONTINUOUS
 62
    7
 10
2407.7705945931807
 20
1981.4683709457574
 11
2399.6238490513392
 21
1969.482361635186
  0
LINE
  8
_0-0_
  6
CONTINUOUS
 62
    7
 10
2411.7264173942185
 20
1980.1724723315147
 11
2403.5705056798042
 21
1968.1732092308721
  0
LINE
  8
_0-0_
  6
CONTINUOUS
 62
    7
 10
2413.5252168279817
 20
1981.4574706324279
 11
2435.8240373530443
 21
1979.597233068989
  0
LINE
  8
_0-0_
  6
CONTINUOUS
 62
    7
 10
2436.5823523326271
 20
1983.5478534477556
 11
2413.6116761314365
 21
1985.4643267185993
  0
LINE
  8
_0-0_
  6
CONTINUOUS
 62
    7
 10
2411.7043690331652
 20
1986.8947451087038
 11
2396.1592835533115
 21
2007.7301985692793
  0
LINE
  8
_0-0_
  6
CONTINUOUS
 62
    7
 10
2407.8062683458952
 20
1985.4306348410353
 11
2389.1213971583538
 21
2010.4739808483932
  0
LINE
  8
_0-0_
  6
CONTINUOUS
 62
    7
 10
2413.5252168279817
 20
1981.4574706324279
 11
2411.7264173942185
 21
1980.1724723315147
  0
LINE
  8
_0-0_
  6
CONTINUOUS
 62
    7
 10
2411.7043690331652
 20
1986.8947451087038
 11
2413.6116761314365
 21
1985.4643267185993
  0
LINE
  8
_0-0_
  6
CONTINUOUS
 62
    7
 10
2407.8062683458952
 20
1985.4306348410353
 11
2408.5408008236682
 21
1983.4714273872521
  0
LINE
  8
_0-0_
  6
CONTINUOUS
 62
    7
 10
2408.5408008236682
 20
1983.4714273872521
 11
2407.7705945931807
 21
1981.4683709457574
  0
LINE
  8
_0-0_
  6
CONTINUOUS
 62
    7
 10
2397.465587012096
 20
1965.1554327121573
 11
2398.3623855178421
 21
1964.5279214925288
  0
LINE
  8
_0-0_
  6
CONTINUOUS
 62
    7
 10
2398.3623855178421
 20
1964.5279214925288
 11
2399.3835466893024
 21
1963.1236390809754
  0
LINE
  8
_0-0_
  6
CONTINUOUS
 62
    7
 10
2403.5705056798042
 20
1968.1732092308721
 11
2402.8067405435568
 21
1965.7727868216377
  0
LINE
  8
_0-0_
  6
CONTINUOUS
 62
    7
 10
2399.6238490513392
 20
1969.482361635186
 11
2398.2912857468064
 21
1969.1271105144015
  0
LINE
  8
_0-0_
  6
CONTINUOUS
 62
    7
 10
2361.8505473486703
 20
2011.9371001784864
 11
2361.8505473486703
 21
1972.8116641541706
  0
LINE
  8
_0-0_
  6
CONTINUOUS
 62
    7
 10
2366.7326490483229
 20
1933.8193853665503
 11
2405.4386707438466
 21
1933.8193853665503
  0
LINE
  8
_0-0_
  6
CONTINUOUS
 62
    7
 10
2444.8504877274563
 20
1938.7018586677934
 11
2444.8504877274563
 21
1976.2614894557644
  0
LINE
  8
_0-0_
  6
CONTINUOUS
 62
    7
 10
2439.96813829341
 20
2016.8195734797296
 11
2393.1869662958679
 21
2016.8195734797296
  0
LINE
  8
_0-0_
  6
CONTINUOUS
 62
    7
 10
2361.8505473486703
 20
1963.5581652077929
 11
2361.8505473486703
 21
1938.7018586677934
  0
LINE
  8
_0-0_
  6
CONTINUOUS
 62
    7
 10
2381.6732626071771
 20
2016.8195734797296
 11
2366.7326490483229
 21
2016.8195734797296
  0
LINE
  8
_0-0_
  6
CONTINUOUS
 62
    7
 10
2444.8504877274563
 20
1985.1781934936994
 11
2444.8504877274563
 21
2011.9371001784864
  0
LINE
  8
_0-0_
  6
CONTINUOUS
 62
    7
 10
2413.6500749624834
 20
1933.8193853665503
 11
2439.96813829341
 21
1933.8193853665503
  0
LINE
  8
_0-0_
  6
CONTINUOUS
 62
    7
 10
2472.6844378143664
 20
1870.0988787205524
 11
2464.9917894164569
 21
1867.3015858123663
  0
LINE
  8
_0-0_
  6
CONTINUOUS
 62
    7
 10
2464.9917894164569
 20
1867.3015858123663
 11
2462.4470617228035
 21
1865.8880133610435
  0
LINE
  8
_0-0_
  6
CONTINUOUS
 62
    7
 10
2462.4470617228035
 20
1865.8880133610435
 11
2461.8505173024064
 21
1865.0199520449839
  0
LINE
  8
_0-0_
  6
CONTINUOUS
 62
    7
 10
2475.3322230158624
 20
1874.9680982317245
 11
2468.1018469968817
 21
1873.5217009732162
  0
LINE
  8
_0-0_
  6
CONTINUOUS
 62
    7
 10
2468.1018469968817
 20
1873.5217009732162
 11
2463.8606341741261
 21
1872.6735822758619
  0
LINE
  8
_0-0_
  6
CONTINUOUS
 62
    7
 10
2463.8606341741261
 20
1872.6735822758619
 11
2462.1646445138113
 21
1872.9563710864445
  0
LINE
  8
_0-0_
  6
CONTINUOUS
 62
    7
 10
2462.1646445138113
 20
1872.9563710864445
 11
2461.8505173024064
 21
1873.2309846620301
  0
LINE
  8
_0-0_
  6
CONTINUOUS
 62
    7
 10
2494.0324537358229
 20
1903.4960762230126
 11
2493.8312934080145
 21
1910.8433828758916
  0
LINE
  8
_0-0_
  6
CONTINUOUS
 62
    7
 10
2493.8312934080145
 20
1910.8433828758916
 11
2493.5483807302348
 21
1913.9534404563167
  0
LINE
  8
_0-0_
  6
CONTINUOUS
 62
    7
 10
2493.5483807302348
 20
1913.9534404563167
 11
2492.9830508434634
 21
1915.9327143960015
  0
LINE
  8
_0-0_
  6
CONTINUOUS
 62
    7
 10
2492.9830508434634
 20
1915.9327143960015
 11
2491.589049409255
 21
1916.8194796587968
  0
LINE
  8
_0-0_
  6
CONTINUOUS
 62
    7
 10
2500.8426722228296
 20
1916.8194796587968
 11
2499.7687436254787
 21
1916.2152554721906
  0
LINE
  8
_0-0_
  6
CONTINUOUS
 62
    7
 10
2499.7687436254787
 20
1916.2152554721906
 11
2498.6375883831479
 21
1913.9534404563167
  0
LINE
  8
_0-0_
  6
CONTINUOUS
 62
    7
 10
2498.6375883831479
 20
1913.9534404563167
 11
2498.3162768743214
 21
1910.9004856536749
  0
LINE
  8
_0-0_
  6
CONTINUOUS
 62
    7
 10
2513.2090776951618
 20
1833.8196631472083
 11
2512.2092216815727
 21
1835.0697308985882
  0
LINE
  8
_0-0_
  6
CONTINUOUS
 62
    7
 10
2512.2092216815727
 20
1835.0697308985882
 11
2511.9265567381872
 21
1837.0487571038793
  0
LINE
  8
_0-0_
  6
CONTINUOUS
 62
    7
 10
2511.9265567381872
 20
1837.0487571038793
 11
2511.5787376492181
 21
1842.0875508076435
  0
LINE
  8
_0-0_
  6
CONTINUOUS
 62
    7
 10
2507.6281172704512
 20
1842.8456180528324
 11
2506.8371013508799
 21
1839.5934847975329
  0
LINE
  8
_0-0_
  6
CONTINUOUS
 62
    7
 10
2506.8371013508799
 20
1839.5934847975329
 11
2505.9888587863288
 21
1836.2005145393282
  0
LINE
  8
_0-0_
  6
CONTINUOUS
 62
    7
 10
2505.9888587863288
 20
1836.2005145393282
 11
2504.2923736572266
 21
1833.9386995234545
  0
LINE
  8
_0-0_
  6
CONTINUOUS
 62
    7
 10
2544.850457681192
 20
1896.9966405330936
 11
2544.4412004625474
 21
1896.1409659367271
  0
LINE
  8
_0-0_
  6
CONTINUOUS
 62
    7
 10
2544.4412004625474
 20
1896.1409659367271
 11
2542.4622981244534
 21
1893.030908356302
  0
LINE
  8
_0-0_
  6
CONTINUOUS
 62
    7
 10
2542.4622981244534
 20
1893.030908356302
 11
2538.5049889170527
 21
1889.5483821147197
  0
LINE
  8
_0-0_
  6
CONTINUOUS
 62
    7
 10
2544.850457681192
 20
1885.4828129772054
 11
2544.7241131403271
 21
1885.6797618203179
  0
LINE
  8
_0-0_
  6
CONTINUOUS
 62
    7
 10
2544.850457681192
 20
1885.6480518179048
 11
2543.5929578979963
 21
1885.962302896507
  0
LINE
  8
_0-0_
  6
CONTINUOUS
 62
    7
 10
2543.5929578979963
 20
1885.962302896507
 11
2541.6140555599022
 21
1885.962302896507
  0
LINE
  8
_0-0_
  6
CONTINUOUS
 62
    7
 10
2541.6140555599022
 20
1885.962302896507
 11
2535.7613305051354
 21
1882.5107434541562
  0
LINE
  8
_0-0_
  6
CONTINUOUS
 62
    7
 10
2493.8040426246907
 20
1875.8630387295168
 11
2472.6844378143664
 21
1870.0988787205524
  0
LINE
  8
_0-0_
  6
CONTINUOUS
 62
    7
 10
2491.1545232824378
 20
1879.2863564509682
 11
2475.3322230158624
 21
1874.9680982317245
  0
LINE
  8
_0-0_
  6
CONTINUOUS
 62
    7
 10
2493.1864407808162
 20
1881.204068393781
 11
2494.0324537358229
 21
1903.4960762230126
  0
LINE
  8
_0-0_
  6
CONTINUOUS
 62
    7
 10
2497.1581185830605
 20
1880.3786173934643
 11
2498.3162768743214
 21
1910.9004856536749
  0
LINE
  8
_0-0_
  6
CONTINUOUS
 62
    7
 10
2509.4995028816134
 20
1870.8994324142868
 11
2497.513369703845
 21
1879.0460540889312
  0
LINE
  8
_0-0_
  6
CONTINUOUS
 62
    7
 10
2508.2036042673708
 20
1866.9436096132492
 11
2496.2040934323345
 21
1875.0993974604662
  0
LINE
  8
_0-0_
  6
CONTINUOUS
 62
    7
 10
2509.488602568284
 20
1865.1446863122887
 11
2507.6281172704512
 21
1842.8456180528324
  0
LINE
  8
_0-0_
  6
CONTINUOUS
 62
    7
 10
2511.5787376492181
 20
1842.0875508076435
 11
2513.4952109200613
 21
1865.0581031416373
  0
LINE
  8
_0-0_
  6
CONTINUOUS
 62
    7
 10
2514.9256293101662
 20
1866.965286372711
 11
2535.7613305051354
 21
1882.5107434541562
  0
LINE
  8
_0-0_
  6
CONTINUOUS
 62
    7
 10
2513.4617667768912
 20
1870.8637586615719
 11
2538.5049889170527
 21
1889.5483821147197
  0
LINE
  8
_0-0_
  6
CONTINUOUS
 62
    7
 10
2509.488602568284
 20
1865.1446863122887
 11
2508.2036042673708
 21
1866.9436096132492
  0
LINE
  8
_0-0_
  6
CONTINUOUS
 62
    7
 10
2514.9256293101662
 20
1866.965286372711
 11
2513.4952109200613
 21
1865.0581031416373
  0
LINE
  8
_0-0_
  6
CONTINUOUS
 62
    7
 10
2513.4617667768912
 20
1870.8637586615719
 11
2511.5024354559114
 21
1870.1291023166025
  0
LINE
  8
_0-0_
  6
CONTINUOUS
 62
    7
 10
2511.5024354559114
 20
1870.1291023166025
 11
2509.4995028816134
 21
1870.8994324142868
  0
LINE
  8
_0-0_
  6
CONTINUOUS
 62
    7
 10
2493.1864407808162
 20
1881.204068393781
 11
2492.5589295611876
 21
1880.3075176224286
  0
LINE
  8
_0-0_
  6
CONTINUOUS
 62
    7
 10
2492.5589295611876
 20
1880.3075176224286
 11
2491.1545232824378
 21
1879.2863564509682
  0
LINE
  8
_0-0_
  6
CONTINUOUS
 62
    7
 10
2496.2040934323345
 20
1875.0993974604662
 11
2493.8040426246907
 21
1875.8630387295168
  0
LINE
  8
_0-0_
  6
CONTINUOUS
 62
    7
 10
2497.513369703845
 20
1879.0460540889312
 11
2497.1581185830605
 21
1880.3786173934643
  0
LINE
  8
_0-0_
  6
CONTINUOUS
 62
    7
 10
2539.9681082471457
 20
1916.8194796587968
 11
2500.8426722228296
 21
1916.8194796587968
  0
LINE
  8
_0-0_
  6
CONTINUOUS
 62
    7
 10
2461.8505173024064
 20
1911.9370063575539
 11
2461.8505173024064
 21
1873.2309846620301
  0
LINE
  8
_0-0_
  6
CONTINUOUS
 62
    7
 10
2466.7328667364527
 20
1833.8196631472083
 11
2504.2923736572266
 21
1833.8196631472083
  0
LINE
  8
_0-0_
  6
CONTINUOUS
 62
    7
 10
2544.850457681192
 20
1838.7018887140575
 11
2544.850457681192
 21
1885.4828129772054
  0
LINE
  8
_0-0_
  6
CONTINUOUS
 62
    7
 10
2491.589049409255
 20
1916.8194796587968
 11
2466.7328667364527
 21
1916.8194796587968
  0
LINE
  8
_0-0_
  6
CONTINUOUS
 62
    7
 10
2544.850457681192
 20
1896.9966405330936
 11
2544.850457681192
 21
1911.9370063575539
  0
LINE
  8
_0-0_
  6
CONTINUOUS
 62
    7
 10
2513.2090776951618
 20
1833.8196631472083
 11
2539.9681082471457
 21
1833.8196631472083
  0
LINE
  8
_0-0_
  6
CONTINUOUS
 62
    7
 10
2461.8505173024064
 20
1865.0199520449839
 11
2461.8505173024064
 21
1838.7018887140575
  0
LINE
  8
_0-0_
  6
CONTINUOUS
 62
    7
 10
2284.9349636829038
 20
2219.4437638212817
 11
2284.3887093444587
 21
2219.8195768967557
  0
LINE
  8
_0-0_
  6
CONTINUOUS
 62
    7
 10
2284.9349636829038
 20
2219.4437638212817
 11
2286.3963488722397
 21
2216.8133200273551
  0
LINE
  8
_0-0_
  6
CONTINUOUS
 62
    7
 10
2286.3963488722397
 20
2216.8133200273551
 11
2288.4421394966744
 21
2210.9908185686386
  0
LINE
  8
_0-0_
  6
CONTINUOUS
 62
    7
 10
2292.0340404731423
 20
2213.6792322107262
 11
2292.1336296994714
 21
2215.764908072571
  0
LINE
  8
_0-0_
  6
CONTINUOUS
 62
    7
 10
2292.1336296994714
 20
2215.764908072571
 11
2292.4257085498234
 21
2217.8106986970051
  0
LINE
  8
_0-0_
  6
CONTINUOUS
 62
    7
 10
2292.4257085498234
 20
2217.8106986970051
 11
2293.7040180221029
 21
2219.8195768967557
  0
LINE
  8
_0-0_
  6
CONTINUOUS
 62
    7
 10
2336.6361407423569
 20
2184.0276548761199
 11
2341.4352514200691
 21
2185.7811189158083
  0
LINE
  8
_0-0_
  6
CONTINUOUS
 62
    7
 10
2337.3994104098169
 20
2180.0933849673474
 11
2341.0175712320333
 21
2180.0933849673474
  0
LINE
  8
_0-0_
  6
CONTINUOUS
 62
    7
 10
2341.0175712320333
 20
2180.0933849673474
 11
2342.7710352717218
 21
2179.8010583826012
  0
LINE
  8
_0-0_
  6
CONTINUOUS
 62
    7
 10
2342.7710352717218
 20
2179.8010583826012
 11
2344.8502700393265
 21
2177.9197633956851
  0
LINE
  8
_0-0_
  6
CONTINUOUS
 62
    7
 10
2312.2796383419554
 20
2150.7101039812833
 11
2312.698804936354
 21
2144.63317930008
  0
LINE
  8
_0-0_
  6
CONTINUOUS
 62
    7
 10
2312.698804936354
 20
2144.63317930008
 11
2312.4064783516078
 21
2140.249271466465
  0
LINE
  8
_0-0_
  6
CONTINUOUS
 62
    7
 10
2312.4064783516078
 20
2140.249271466465
 11
2311.8220729165096
 21
2137.6188276725388
  0
LINE
  8
_0-0_
  6
CONTINUOUS
 62
    7
 10
2311.8220729165096
 20
2137.6188276725388
 11
2311.0226340275476
 21
2136.8193887835764
  0
LINE
  8
_0-0_
  6
CONTINUOUS
 62
    7
 10
2318.4289014661631
 20
2140.166775913312
 11
2320.193513553575
 21
2138.0104957492194
  0
LINE
  8
_0-0_
  6
CONTINUOUS
 62
    7
 10
2320.193513553575
 20
2138.0104957492194
 11
2321.6224455373167
 21
2136.8193887835764
  0
LINE
  8
_0-0_
  6
CONTINUOUS
 62
    7
 10
2261.8503296605409
 20
2176.7365839306453
 11
2263.8383981712077
 21
2176.0738944270897
  0
LINE
  8
_0-0_
  6
CONTINUOUS
 62
    7
 10
2263.8383981712077
 20
2176.0738944270897
 11
2271.0474690323172
 21
2177.7560109613482
  0
LINE
  8
_0-0_
  6
CONTINUOUS
 62
    7
 10
2274.5318532818533
 20
2174.6308415828985
 11
2267.1528366265611
 21
2171.402366962212
  0
LINE
  8
_0-0_
  6
CONTINUOUS
 62
    7
 10
2267.1528366265611
 20
2171.402366962212
 11
2263.7598663683561
 21
2169.4232168897238
  0
LINE
  8
_0-0_
  6
CONTINUOUS
 62
    7
 10
2263.7598663683561
 20
2169.4232168897238
 11
2261.8503296605409
 21
2168.1501098397157
  0
LINE
  8
_0-0_
  6
CONTINUOUS
 62
    7
 10
2311.4680604676942
 20
2177.5025786764372
 11
2336.6361407423569
 21
2184.0276548761199
  0
LINE
  8
_0-0_
  6
CONTINUOUS
 62
    7
 10
2316.726222977215
 20
2174.7334036219531
 11
2337.3994104098169
 21
2180.0933849673474
  0
LINE
  8
_0-0_
  6
CONTINUOUS
 62
    7
 10
2312.5422367994388
 20
2170.1104320982708
 11
2318.4289014661631
 21
2140.166775913312
  0
LINE
  8
_0-0_
  6
CONTINUOUS
 62
    7
 10
2308.1310781825
 20
2171.8123673840378
 11
2312.2796383419554
 21
2150.7101039812833
  0
LINE
  8
_0-0_
  6
CONTINUOUS
 62
    7
 10
2297.757943643106
 20
2179.3427497539742
 11
2305.9983327858235
 21
2174.6605697101609
  0
LINE
  8
_0-0_
  6
CONTINUOUS
 62
    7
 10
2298.147629844636
 20
2183.721702899712
 11
2308.5779910290103
 21
2177.7956484643651
  0
LINE
  8
_0-0_
  6
CONTINUOUS
 62
    7
 10
2297.0999610930335
 20
2184.5986826539497
 11
2292.0340404731423
 21
2213.6792322107262
  0
LINE
  8
_0-0_
  6
CONTINUOUS
 62
    7
 10
2291.8797019457725
 20
2191.2580308951005
 11
2288.4421394966744
 21
2210.9908185686386
  0
LINE
  8
_0-0_
  6
CONTINUOUS
 62
    7
 10
2291.6654116950899
 20
2183.9899992482542
 11
2271.0474690323172
 21
2177.7560109613482
  0
LINE
  8
_0-0_
  6
CONTINUOUS
 62
    7
 10
2293.1047485233735
 20
2180.2464848227482
 11
2274.5318532818533
 21
2174.6308415828985
  0
LINE
  8
_0-0_
  6
CONTINUOUS
 62
    7
 10
2308.5779910290103
 20
2177.7956484643651
 11
2309.9026268329399
 21
2177.39407101193
  0
LINE
  8
_0-0_
  6
CONTINUOUS
 62
    7
 10
2309.9026268329399
 20
2177.39407101193
 11
2311.4680604676942
 21
2177.5025786764372
  0
LINE
  8
_0-0_
  6
CONTINUOUS
 62
    7
 10
2312.5422367994388
 20
2170.1104320982708
 11
2312.4305085878113
 21
2172.6192383048156
  0
LINE
  8
_0-0_
  6
CONTINUOUS
 62
    7
 10
2312.4305085878113
 20
2172.6192383048156
 11
2313.5539840639326
 21
2174.0236445835658
  0
LINE
  8
_0-0_
  6
CONTINUOUS
 62
    7
 10
2313.5539840639326
 20
2174.0236445835658
 11
2316.726222977215
 21
2174.7334036219531
  0
LINE
  8
_0-0_
  6
CONTINUOUS
 62
    7
 10
2305.9983327858235
 20
2174.6605697101609
 11
2306.8128834728109
 21
2174.304327651801
  0
LINE
  8
_0-0_
  6
CONTINUOUS
 62
    7
 10
2306.8128834728109
 20
2174.304327651801
 11
2307.6556758806973
 21
2172.9001691074445
  0
LINE
  8
_0-0_
  6
CONTINUOUS
 62
    7
 10
2307.6556758806973
 20
2172.9001691074445
 11
2308.1310781825
 21
2171.8123673840378
  0
LINE
  8
_0-0_
  6
CONTINUOUS
 62
    7
 10
2293.1047485233735
 20
2180.2464848227482
 11
2294.7350885693172
 21
2180.20288356943
  0
LINE
  8
_0-0_
  6
CONTINUOUS
 62
    7
 10
2294.7350885693172
 20
2180.20288356943
 11
2296.420425650696
 21
2179.9219527668015
  0
LINE
  8
_0-0_
  6
CONTINUOUS
 62
    7
 10
2296.420425650696
 20
2179.9219527668015
 11
2297.757943643106
 21
2179.3427497539742
  0
LINE
  8
_0-0_
  6
CONTINUOUS
 62
    7
 10
2298.147629844636
 20
2183.721702899712
 11
2297.0999610930335
 21
2184.5986826539497
  0
LINE
  8
_0-0_
  6
CONTINUOUS
 62
    7
 10
2291.8797019457725
 20
2191.2580308951005
 11
2292.4881376170742
 21
2187.5058457658097
  0
LINE
  8
_0-0_
  6
CONTINUOUS
 62
    7
 10
2292.4881376170742
 20
2187.5058457658097
 11
2292.4881376170742
 21
2185.539577881802
  0
LINE
  8
_0-0_
  6
CONTINUOUS
 62
    7
 10
2292.4881376170742
 20
2185.539577881802
 11
2291.6654116950899
 21
2183.9899992482542
  0
LINE
  8
_0-0_
  6
CONTINUOUS
 62
    7
 10
2341.4352514200691
 20
2185.7811189158083
 11
2343.3271989859209
 21
2186.6630533579237
  0
LINE
  8
_0-0_
  6
CONTINUOUS
 62
    7
 10
2343.3271989859209
 20
2186.6630533579237
 11
2344.8502700393265
 21
2188.4041306779191
  0
LINE
  8
_0-0_
  6
CONTINUOUS
 62
    7
 10
2339.9681683396743
 20
2136.8193887835764
 11
2321.6224455373167
 21
2136.8193887835764
  0
LINE
  8
_0-0_
  6
CONTINUOUS
 62
    7
 10
2261.8503296605409
 20
2141.7017382176227
 11
2261.8503296605409
 21
2168.1501098397157
  0
LINE
  8
_0-0_
  6
CONTINUOUS
 62
    7
 10
2266.7329268289809
 20
2219.8195768967557
 11
2284.3887093444587
 21
2219.8195768967557
  0
LINE
  8
_0-0_
  6
CONTINUOUS
 62
    7
 10
2344.8502700393265
 20
2214.9372274627094
 11
2344.8502700393265
 21
2188.4041306779191
  0
LINE
  8
_0-0_
  6
CONTINUOUS
 62
    7
 10
2293.7040180221029
 20
2219.8195768967557
 11
2339.9681683396743
 21
2219.8195768967557
  0
LINE
  8
_0-0_
  6
CONTINUOUS
 62
    7
 10
2261.8503296605409
 20
2176.7365839306453
 11
2261.8503296605409
 21
2214.9372274627094
  0
LINE
  8
_0-0_
  6
CONTINUOUS
 62
    7
 10
2311.0226340275476
 20
2136.8193887835764
 11
2266.7329268289809
 21
2136.8193887835764
  0
LINE
  8
_0-0_
  6
CONTINUOUS
 62
    7
 10
2344.8502700393265
 20
2177.9197633956851
 11
2344.8502700393265
 21
2141.7017382176227
  0
LINE
  8
_0-0_
  6
CONTINUOUS
 62
    7
 10
2467.8489101807581
 20
2156.4828108268357
 11
2465.3586840537523
 21
2153.6095873269333
  0
LINE
  8
_0-0_
  6
CONTINUOUS
 62
    7
 10
2465.3586840537523
 20
2153.6095873269333
 11
2462.9648266059548
 21
2149.1634981604616
  0
LINE
  8
_0-0_
  6
CONTINUOUS
 62
    7
 10
2462.9648266059548
 20
2149.1634981604616
 11
2461.8505173024064
 21
2145.6612770345682
  0
LINE
  8
_0-0_
  6
CONTINUOUS
 62
    7
 10
2468.1461914533811
 20
2163.0995487522437
 11
2466.1056032512179
 21
2162.2592336882954
  0
LINE
  8
_0-0_
  6
CONTINUOUS
 62
    7
 10
2466.1056032512179
 20
2162.2592336882954
 11
2464.0533715325432
 21
2161.5754867612627
  0
LINE
  8
_0-0_
  6
CONTINUOUS
 62
    7
 10
2464.0533715325432
 20
2161.5754867612627
 11
2462.6856299440833
 21
2161.5754867612627
  0
LINE
  8
_0-0_
  6
CONTINUOUS
 62
    7
 10
2482.9854816451498
 20
2211.5757194725243
 11
2480.666192249902
 21
2215.6995061925941
  0
LINE
  8
_0-0_
  6
CONTINUOUS
 62
    7
 10
2480.666192249902
 20
2215.6995061925941
 11
2479.2979551926542
 21
2217.409616713358
  0
LINE
  8
_0-0_
  6
CONTINUOUS
 62
    7
 10
2479.2979551926542
 20
2217.409616713358
 11
2473.6751276553828
 21
2219.8195768967557
  0
LINE
  8
_0-0_
  6
CONTINUOUS
 62
    7
 10
2489.4607632316679
 20
2209.3508168813341
 11
2488.4187923711238
 21
2212.3464211717996
  0
LINE
  8
_0-0_
  6
CONTINUOUS
 62
    7
 10
2488.4187923711238
 20
2212.3464211717996
 11
2487.0508030482697
 21
2216.7922626038776
  0
LINE
  8
_0-0_
  6
CONTINUOUS
 62
    7
 10
2487.0508030482697
 20
2216.7922626038776
 11
2487.3926765117867
 21
2219.5284889839791
  0
LINE
  8
_0-0_
  6
CONTINUOUS
 62
    7
 10
2487.3926765117867
 20
2219.5284889839791
 11
2487.5963141835332
 21
2219.8195768967557
  0
LINE
  8
_0-0_
  6
CONTINUOUS
 62
    7
 10
2535.9483699724942
 20
2196.1943864270065
 11
2540.0092321565253
 21
2199.9022270997975
  0
LINE
  8
_0-0_
  6
CONTINUOUS
 62
    7
 10
2540.0092321565253
 20
2199.9022270997975
 11
2542.4033373387165
 21
2204.0064428027531
  0
LINE
  8
_0-0_
  6
CONTINUOUS
 62
    7
 10
2542.4033373387165
 20
2204.0064428027531
 11
2544.1132001250867
 21
2208.452284234831
  0
LINE
  8
_0-0_
  6
CONTINUOUS
 62
    7
 10
2544.850457681192
 20
2210.7309451894871
 11
2544.1132001250867
 21
2208.452284234831
  0
LINE
  8
_0-0_
  6
CONTINUOUS
 62
    7
 10
2544.850457681192
 20
2193.601598260946
 11
2542.6210958709125
 21
2193.601598260946
  0
LINE
  8
_0-0_
  6
CONTINUOUS
 62
    7
 10
2542.6210958709125
 20
2193.601598260946
 11
2539.3829596088658
 21
2192.4806001287629
  0
LINE
  8
_0-0_
  6
CONTINUOUS
 62
    7
 10
2533.0055331079193
 20
2136.8193887835764
 11
2531.1978152359775
 21
2138.7336324448752
  0
LINE
  8
_0-0_
  6
CONTINUOUS
 62
    7
 10
2531.1978152359775
 20
2138.7336324448752
 11
2529.1458312516966
 21
2143.5215950748634
  0
LINE
  8
_0-0_
  6
CONTINUOUS
 62
    7
 10
2529.1458312516966
 20
2143.5215950748634
 11
2527.663140904489
 21
2147.1461969913203
  0
LINE
  8
_0-0_
  6
CONTINUOUS
 62
    7
 10
2520.547713644256
 20
2136.8193887835764
 11
2521.3360044854949
 21
2137.8048762023218
  0
LINE
  8
_0-0_
  6
CONTINUOUS
 62
    7
 10
2521.3360044854949
 20
2137.8048762023218
 11
2522.7042415427427
 21
2140.1987336501188
  0
LINE
  8
_0-0_
  6
CONTINUOUS
 62
    7
 10
2522.7042415427427
 20
2140.1987336501188
 11
2522.7042415427427
 21
2143.2768334937373
  0
LINE
  8
_0-0_
  6
CONTINUOUS
 62
    7
 10
2522.7042415427427
 20
2143.2768334937373
 11
2520.9448318776012
 21
2153.330142930668
  0
LINE
  8
_0-0_
  6
CONTINUOUS
 62
    7
 10
2496.2464560136832
 20
2178.9991421497007
 11
2467.8489101807581
 21
2156.4828108268357
  0
LINE
  8
_0-0_
  6
CONTINUOUS
 62
    7
 10
2492.9072441189446
 20
2182.7324994650589
 11
2468.1461914533811
 21
2163.0995487522437
  0
LINE
  8
_0-0_
  6
CONTINUOUS
 62
    7
 10
2493.7564776210711
 20
2187.5261599861055
 11
2482.9854816451498
 21
2211.5757194725243
  0
LINE
  8
_0-0_
  6
CONTINUOUS
 62
    7
 10
2498.8967185591177
 20
2188.2812544185681
 11
2489.4607632316679
 21
2209.3508168813341
  0
LINE
  8
_0-0_
  6
CONTINUOUS
 62
    7
 10
2514.1863898789102
 20
2183.2326752062468
 11
2502.7631092439747
 21
2185.408526387454
  0
LINE
  8
_0-0_
  6
CONTINUOUS
 62
    7
 10
2512.3853608356017
 20
2178.4858364856382
 11
2500.5679347800474
 21
2180.7367511881826
  0
LINE
  8
_0-0_
  6
CONTINUOUS
 62
    7
 10
2520.9448318776012
 20
2153.330142930668
 11
2515.2209287076384
 21
2176.0015559840845
  0
LINE
  8
_0-0_
  6
CONTINUOUS
 62
    7
 10
2527.663140904489
 20
2147.1461969913203
 11
2519.8228428078432
 21
2178.1997032607383
  0
LINE
  8
_0-0_
  6
CONTINUOUS
 62
    7
 10
2520.9004874211023
 20
2179.9957776161691
 11
2539.3829596088658
 21
2192.4806001287629
  0
LINE
  8
_0-0_
  6
CONTINUOUS
 62
    7
 10
2517.2253476882993
 20
2183.5470501520458
 11
2535.9483699724942
 21
2196.1943864270065
  0
LINE
  8
_0-0_
  6
CONTINUOUS
 62
    7
 10
2514.6023359261885
 20
2177.2389892813781
 11
2512.3853608356017
 21
2178.4858364856382
  0
LINE
  8
_0-0_
  6
CONTINUOUS
 62
    7
 10
2515.2209287076384
 20
2176.0015559840845
 11
2514.6023359261885
 21
2177.2389892813781
  0
LINE
  8
_0-0_
  6
CONTINUOUS
 62
    7
 10
2520.9004874211023
 20
2179.9957776161691
 11
2519.8228428078432
 21
2178.1997032607383
  0
LINE
  8
_0-0_
  6
CONTINUOUS
 62
    7
 10
2517.2253476882993
 20
2183.5470501520458
 11
2514.1863898789102
 21
2183.2326752062468
  0
LINE
  8
_0-0_
  6
CONTINUOUS
 62
    7
 10
2499.064434743756
 20
2180.5363340635558
 11
2496.2464560136832
 21
2178.9991421497007
  0
LINE
  8
_0-0_
  6
CONTINUOUS
 62
    7
 10
2500.5679347800474
 20
2180.7367511881826
 11
2499.064434743756
 21
2180.5363340635558
  0
LINE
  8
_0-0_
  6
CONTINUOUS
 62
    7
 10
2502.7631092439747
 20
2185.408526387454
 11
2500.5763577494381
 21
2186.228527231106
  0
LINE
  8
_0-0_
  6
CONTINUOUS
 62
    7
 10
2500.5763577494381
 20
2186.228527231106
 11
2498.8967185591177
 21
2188.2812544185681
  0
LINE
  8
_0-0_
  6
CONTINUOUS
 62
    7
 10
2494.2843996143706
 20
2185.1503871490595
 11
2493.7564776210711
 21
2187.5261599861055
  0
LINE
  8
_0-0_
  6
CONTINUOUS
 62
    7
 10
2494.0089189684068
 20
2184.3234497423796
 11
2494.2843996143706
 21
2185.1503871490595
  0
LINE
  8
_0-0_
  6
CONTINUOUS
 62
    7
 10
2492.9072441189446
 20
2182.7324994650589
 11
2494.0089189684068
 21
2184.3234497423796
  0
LINE
  8
_0-0_
  6
CONTINUOUS
 62
    7
 10
2462.6856299440833
 20
2161.5754867612627
 11
2461.8505173024064
 21
2162.2272759514885
  0
LINE
  8
_0-0_
  6
CONTINUOUS
 62
    7
 10
2539.9681082471457
 20
2219.8195768967557
 11
2487.5963141835332
 21
2219.8195768967557
  0
LINE
  8
_0-0_
  6
CONTINUOUS
 62
    7
 10
2461.8505173024064
 20
2214.9372274627094
 11
2461.8505173024064
 21
2162.2272759514885
  0
LINE
  8
_0-0_
  6
CONTINUOUS
 62
    7
 10
2466.7328667364527
 20
2136.8193887835764
 11
2520.547713644256
 21
2136.8193887835764
  0
LINE
  8
_0-0_
  6
CONTINUOUS
 62
    7
 10
2544.850457681192
 20
2141.7017382176227
 11
2544.850457681192
 21
2193.601598260946
  0
LINE
  8
_0-0_
  6
CONTINUOUS
 62
    7
 10
2533.0055331079193
 20
2136.8193887835764
 11
2539.9681082471457
 21
2136.8193887835764
  0
LINE
  8
_0-0_
  6
CONTINUOUS
 62
    7
 10
2544.850457681192
 20
2210.7309451894871
 11
2544.850457681192
 21
2214.9372274627094
  0
LINE
  8
_0-0_
  6
CONTINUOUS
 62
    7
 10
2473.6751276553828
 20
2219.8195768967557
 11
2466.7328667364527
 21
2219.8195768967557
  0
LINE
  8
_0-0_
  6
CONTINUOUS
 62
    7
 10
2461.8505173024064
 20
2145.6612770345682
 11
2461.8505173024064
 21
2141.7017382176227
  0
LINE
  8
_0-0_
  6
CONTINUOUS
 62
    7
 10
2598.1299505638799
 20
2208.9856563847957
 11
2595.3327815228909
 21
2216.6783047827053
  0
LINE
  8
_0-0_
  6
CONTINUOUS
 62
    7
 10
2595.3327815228909
 20
2216.6783047827053
 11
2593.9192090715683
 21
2219.2225370075712
  0
LINE
  8
_0-0_
  6
CONTINUOUS
 62
    7
 10
2593.9192090715683
 20
2219.2225370075712
 11
2593.0511477555087
 21
2219.8195768967557
  0
LINE
  8
_0-0_
  6
CONTINUOUS
 62
    7
 10
2602.9989223406578
 20
2206.337623448906
 11
2601.5528966837405
 21
2213.5679994678862
  0
LINE
  8
_0-0_
  6
CONTINUOUS
 62
    7
 10
2601.5528966837405
 20
2213.5679994678862
 11
2600.7046541191899
 21
2217.8089645562486
  0
LINE
  8
_0-0_
  6
CONTINUOUS
 62
    7
 10
2600.7046541191899
 20
2217.8089645562486
 11
2600.9875667969691
 21
2219.5054496853509
  0
LINE
  8
_0-0_
  6
CONTINUOUS
 62
    7
 10
2600.9875667969691
 20
2219.5054496853509
 11
2601.2620565053576
 21
2219.8195768967557
  0
LINE
  8
_0-0_
  6
CONTINUOUS
 62
    7
 10
2631.5270241991429
 20
2187.6373927289455
 11
2638.8745785864166
 21
2187.8388007911476
  0
LINE
  8
_0-0_
  6
CONTINUOUS
 62
    7
 10
2638.8745785864166
 20
2187.8388007911476
 11
2641.9846361668415
 21
2188.1214657345336
  0
LINE
  8
_0-0_
  6
CONTINUOUS
 62
    7
 10
2641.9846361668415
 20
2188.1214657345336
 11
2643.9635385049355
 21
2188.6870433556987
  0
LINE
  8
_0-0_
  6
CONTINUOUS
 62
    7
 10
2643.9635385049355
 20
2188.6870433556987
 11
2644.8506753693214
 21
2190.0807970555134
  0
LINE
  8
_0-0_
  6
CONTINUOUS
 62
    7
 10
2644.8506753693214
 20
2180.8271742419388
 11
2644.2464511827156
 21
2181.9013505736834
  0
LINE
  8
_0-0_
  6
CONTINUOUS
 62
    7
 10
2644.2464511827156
 20
2181.9013505736834
 11
2641.9846361668415
 21
2183.0322580816201
  0
LINE
  8
_0-0_
  6
CONTINUOUS
 62
    7
 10
2641.9846361668415
 20
2183.0322580816201
 11
2638.9315574970024
 21
2183.353569590447
  0
LINE
  8
_0-0_
  6
CONTINUOUS
 62
    7
 10
2561.8507349905358
 20
2168.4607687696066
 11
2563.100555007522
 21
2169.4608725175895
  0
LINE
  8
_0-0_
  6
CONTINUOUS
 62
    7
 10
2563.100555007522
 20
2169.4608725175895
 11
2565.0797050800102
 21
2169.7435374609749
  0
LINE
  8
_0-0_
  6
CONTINUOUS
 62
    7
 10
2565.0797050800102
 20
2169.7435374609749
 11
2570.1186226509712
 21
2170.0911088155503
  0
LINE
  8
_0-0_
  6
CONTINUOUS
 62
    7
 10
2570.8766898961603
 20
2174.0417291943172
 11
2567.6244327736636
 21
2174.8329928482822
  0
LINE
  8
_0-0_
  6
CONTINUOUS
 62
    7
 10
2567.6244327736636
 20
2174.8329928482822
 11
2564.231462515459
 21
2175.6812354128333
  0
LINE
  8
_0-0_
  6
CONTINUOUS
 62
    7
 10
2564.231462515459
 20
2175.6812354128333
 11
2561.9696474995853
 21
2177.3777205419356
  0
LINE
  8
_0-0_
  6
CONTINUOUS
 62
    7
 10
2625.0277123764217
 20
2136.8193887835764
 11
2624.1720377800543
 21
2137.2288937366147
  0
LINE
  8
_0-0_
  6
CONTINUOUS
 62
    7
 10
2624.1720377800543
 20
2137.2288937366147
 11
2621.0617324652362
 21
2139.2077960747088
  0
LINE
  8
_0-0_
  6
CONTINUOUS
 62
    7
 10
2621.0617324652362
 20
2139.2077960747088
 11
2617.5795778252445
 21
2143.1651052821094
  0
LINE
  8
_0-0_
  6
CONTINUOUS
 62
    7
 10
2613.5137609533358
 20
2136.8193887835764
 11
2613.710709796449
 21
2136.9459810588351
  0
LINE
  8
_0-0_
  6
CONTINUOUS
 62
    7
 10
2613.6792475284296
 20
2136.8193887835764
 11
2613.9933747398345
 21
2138.0768885667721
  0
LINE
  8
_0-0_
  6
CONTINUOUS
 62
    7
 10
2613.9933747398345
 20
2138.0768885667721
 11
2613.9933747398345
 21
2140.0560386392599
  0
LINE
  8
_0-0_
  6
CONTINUOUS
 62
    7
 10
2613.9933747398345
 20
2140.0560386392599
 11
2610.541939164681
 21
2145.9087636940267
  0
LINE
  8
_0-0_
  6
CONTINUOUS
 62
    7
 10
2603.8942344400411
 20
2187.8660515744714
 11
2598.1299505638799
 21
2208.9856563847957
  0
LINE
  8
_0-0_
  6
CONTINUOUS
 62
    7
 10
2607.317428294296
 20
2190.5153231823306
 11
2602.9989223406578
 21
2206.337623448906
  0
LINE
  8
_0-0_
  6
CONTINUOUS
 62
    7
 10
2609.2351402371087
 20
2188.4834056839518
 11
2631.5270241991429
 21
2187.6373927289455
  0
LINE
  8
_0-0_
  6
CONTINUOUS
 62
    7
 10
2608.409689236792
 20
2184.5119756161016
 11
2638.9315574970024
 21
2183.353569590447
  0
LINE
  8
_0-0_
  6
CONTINUOUS
 62
    7
 10
2598.9306281248118
 20
2172.1705913175488
 11
2607.0771259322592
 21
2184.1567244953171
  0
LINE
  8
_0-0_
  6
CONTINUOUS
 62
    7
 10
2594.9748053237736
 20
2173.4662421973976
 11
2603.1304693037937
 21
2185.4657530324339
  0
LINE
  8
_0-0_
  6
CONTINUOUS
 62
    7
 10
2593.1755104212225
 20
2172.1814916308781
 11
2570.8766898961603
 21
2174.0417291943172
  0
LINE
  8
_0-0_
  6
CONTINUOUS
 62
    7
 10
2570.1186226509712
 20
2170.0911088155503
 11
2593.0892988521618
 21
2168.1746355447067
  0
LINE
  8
_0-0_
  6
CONTINUOUS
 62
    7
 10
2594.996358216039
 20
2166.7442171546022
 11
2610.541939164681
 21
2145.9087636940267
  0
LINE
  8
_0-0_
  6
CONTINUOUS
 62
    7
 10
2598.8949543720969
 20
2168.2083274222709
 11
2617.5795778252445
 21
2143.1651052821094
  0
LINE
  8
_0-0_
  6
CONTINUOUS
 62
    7
 10
2593.1755104212225
 20
2172.1814916308781
 11
2594.9748053237736
 21
2173.4662421973976
  0
LINE
  8
_0-0_
  6
CONTINUOUS
 62
    7
 10
2594.996358216039
 20
2166.7442171546022
 11
2593.0892988521618
 21
2168.1746355447067
  0
LINE
  8
_0-0_
  6
CONTINUOUS
 62
    7
 10
2598.8949543720969
 20
2168.2083274222709
 11
2598.1599264255365
 21
2170.1676587432507
  0
LINE
  8
_0-0_
  6
CONTINUOUS
 62
    7
 10
2598.1599264255365
 20
2170.1676587432507
 11
2598.9306281248118
 21
2172.1705913175488
  0
LINE
  8
_0-0_
  6
CONTINUOUS
 62
    7
 10
2609.2351402371087
 20
2188.4834056839518
 11
2608.3385894657563
 21
2189.1111646379745
  0
LINE
  8
_0-0_
  6
CONTINUOUS
 62
    7
 10
2608.3385894657563
 20
2189.1111646379745
 11
2607.317428294296
 21
2190.5153231823306
  0
LINE
  8
_0-0_
  6
CONTINUOUS
 62
    7
 10
2603.1304693037937
 20
2185.4657530324339
 11
2603.8942344400411
 21
2187.8660515744714
  0
LINE
  8
_0-0_
  6
CONTINUOUS
 62
    7
 10
2607.0771259322592
 20
2184.1567244953171
 11
2608.409689236792
 21
2184.5119756161016
  0
LINE
  8
_0-0_
  6
CONTINUOUS
 62
    7
 10
2644.8506753693214
 20
2141.7017382176227
 11
2644.8506753693214
 21
2180.8271742419388
  0
LINE
  8
_0-0_
  6
CONTINUOUS
 62
    7
 10
2639.9680782008813
 20
2219.8195768967557
 11
2601.2620565053576
 21
2219.8195768967557
  0
LINE
  8
_0-0_
  6
CONTINUOUS
 62
    7
 10
2561.8507349905358
 20
2214.9372274627094
 11
2561.8507349905358
 21
2177.3777205419356
  0
LINE
  8
_0-0_
  6
CONTINUOUS
 62
    7
 10
2566.7328366901884
 20
2136.8193887835764
 11
2613.5137609533358
 21
2136.8193887835764
  0
LINE
  8
_0-0_
  6
CONTINUOUS
 62
    7
 10
2644.8506753693214
 20
2190.0807970555134
 11
2644.8506753693214
 21
2214.9372274627094
  0
LINE
  8
_0-0_
  6
CONTINUOUS
 62
    7
 10
2625.0277123764217
 20
2136.8193887835764
 11
2639.9680782008813
 21
2136.8193887835764
  0
LINE
  8
_0-0_
  6
CONTINUOUS
 62
    7
 10
2561.8507349905358
 20
2168.4607687696066
 11
2561.8507349905358
 21
2141.7017382176227
  0
LINE
  8
_0-0_
  6
CONTINUOUS
 62
    7
 10
2593.0511477555087
 20
2219.8195768967557
 11
2566.7328366901884
 21
2219.8195768967557
  0
LINE
  8
_0-0_
  6
CONTINUOUS
 62
    7
 10
2426.0358037175361
 20
2194.9829652410676
 11
2401.2866423028777
 21
2190.7999700008672
  0
LINE
  8
_0-0_
  6
CONTINUOUS
 62
    7
 10
2402.2637067522323
 20
2185.894333533799
 11
2429.4329854604357
 21
2190.4863382582498
  0
LINE
  8
_0-0_
  6
CONTINUOUS
 62
    7
 10
2386.185744591201
 20
2211.0138578672668
 11
2399.231437771477
 21
2191.9065995382066
  0
LINE
  8
_0-0_
  6
CONTINUOUS
 62
    7
 10
2379.2419972659077
 20
2212.3166930445373
 11
2394.392194121961
 21
2190.1268756527697
  0
LINE
  8
_0-0_
  6
CONTINUOUS
 62
    7
 10
2394.5301821793369
 20
2185.8160494653416
 11
2387.0012862157637
 21
2174.7856755790563
  0
LINE
  8
_0-0_
  6
CONTINUOUS
 62
    7
 10
2399.8703447732223
 20
2184.7711057920715
 11
2392.2849653678513
 21
2173.6577408838457
  0
LINE
  8
_0-0_
  6
CONTINUOUS
 62
    7
 10
2392.305031853753
 20
2170.3182812547134
 11
2410.4726336269305
 21
2149.4330331809733
  0
LINE
  8
_0-0_
  6
CONTINUOUS
 62
    7
 10
2389.4709503880799
 20
2165.9581559229082
 11
2408.7246197439067
 21
2143.8240787697573
  0
LINE
  8
_0-0_
  6
CONTINUOUS
 62
    7
 10
2385.1861363120061
 20
2167.4524897866268
 11
2369.6566580989647
 21
2159.5718109837831
  0
LINE
  8
_0-0_
  6
CONTINUOUS
 62
    7
 10
2384.6027218144832
 20
2172.7636674564319
 11
2374.2236416496366
 21
2167.4965865087324
  0
LINE
  8
_0-0_
  6
CONTINUOUS
 62
    7
 10
2392.2849653678513
 20
2173.6577408838457
 11
2391.8219497857408
 21
2172.0900776395465
  0
LINE
  8
_0-0_
  6
CONTINUOUS
 62
    7
 10
2391.8219497857408
 20
2172.0900776395465
 11
2392.305031853753
 21
2170.3182812547134
  0
LINE
  8
_0-0_
  6
CONTINUOUS
 62
    7
 10
2389.4709503880799
 20
2165.9581559229082
 11
2387.6067490743394
 21
2167.4653719751072
  0
LINE
  8
_0-0_
  6
CONTINUOUS
 62
    7
 10
2386.5727057143986
 20
2167.7299523077418
 11
2385.1861363120061
 21
2167.4524897866268
  0
LINE
  8
_0-0_
  6
CONTINUOUS
 62
    7
 10
2387.0012862157637
 20
2174.7856755790563
 11
2384.6027218144832
 21
2172.7636674564319
  0
LINE
  8
_0-0_
  6
CONTINUOUS
 62
    7
 10
2387.6067490743394
 20
2167.4653719751072
 11
2386.5727057143986
 21
2167.7299523077418
  0
LINE
  8
_0-0_
  6
CONTINUOUS
 62
    7
 10
2402.2637067522323
 20
2185.894333533799
 11
2400.6425328788609
 21
2185.3753299786777
  0
LINE
  8
_0-0_
  6
CONTINUOUS
 62
    7
 10
2400.6425328788609
 20
2185.3753299786777
 11
2399.8703447732223
 21
2184.7711057920715
  0
LINE
  8
_0-0_
  6
CONTINUOUS
 62
    7
 10
2394.392194121961
 20
2190.1268756527697
 11
2395.1975786363755
 21
2187.8799247005272
  0
LINE
  8
_0-0_
  6
CONTINUOUS
 62
    7
 10
2395.1975786363755
 20
2187.8799247005272
 11
2394.5301821793369
 21
2185.8160494653416
  0
LINE
  8
_0-0_
  6
CONTINUOUS
 62
    7
 10
2399.231437771477
 20
2191.9065995382066
 11
2401.2866423028777
 21
2190.7999700008672
  0
LINE
  8
_0-0_
  6
CONTINUOUS
 62
    7
 10
2385.6362697056361
 20
2219.8195768967557
 11
2383.6137661142238
 21
2218.497170702371
  0
LINE
  8
_0-0_
  6
CONTINUOUS
 62
    7
 10
2383.6137661142238
 20
2218.497170702371
 11
2383.2884908550955
 21
2217.194830993888
  0
LINE
  8
_0-0_
  6
CONTINUOUS
 62
    7
 10
2383.2884908550955
 20
2217.194830993888
 11
2386.185744591201
 21
2211.0138578672668
  0
LINE
  8
_0-0_
  6
CONTINUOUS
 62
    7
 10
2369.881105459795
 20
2219.8195768967557
 11
2371.8951860818161
 21
2219.1482166894152
  0
LINE
  8
_0-0_
  6
CONTINUOUS
 62
    7
 10
2371.8951860818161
 20
2219.1482166894152
 11
2375.1504160170389
 21
2217.194830993888
  0
LINE
  8
_0-0_
  6
CONTINUOUS
 62
    7
 10
2375.1504160170389
 20
2217.194830993888
 11
2379.2419972659077
 21
2212.3166930445373
  0
LINE
  8
_0-0_
  6
CONTINUOUS
 62
    7
 10
2444.8106024900458
 20
2201.8959935015232
 11
2442.8574645289123
 21
2199.6173325468676
  0
LINE
  8
_0-0_
  6
CONTINUOUS
 62
    7
 10
2442.8574645289123
 20
2199.6173325468676
 11
2440.2535283151283
 21
2198.3152405727783
  0
LINE
  8
_0-0_
  6
CONTINUOUS
 62
    7
 10
2440.2535283151283
 20
2198.3152405727783
 11
2426.0358037175361
 21
2194.9829652410676
  0
LINE
  8
_0-0_
  6
CONTINUOUS
 62
    7
 10
2429.4329854604357
 20
2190.4863382582498
 11
2434.3941144317273
 21
2190.8284594561601
  0
LINE
  8
_0-0_
  6
CONTINUOUS
 62
    7
 10
2434.3941144317273
 20
2190.8284594561601
 11
2440.2535283151283
 21
2191.1537347152889
  0
LINE
  8
_0-0_
  6
CONTINUOUS
 62
    7
 10
2440.2535283151283
 20
2191.1537347152889
 11
2442.5319415353902
 21
2190.8284594561601
  0
LINE
  8
_0-0_
  6
CONTINUOUS
 62
    7
 10
2442.5319415353902
 20
2190.8284594561601
 11
2444.4848317621295
 21
2189.2008444885487
  0
LINE
  8
_0-0_
  6
CONTINUOUS
 62
    7
 10
2444.4848317621295
 20
2189.2008444885487
 11
2444.8504877274563
 21
2188.3134598897691
  0
LINE
  8
_0-0_
  6
CONTINUOUS
 62
    7
 10
2374.2236416496366
 20
2167.4965865087324
 11
2367.9891578939432
 21
2165.1128861710831
  0
LINE
  8
_0-0_
  6
CONTINUOUS
 62
    7
 10
2367.9891578939432
 20
2165.1128861710831
 11
2364.4084049651983
 21
2164.1360694561226
  0
LINE
  8
_0-0_
  6
CONTINUOUS
 62
    7
 10
2364.4084049651983
 20
2164.1360694561226
 11
2362.4555147384585
 21
2164.1360694561226
  0
LINE
  8
_0-0_
  6
CONTINUOUS
 62
    7
 10
2362.4555147384585
 20
2164.1360694561226
 11
2361.8505473486703
 21
2164.7841426304408
  0
LINE
  8
_0-0_
  6
CONTINUOUS
 62
    7
 10
2369.6566580989647
 20
2159.5718109837831
 11
2367.0125889133765
 21
2157.9513803135933
  0
LINE
  8
_0-0_
  6
CONTINUOUS
 62
    7
 10
2367.0125889133765
 20
2157.9513803135933
 11
2362.4555147384585
 21
2155.021673371893
  0
LINE
  8
_0-0_
  6
CONTINUOUS
 62
    7
 10
2362.4555147384585
 20
2155.021673371893
 11
2361.8505473486703
 21
2154.071116502681
  0
LINE
  8
_0-0_
  6
CONTINUOUS
 62
    7
 10
2410.4726336269305
 20
2149.4330331809733
 11
2420.7226441725797
 21
2139.7225881451345
  0
LINE
  8
_0-0_
  6
CONTINUOUS
 62
    7
 10
2420.7226441725797
 20
2139.7225881451345
 11
2426.8914783139026
 21
2136.8193887835764
  0
LINE
  8
_0-0_
  6
CONTINUOUS
 62
    7
 10
2408.7246197439067
 20
2143.8240787697573
 11
2410.3061561142617
 21
2140.0481111386571
  0
LINE
  8
_0-0_
  6
CONTINUOUS
 62
    7
 10
2410.3061561142617
 20
2140.0481111386571
 11
2409.9803853863455
 21
2138.0949731775231
  0
LINE
  8
_0-0_
  6
CONTINUOUS
 62
    7
 10
2409.9803853863455
 20
2138.0949731775231
 11
2409.2302456417601
 21
2136.8193887835764
  0
LINE
  8
_0-0_
  6
CONTINUOUS
 62
    7
 10
2361.8505473486703
 20
2141.7017382176227
 11
2361.8505473486703
 21
2154.071116502681
  0
LINE
  8
_0-0_
  6
CONTINUOUS
 62
    7
 10
2366.7326490483229
 20
2219.8195768967557
 11
2369.881105459795
 21
2219.8195768967557
  0
LINE
  8
_0-0_
  6
CONTINUOUS
 62
    7
 10
2444.8504877274563
 20
2214.9372274627094
 11
2444.8504877274563
 21
2201.8959935015232
  0
LINE
  8
_0-0_
  6
CONTINUOUS
 62
    7
 10
2439.96813829341
 20
2136.8193887835764
 11
2426.8914783139026
 21
2136.8193887835764
  0
LINE
  8
_0-0_
  6
CONTINUOUS
 62
    7
 10
2444.8504877274563
 20
2188.3134598897691
 11
2444.8504877274563
 21
2141.7017382176227
  0
LINE
  8
_0-0_
  6
CONTINUOUS
 62
    7
 10
2385.6362697056361
 20
2219.8195768967557
 11
2439.96813829341
 21
2219.8195768967557
  0
LINE
  8
_0-0_
  6
CONTINUOUS
 62
    7
 10
2361.8505473486703
 20
2164.7841426304408
 11
2361.8505473486703
 21
2214.9372274627094
  0
LINE
  8
_0-0_
  6
CONTINUOUS
 62
    7
 10
2409.2302456417601
 20
2136.8193887835764
 11
2366.7326490483229
 21
2136.8193887835764
  0
LINE
  8
_0-0_
  6
CONTINUOUS
 62
    7
 10
2444.4749223863755
 20
2096.7347251862629
 11
2444.8504877274563
 21
2097.2812272591018
  0
LINE
  8
_0-0_
  6
CONTINUOUS
 62
    7
 10
2444.4749223863755
 20
2096.7347251862629
 11
2441.8442308580552
 21
2095.273339996927
  0
LINE
  8
_0-0_
  6
CONTINUOUS
 62
    7
 10
2441.8442308580552
 20
2095.273339996927
 11
2436.0217293993387
 21
2093.2277971068866
  0
LINE
  8
_0-0_
  6
CONTINUOUS
 62
    7
 10
2438.7101430414264
 20
2089.6356483960244
 11
2440.7958189032711
 21
2089.5365546384833
  0
LINE
  8
_0-0_
  6
CONTINUOUS
 62
    7
 10
2440.7958189032711
 20
2089.5365546384833
 11
2442.8416095277057
 21
2089.2442280537371
  0
LINE
  8
_0-0_
  6
CONTINUOUS
 62
    7
 10
2442.8416095277057
 20
2089.2442280537371
 11
2444.8504877274563
 21
2087.965918581458
  0
LINE
  8
_0-0_
  6
CONTINUOUS
 62
    7
 10
2409.05856570682
 20
2045.0336719940069
 11
2410.8120297465084
 21
2040.234561316295
  0
LINE
  8
_0-0_
  6
CONTINUOUS
 62
    7
 10
2405.1242957980476
 20
2044.270526193744
 11
2405.1242957980476
 21
2040.6524892387242
  0
LINE
  8
_0-0_
  6
CONTINUOUS
 62
    7
 10
2405.1242957980476
 20
2040.6524892387242
 11
2404.8319692133014
 21
2038.8989013318387
  0
LINE
  8
_0-0_
  6
CONTINUOUS
 62
    7
 10
2404.8319692133014
 20
2038.8989013318387
 11
2402.9506742263852
 21
2036.8194188298407
  0
LINE
  8
_0-0_
  6
CONTINUOUS
 62
    7
 10
2375.7410148119834
 20
2069.3902982616055
 11
2369.6640901307801
 21
2068.9711316672074
  0
LINE
  8
_0-0_
  6
CONTINUOUS
 62
    7
 10
2369.6640901307801
 20
2068.9711316672074
 11
2365.2801822971655
 21
2069.2634582519531
  0
LINE
  8
_0-0_
  6
CONTINUOUS
 62
    7
 10
2365.2801822971655
 20
2069.2634582519531
 11
2362.649738503239
 21
2069.8478636870514
  0
LINE
  8
_0-0_
  6
CONTINUOUS
 62
    7
 10
2362.649738503239
 20
2069.8478636870514
 11
2361.8505473486703
 21
2070.6470548416196
  0
LINE
  8
_0-0_
  6
CONTINUOUS
 62
    7
 10
2365.1976867440126
 20
2063.2407874030037
 11
2363.0414065799196
 21
2061.4765469171825
  0
LINE
  8
_0-0_
  6
CONTINUOUS
 62
    7
 10
2363.0414065799196
 20
2061.4765469171825
 11
2361.8505473486703
 21
2060.0473671990471
  0
LINE
  8
_0-0_
  6
CONTINUOUS
 62
    7
 10
2401.7674947613455
 20
2119.8193592086263
 11
2401.1048052577898
 21
2117.8317861667474
  0
LINE
  8
_0-0_
  6
CONTINUOUS
 62
    7
 10
2401.1048052577898
 20
2117.8317861667474
 11
2402.7869217920488
 21
2110.62221983685
  0
LINE
  8
_0-0_
  6
CONTINUOUS
 62
    7
 10
2399.6617524135986
 20
2107.1378355873135
 11
2396.4332777929121
 21
2114.5170999769998
  0
LINE
  8
_0-0_
  6
CONTINUOUS
 62
    7
 10
2396.4332777929121
 20
2114.5170999769998
 11
2394.4541277204239
 21
2117.9098225008106
  0
LINE
  8
_0-0_
  6
CONTINUOUS
 62
    7
 10
2394.4541277204239
 20
2117.9098225008106
 11
2393.1810206704158
 21
2119.8193592086263
  0
LINE
  8
_0-0_
  6
CONTINUOUS
 62
    7
 10
2402.5334895071373
 20
2070.2018761358668
 11
2409.05856570682
 21
2045.0336719940069
  0
LINE
  8
_0-0_
  6
CONTINUOUS
 62
    7
 10
2399.7643144526537
 20
2064.9437136263459
 11
2405.1242957980476
 21
2044.270526193744
  0
LINE
  8
_0-0_
  6
CONTINUOUS
 62
    7
 10
2395.1415906633652
 20
2069.1276998041217
 11
2365.1976867440126
 21
2063.2407874030037
  0
LINE
  8
_0-0_
  6
CONTINUOUS
 62
    7
 10
2396.8432782147379
 20
2073.5388584210605
 11
2375.7410148119834
 21
2069.3902982616055
  0
LINE
  8
_0-0_
  6
CONTINUOUS
 62
    7
 10
2404.3736605846743
 20
2083.9122406948486
 11
2399.691480540861
 21
2075.6716038177374
  0
LINE
  8
_0-0_
  6
CONTINUOUS
 62
    7
 10
2408.7526137304121
 20
2083.522306758925
 11
2402.8265592950652
 21
2073.0921933089444
  0
LINE
  8
_0-0_
  6
CONTINUOUS
 62
    7
 10
2409.6295934846503
 20
2084.5702232449212
 11
2438.7101430414264
 21
2089.6356483960244
  0
LINE
  8
_0-0_
  6
CONTINUOUS
 62
    7
 10
2416.2889417258011
 20
2089.7902346577885
 11
2436.0217293993387
 21
2093.2277971068866
  0
LINE
  8
_0-0_
  6
CONTINUOUS
 62
    7
 10
2409.0209100789543
 20
2090.0042771740768
 11
2402.7869217920488
 21
2110.62221983685
  0
LINE
  8
_0-0_
  6
CONTINUOUS
 62
    7
 10
2405.2773956534484
 20
2088.5651880801875
 11
2399.6617524135986
 21
2107.1378355873135
  0
LINE
  8
_0-0_
  6
CONTINUOUS
 62
    7
 10
2402.8265592950652
 20
2073.0921933089444
 11
2402.4252295770239
 21
2071.7673097706206
  0
LINE
  8
_0-0_
  6
CONTINUOUS
 62
    7
 10
2402.4252295770239
 20
2071.7673097706206
 11
2402.5334895071373
 21
2070.2018761358668
  0
LINE
  8
_0-0_
  6
CONTINUOUS
 62
    7
 10
2395.1415906633652
 20
2069.1276998041217
 11
2397.6503968699099
 21
2069.2394280157496
  0
LINE
  8
_0-0_
  6
CONTINUOUS
 62
    7
 10
2397.6503968699099
 20
2069.2394280157496
 11
2399.0545554142664
 21
2068.1159525396279
  0
LINE
  8
_0-0_
  6
CONTINUOUS
 62
    7
 10
2399.0545554142664
 20
2068.1159525396279
 11
2399.7643144526537
 21
2064.9437136263459
  0
LINE
  8
_0-0_
  6
CONTINUOUS
 62
    7
 10
2399.691480540861
 20
2075.6716038177374
 11
2399.3352384825012
 21
2074.8568053963563
  0
LINE
  8
_0-0_
  6
CONTINUOUS
 62
    7
 10
2399.3352384825012
 20
2074.8568053963563
 11
2397.9310799381446
 21
2074.0142607228636
  0
LINE
  8
_0-0_
  6
CONTINUOUS
 62
    7
 10
2397.9310799381446
 20
2074.0142607228636
 11
2396.8432782147379
 21
2073.5388584210605
  0
LINE
  8
_0-0_
  6
CONTINUOUS
 62
    7
 10
2405.2773956534484
 20
2088.5651880801875
 11
2405.2337944001301
 21
2086.93460029985
  0
LINE
  8
_0-0_
  6
CONTINUOUS
 62
    7
 10
2405.2337944001301
 20
2086.93460029985
 11
2404.9528635975016
 21
2085.2492632184708
  0
LINE
  8
_0-0_
  6
CONTINUOUS
 62
    7
 10
2404.9528635975016
 20
2085.2492632184708
 11
2404.3736605846743
 21
2083.9122406948486
  0
LINE
  8
_0-0_
  6
CONTINUOUS
 62
    7
 10
2408.7526137304121
 20
2083.522306758925
 11
2409.6295934846503
 21
2084.5702232449212
  0
LINE
  8
_0-0_
  6
CONTINUOUS
 62
    7
 10
2416.2889417258011
 20
2089.7902346577885
 11
2412.5367565965103
 21
2089.1815512520925
  0
LINE
  8
_0-0_
  6
CONTINUOUS
 62
    7
 10
2412.5367565965103
 20
2089.1815512520925
 11
2410.5704887125021
 21
2089.1815512520925
  0
LINE
  8
_0-0_
  6
CONTINUOUS
 62
    7
 10
2410.5704887125021
 20
2089.1815512520925
 11
2409.0209100789543
 21
2090.0042771740768
  0
LINE
  8
_0-0_
  6
CONTINUOUS
 62
    7
 10
2410.8120297465084
 20
2040.234561316295
 11
2411.6939641886238
 21
2038.3428614848369
  0
LINE
  8
_0-0_
  6
CONTINUOUS
 62
    7
 10
2411.6939641886238
 20
2038.3428614848369
 11
2413.4350415086196
 21
2036.8194188298407
  0
LINE
  8
_0-0_
  6
CONTINUOUS
 62
    7
 10
2361.8505473486703
 20
2041.7018921310837
 11
2361.8505473486703
 21
2060.0473671990471
  0
LINE
  8
_0-0_
  6
CONTINUOUS
 62
    7
 10
2366.7326490483229
 20
2119.8193592086263
 11
2393.1810206704158
 21
2119.8193592086263
  0
LINE
  8
_0-0_
  6
CONTINUOUS
 62
    7
 10
2444.8504877274563
 20
2114.9372575089737
 11
2444.8504877274563
 21
2097.2812272591018
  0
LINE
  8
_0-0_
  6
CONTINUOUS
 62
    7
 10
2439.96813829341
 20
2036.8194188298407
 11
2413.4350415086196
 21
2036.8194188298407
  0
LINE
  8
_0-0_
  6
CONTINUOUS
 62
    7
 10
2444.8504877274563
 20
2087.965918581458
 11
2444.8504877274563
 21
2041.7018921310837
  0
LINE
  8
_0-0_
  6
CONTINUOUS
 62
    7
 10
2401.7674947613455
 20
2119.8193592086263
 11
2439.96813829341
 21
2119.8193592086263
  0
LINE
  8
_0-0_
  6
CONTINUOUS
 62
    7
 10
2361.8505473486703
 20
2070.6470548416196
 11
2361.8505473486703
 21
2114.9372575089737
  0
LINE
  8
_0-0_
  6
CONTINUOUS
 62
    7
 10
2402.9506742263852
 20
2036.8194188298407
 11
2366.7326490483229
 21
2036.8194188298407
  0
LINE
  8
_0-0_
  6
CONTINUOUS
 62
    7
 10
2521.765823658829
 20
1934.1951984420245
 11
2522.3123257316679
 21
1933.8193853665503
  0
LINE
  8
_0-0_
  6
CONTINUOUS
 62
    7
 10
2521.765823658829
 20
1934.1951984420245
 11
2520.3044384694927
 21
1936.825518368754
  0
LINE
  8
_0-0_
  6
CONTINUOUS
 62
    7
 10
2520.3044384694927
 20
1936.825518368754
 11
2518.2586478450585
 21
1942.6482675618647
  0
LINE
  8
_0-0_
  6
CONTINUOUS
 62
    7
 10
2514.6667468685901
 20
1939.9598539197766
 11
2514.5674053766552
 21
1937.8739303235379
  0
LINE
  8
_0-0_
  6
CONTINUOUS
 62
    7
 10
2514.5674053766552
 20
1937.8739303235379
 11
2514.2750787919094
 21
1935.8281396991038
  0
LINE
  8
_0-0_
  6
CONTINUOUS
 62
    7
 10
2514.2750787919094
 20
1935.8281396991038
 11
2512.9970170540237
 21
1933.8193853665503
  0
LINE
  8
_0-0_
  6
CONTINUOUS
 62
    7
 10
2470.0648943337692
 20
1969.6113073871861
 11
2465.2657836560575
 21
1967.8579672146948
  0
LINE
  8
_0-0_
  6
CONTINUOUS
 62
    7
 10
2469.3013769319159
 20
1973.5455772959588
 11
2465.6834638440928
 21
1973.5455772959588
  0
LINE
  8
_0-0_
  6
CONTINUOUS
 62
    7
 10
2465.6834638440928
 20
1973.5455772959588
 11
2463.9297520700111
 21
1973.8380277479016
  0
LINE
  8
_0-0_
  6
CONTINUOUS
 62
    7
 10
2463.9297520700111
 20
1973.8380277479016
 11
2461.8505173024064
 21
1975.719322734818
  0
LINE
  8
_0-0_
  6
CONTINUOUS
 62
    7
 10
2494.4213967341711
 20
2002.9288582820229
 11
2494.002230139773
 21
2009.0056590960294
  0
LINE
  8
_0-0_
  6
CONTINUOUS
 62
    7
 10
2494.002230139773
 20
2009.0056590960294
 11
2494.294308990125
 21
2013.3898146640379
  0
LINE
  8
_0-0_
  6
CONTINUOUS
 62
    7
 10
2494.294308990125
 20
2013.3898146640379
 11
2494.878962159617
 21
2016.0201345907674
  0
LINE
  8
_0-0_
  6
CONTINUOUS
 62
    7
 10
2494.878962159617
 20
2016.0201345907674
 11
2495.6784010485794
 21
2016.8195734797296
  0
LINE
  8
_0-0_
  6
CONTINUOUS
 62
    7
 10
2488.2718858755693
 20
2013.4719386156003
 11
2486.5075215225515
 21
2015.6287142484805
  0
LINE
  8
_0-0_
  6
CONTINUOUS
 62
    7
 10
2486.5075215225515
 20
2015.6287142484805
 11
2485.0783418044157
 21
2016.8195734797296
  0
LINE
  8
_0-0_
  6
CONTINUOUS
 62
    7
 10
2544.850457681192
 20
1976.9026260670548
 11
2542.8626369049189
 21
1977.5650678362167
  0
LINE
  8
_0-0_
  6
CONTINUOUS
 62
    7
 10
2542.8626369049189
 20
1977.5650678362167
 11
2535.6535660438094
 21
1975.8829513019577
  0
LINE
  8
_0-0_
  6
CONTINUOUS
 62
    7
 10
2532.1689340598796
 20
1979.0083684148017
 11
2539.5481984495655
 21
1982.2367191682911
  0
LINE
  8
_0-0_
  6
CONTINUOUS
 62
    7
 10
2539.5481984495655
 20
1982.2367191682911
 11
2542.9411687077704
 21
1984.2157453735822
  0
LINE
  8
_0-0_
  6
CONTINUOUS
 62
    7
 10
2542.9411687077704
 20
1984.2157453735822
 11
2544.850457681192
 21
1985.4887285563937
  0
LINE
  8
_0-0_
  6
CONTINUOUS
 62
    7
 10
2495.2329746084324
 20
1976.1365074540658
 11
2470.0648943337692
 21
1969.6113073871861
  0
LINE
  8
_0-0_
  6
CONTINUOUS
 62
    7
 10
2489.9745643645178
 20
1978.9054347741558
 11
2469.3013769319159
 21
1973.5455772959588
  0
LINE
  8
_0-0_
  6
CONTINUOUS
 62
    7
 10
2494.1587982766878
 20
1983.5282824306414
 11
2488.2718858755693
 21
2013.4719386156003
  0
LINE
  8
_0-0_
  6
CONTINUOUS
 62
    7
 10
2498.5699568936261
 20
1981.8267187464651
 11
2494.4213967341711
 21
2002.9288582820229
  0
LINE
  8
_0-0_
  6
CONTINUOUS
 62
    7
 10
2508.9430914330205
 20
1974.2963363765289
 11
2500.702702290303
 21
1978.9783925531451
  0
LINE
  8
_0-0_
  6
CONTINUOUS
 62
    7
 10
2508.5534052314906
 20
1969.9171354963971
 11
2498.1230440471163
 21
1975.8435615333351
  0
LINE
  8
_0-0_
  6
CONTINUOUS
 62
    7
 10
2509.6013217174868
 20
1969.0404034765529
 11
2514.6667468685901
 21
1939.9598539197766
  0
LINE
  8
_0-0_
  6
CONTINUOUS
 62
    7
 10
2514.8215808647478
 20
1962.3808075010086
 11
2518.2586478450585
 21
1942.6482675618647
  0
LINE
  8
_0-0_
  6
CONTINUOUS
 62
    7
 10
2515.0356233810367
 20
1969.6489630150518
 11
2535.6535660438094
 21
1975.8829513019577
  0
LINE
  8
_0-0_
  6
CONTINUOUS
 62
    7
 10
2513.5965342871468
 20
1973.3927251749517
 11
2532.1689340598796
 21
1979.0083684148017
  0
LINE
  8
_0-0_
  6
CONTINUOUS
 62
    7
 10
2498.1230440471163
 20
1975.8435615333351
 11
2496.798160508793
 21
1976.2448912513762
  0
LINE
  8
_0-0_
  6
CONTINUOUS
 62
    7
 10
2496.798160508793
 20
1976.2448912513762
 11
2495.2329746084324
 21
1976.1365074540658
  0
LINE
  8
_0-0_
  6
CONTINUOUS
 62
    7
 10
2494.1587982766878
 20
1983.5282824306414
 11
2494.270278753921
 21
1981.0197239584904
  0
LINE
  8
_0-0_
  6
CONTINUOUS
 62
    7
 10
2494.270278753921
 20
1981.0197239584904
 11
2493.1468032777998
 21
1979.6153176797404
  0
LINE
  8
_0-0_
  6
CONTINUOUS
 62
    7
 10
2493.1468032777998
 20
1979.6153176797404
 11
2489.9745643645178
 21
1978.9054347741558
  0
LINE
  8
_0-0_
  6
CONTINUOUS
 62
    7
 10
2500.702702290303
 20
1978.9783925531451
 11
2499.887903868922
 21
1979.3345107443085
  0
LINE
  8
_0-0_
  6
CONTINUOUS
 62
    7
 10
2499.887903868922
 20
1979.3345107443085
 11
2499.0453591954292
 21
1980.7389170230585
  0
LINE
  8
_0-0_
  6
CONTINUOUS
 62
    7
 10
2499.0453591954292
 20
1980.7389170230585
 11
2498.5699568936261
 21
1981.8267187464651
  0
LINE
  8
_0-0_
  6
CONTINUOUS
 62
    7
 10
2513.5965342871468
 20
1973.3927251749517
 11
2511.9656987724156
 21
1973.4359548266789
  0
LINE
  8
_0-0_
  6
CONTINUOUS
 62
    7
 10
2511.9656987724156
 20
1973.4359548266789
 11
2510.2806094254306
 21
1973.7168856293079
  0
LINE
  8
_0-0_
  6
CONTINUOUS
 62
    7
 10
2510.2806094254306
 20
1973.7168856293079
 11
2508.9430914330205
 21
1974.2963363765289
  0
LINE
  8
_0-0_
  6
CONTINUOUS
 62
    7
 10
2508.5534052314906
 20
1969.9171354963971
 11
2509.6013217174868
 21
1969.0404034765529
  0
LINE
  8
_0-0_
  6
CONTINUOUS
 62
    7
 10
2514.8215808647478
 20
1962.3808075010086
 11
2514.2128974590523
 21
1966.1332403646932
  0
LINE
  8
_0-0_
  6
CONTINUOUS
 62
    7
 10
2514.2128974590523
 20
1966.1332403646932
 11
2514.2128974590523
 21
1968.099384381504
  0
LINE
  8
_0-0_
  6
CONTINUOUS
 62
    7
 10
2514.2128974590523
 20
1968.099384381504
 11
2515.0356233810367
 21
1969.6489630150518
  0
LINE
  8
_0-0_
  6
CONTINUOUS
 62
    7
 10
2465.2657836560575
 20
1967.8579672146948
 11
2463.3738360902057
 21
1966.9757850381859
  0
LINE
  8
_0-0_
  6
CONTINUOUS
 62
    7
 10
2463.3738360902057
 20
1966.9757850381859
 11
2461.8505173024064
 21
1965.2348315853872
  0
LINE
  8
_0-0_
  6
CONTINUOUS
 62
    7
 10
2466.7328667364527
 20
2016.8195734797296
 11
2485.0783418044157
 21
2016.8195734797296
  0
LINE
  8
_0-0_
  6
CONTINUOUS
 62
    7
 10
2544.850457681192
 20
2011.9371001784864
 11
2544.850457681192
 21
1985.4887285563937
  0
LINE
  8
_0-0_
  6
CONTINUOUS
 62
    7
 10
2539.9681082471457
 20
1933.8193853665503
 11
2522.3123257316679
 21
1933.8193853665503
  0
LINE
  8
_0-0_
  6
CONTINUOUS
 62
    7
 10
2461.8505173024064
 20
1938.7018586677934
 11
2461.8505173024064
 21
1965.2348315853872
  0
LINE
  8
_0-0_
  6
CONTINUOUS
 62
    7
 10
2512.9970170540237
 20
1933.8193853665503
 11
2466.7328667364527
 21
1933.8193853665503
  0
LINE
  8
_0-0_
  6
CONTINUOUS
 62
    7
 10
2544.850457681192
 20
1976.9026260670548
 11
2544.850457681192
 21
1938.7018586677934
  0
LINE
  8
_0-0_
  6
CONTINUOUS
 62
    7
 10
2495.6784010485794
 20
2016.8195734797296
 11
2539.9681082471457
 21
2016.8195734797296
  0
LINE
  8
_0-0_
  6
CONTINUOUS
 62
    7
 10
2461.8505173024064
 20
1975.719322734818
 11
2461.8505173024064
 21
2011.9371001784864
  0
LINE
  8
_0-0_
  6
CONTINUOUS
 62
    7
 10
2562.2263003316166
 20
1856.9041733023744
 11
2561.8507349905358
 21
1856.3577950967326
  0
LINE
  8
_0-0_
  6
CONTINUOUS
 62
    7
 10
2562.2263003316166
 20
1856.9041733023744
 11
2564.856496391149
 21
1858.3655584917105
  0
LINE
  8
_0-0_
  6
CONTINUOUS
 62
    7
 10
2564.856496391149
 20
1858.3655584917105
 11
2570.6792455842597
 21
1860.4113491161452
  0
LINE
  8
_0-0_
  6
CONTINUOUS
 62
    7
 10
2567.990831942172
 20
1864.0032500926131
 11
2565.9049083459331
 21
1864.1024677173509
  0
LINE
  8
_0-0_
  6
CONTINUOUS
 62
    7
 10
2565.9049083459331
 20
1864.1024677173509
 11
2563.8591177214989
 21
1864.3946704349003
  0
LINE
  8
_0-0_
  6
CONTINUOUS
 62
    7
 10
2563.8591177214989
 20
1864.3946704349003
 11
2561.8507349905358
 21
1865.6729799071795
  0
LINE
  8
_0-0_
  6
CONTINUOUS
 62
    7
 10
2597.6424092767779
 20
1908.6052264946306
 11
2595.8889452370895
 21
1913.4043371723424
  0
LINE
  8
_0-0_
  6
CONTINUOUS
 62
    7
 10
2601.5769269199445
 20
1909.3686200292873
 11
2601.5769269199445
 21
1912.9864092499133
  0
LINE
  8
_0-0_
  6
CONTINUOUS
 62
    7
 10
2601.5769269199445
 20
1912.9864092499133
 11
2601.869005770297
 21
1914.7399971567986
  0
LINE
  8
_0-0_
  6
CONTINUOUS
 62
    7
 10
2601.869005770297
 20
1914.7399971567986
 11
2603.7503007572127
 21
1916.8194796587968
  0
LINE
  8
_0-0_
  6
CONTINUOUS
 62
    7
 10
2630.959960171615
 20
1884.2487240942287
 11
2637.0366371184241
 21
1884.6678906886273
  0
LINE
  8
_0-0_
  6
CONTINUOUS
 62
    7
 10
2637.0366371184241
 20
1884.6678906886273
 11
2641.4207926864328
 21
1884.3756879710782
  0
LINE
  8
_0-0_
  6
CONTINUOUS
 62
    7
 10
2641.4207926864328
 20
1884.3756879710782
 11
2644.0512364803594
 21
1883.7910348015862
  0
LINE
  8
_0-0_
  6
CONTINUOUS
 62
    7
 10
2644.0512364803594
 20
1883.7910348015862
 11
2644.8506753693214
 21
1882.9917197798209
  0
LINE
  8
_0-0_
  6
CONTINUOUS
 62
    7
 10
2641.5030405051921
 20
1890.3981110856339
 11
2643.6598161380721
 21
1892.162351571455
  0
LINE
  8
_0-0_
  6
CONTINUOUS
 62
    7
 10
2643.6598161380721
 20
1892.162351571455
 11
2644.8506753693214
 21
1893.5916551567875
  0
LINE
  8
_0-0_
  6
CONTINUOUS
 62
    7
 10
2604.9337279566462
 20
1833.8196631472083
 11
2605.5961697258085
 21
1835.8073600562843
  0
LINE
  8
_0-0_
  6
CONTINUOUS
 62
    7
 10
2605.5961697258085
 20
1835.8073600562843
 11
2603.9140531915496
 21
1843.0166786517875
  0
LINE
  8
_0-0_
  6
CONTINUOUS
 62
    7
 10
2607.0394703043935
 20
1846.5010629013238
 11
2610.2676971906862
 21
1839.1220462460317
  0
LINE
  8
_0-0_
  6
CONTINUOUS
 62
    7
 10
2610.2676971906862
 20
1839.1220462460317
 11
2612.2468472631745
 21
1835.7291998550238
  0
LINE
  8
_0-0_
  6
CONTINUOUS
 62
    7
 10
2612.2468472631745
 20
1835.7291998550238
 11
2613.5197065787884
 21
1833.8196631472083
  0
LINE
  8
_0-0_
  6
CONTINUOUS
 62
    7
 10
2604.1674854764606
 20
1883.4371462199679
 11
2597.6424092767779
 21
1908.6052264946306
  0
LINE
  8
_0-0_
  6
CONTINUOUS
 62
    7
 10
2606.9364127965509
 20
1888.6955564638822
 11
2601.5769269199445
 21
1909.3686200292873
  0
LINE
  8
_0-0_
  6
CONTINUOUS
 62
    7
 10
2611.5593843202332
 20
1884.5113225517125
 11
2641.5030405051921
 21
1890.3981110856339
  0
LINE
  8
_0-0_
  6
CONTINUOUS
 62
    7
 10
2609.8576967688596
 20
1880.1001639347739
 11
2630.959960171615
 21
1884.2487240942287
  0
LINE
  8
_0-0_
  6
CONTINUOUS
 62
    7
 10
2602.327314398924
 20
1869.7267816609858
 11
2607.0094944427369
 21
1877.9672946709002
  0
LINE
  8
_0-0_
  6
CONTINUOUS
 62
    7
 10
2597.9483612531862
 20
1870.1167155969097
 11
2603.8746634229265
 21
1880.54682904689
  0
LINE
  8
_0-0_
  6
CONTINUOUS
 62
    7
 10
2597.0713814989476
 20
1869.0687991109132
 11
2567.990831942172
 21
1864.0032500926131
  0
LINE
  8
_0-0_
  6
CONTINUOUS
 62
    7
 10
2590.4117855234035
 20
1863.8485399636522
 11
2570.6792455842597
 21
1860.4113491161452
  0
LINE
  8
_0-0_
  6
CONTINUOUS
 62
    7
 10
2597.6800649046436
 20
1863.6344974473636
 11
2603.9140531915496
 21
1843.0166786517875
  0
LINE
  8
_0-0_
  6
CONTINUOUS
 62
    7
 10
2601.4238270645437
 20
1865.0737104084501
 11
2607.0394703043935
 21
1846.5010629013238
  0
LINE
  8
_0-0_
  6
CONTINUOUS
 62
    7
 10
2603.8746634229265
 20
1880.54682904689
 11
2604.2759931409682
 21
1881.8715887180167
  0
LINE
  8
_0-0_
  6
CONTINUOUS
 62
    7
 10
2604.2759931409682
 20
1881.8715887180167
 11
2604.1674854764606
 21
1883.4371462199679
  0
LINE
  8
_0-0_
  6
CONTINUOUS
 62
    7
 10
2611.5593843202332
 20
1884.5113225517125
 11
2609.0508258480822
 21
1884.399470472888
  0
LINE
  8
_0-0_
  6
CONTINUOUS
 62
    7
 10
2609.0508258480822
 20
1884.399470472888
 11
2607.646419569332
 21
1885.5230698162063
  0
LINE
  8
_0-0_
  6
CONTINUOUS
 62
    7
 10
2607.646419569332
 20
1885.5230698162063
 11
2606.9364127965509
 21
1888.6955564638822
  0
LINE
  8
_0-0_
  6
CONTINUOUS
 62
    7
 10
2607.0094944427369
 20
1877.9672946709002
 11
2607.3654887667035
 21
1878.7820930922815
  0
LINE
  8
_0-0_
  6
CONTINUOUS
 62
    7
 10
2607.3654887667035
 20
1878.7820930922815
 11
2608.7698950454533
 21
1879.6246377657737
  0
LINE
  8
_0-0_
  6
CONTINUOUS
 62
    7
 10
2608.7698950454533
 20
1879.6246377657737
 11
2609.8576967688596
 21
1880.1001639347739
  0
LINE
  8
_0-0_
  6
CONTINUOUS
 62
    7
 10
2601.4238270645437
 20
1865.0737104084501
 11
2601.4669328490736
 21
1866.7042981887878
  0
LINE
  8
_0-0_
  6
CONTINUOUS
 62
    7
 10
2601.4669328490736
 20
1866.7042981887878
 11
2601.747863651703
 21
1868.3896352701665
  0
LINE
  8
_0-0_
  6
CONTINUOUS
 62
    7
 10
2601.747863651703
 20
1868.3896352701665
 11
2602.327314398924
 21
1869.7267816609858
  0
LINE
  8
_0-0_
  6
CONTINUOUS
 62
    7
 10
2597.9483612531862
 20
1870.1167155969097
 11
2597.0713814989476
 21
1869.0687991109132
  0
LINE
  8
_0-0_
  6
CONTINUOUS
 62
    7
 10
2590.4117855234035
 20
1863.8485399636522
 11
2594.1642183870881
 21
1864.4573472365448
  0
LINE
  8
_0-0_
  6
CONTINUOUS
 62
    7
 10
2594.1642183870881
 20
1864.4573472365448
 11
2596.1304862710958
 21
1864.4573472365448
  0
LINE
  8
_0-0_
  6
CONTINUOUS
 62
    7
 10
2596.1304862710958
 20
1864.4573472365448
 11
2597.6800649046436
 21
1863.6344974473636
  0
LINE
  8
_0-0_
  6
CONTINUOUS
 62
    7
 10
2595.8889452370895
 20
1913.4043371723424
 11
2595.0067630605809
 21
1915.2960370038004
  0
LINE
  8
_0-0_
  6
CONTINUOUS
 62
    7
 10
2595.0067630605809
 20
1915.2960370038004
 11
2593.2659334749787
 21
1916.8194796587968
  0
LINE
  8
_0-0_
  6
CONTINUOUS
 62
    7
 10
2644.8506753693214
 20
1911.9370063575539
 11
2644.8506753693214
 21
1893.5916551567875
  0
LINE
  8
_0-0_
  6
CONTINUOUS
 62
    7
 10
2639.9680782008813
 20
1833.8196631472083
 11
2613.5197065787884
 21
1833.8196631472083
  0
LINE
  8
_0-0_
  6
CONTINUOUS
 62
    7
 10
2561.8507349905358
 20
1838.7018887140575
 11
2561.8507349905358
 21
1856.3577950967326
  0
LINE
  8
_0-0_
  6
CONTINUOUS
 62
    7
 10
2566.7328366901884
 20
1916.8194796587968
 11
2593.2659334749787
 21
1916.8194796587968
  0
LINE
  8
_0-0_
  6
CONTINUOUS
 62
    7
 10
2561.8507349905358
 20
1865.6729799071795
 11
2561.8507349905358
 21
1911.9370063575539
  0
LINE
  8
_0-0_
  6
CONTINUOUS
 62
    7
 10
2604.9337279566462
 20
1833.8196631472083
 11
2566.7328366901884
 21
1833.8196631472083
  0
LINE
  8
_0-0_
  6
CONTINUOUS
 62
    7
 10
2644.8506753693214
 20
1882.9917197798209
 11
2644.8506753693214
 21
1838.7018887140575
  0
LINE
  8
_0-0_
  6
CONTINUOUS
 62
    7
 10
2603.7503007572127
 20
1916.8194796587968
 11
2639.9680782008813
 21
1916.8194796587968
  0
LINE
  8
_0-0_
  6
CONTINUOUS
 62
    7
 10
2520.0140937598976
 20
2055.6339789725639
 11
2515.8310985196972
 21
2080.3832642544189
  0
LINE
  8
_0-0_
  6
CONTINUOUS
 62
    7
 10
2510.9252143182348
 20
2079.4059520706705
 11
2515.5172190426861
 21
2052.2369210968604
  0
LINE
  8
_0-0_
  6
CONTINUOUS
 62
    7
 10
2536.0449863860968
 20
2095.4841619660956
 11
2516.9377280570366
 21
2082.4387165202138
  0
LINE
  8
_0-0_
  6
CONTINUOUS
 62
    7
 10
2537.3475738289735
 20
2102.4279092913889
 11
2515.1580041715997
 21
2087.2779601697293
  0
LINE
  8
_0-0_
  6
CONTINUOUS
 62
    7
 10
2510.8471779841711
 20
2087.1399721123539
 11
2499.8168040978862
 21
2094.6686203415329
  0
LINE
  8
_0-0_
  6
CONTINUOUS
 62
    7
 10
2509.8022343109014
 20
2081.7995617840738
 11
2498.6888694026757
 21
2089.384693455052
  0
LINE
  8
_0-0_
  6
CONTINUOUS
 62
    7
 10
2495.3494097735429
 20
2089.3648747035431
 11
2474.4636662310154
 21
2071.1972729303661
  0
LINE
  8
_0-0_
  6
CONTINUOUS
 62
    7
 10
2490.989036707344
 20
2092.1989561692171
 11
2468.8549595541936
 21
2072.9452868133899
  0
LINE
  8
_0-0_
  6
CONTINUOUS
 62
    7
 10
2492.4836183054567
 20
2096.4835225108968
 11
2484.602939502613
 21
2112.0134961927256
  0
LINE
  8
_0-0_
  6
CONTINUOUS
 62
    7
 10
2497.7945482408677
 20
2097.0671847428134
 11
2492.5274672931687
 21
2107.4462649076604
  0
LINE
  8
_0-0_
  6
CONTINUOUS
 62
    7
 10
2498.6888694026757
 20
2089.384693455052
 11
2497.1212061583765
 21
2089.8479567715558
  0
LINE
  8
_0-0_
  6
CONTINUOUS
 62
    7
 10
2497.1212061583765
 20
2089.8479567715558
 11
2495.3494097735429
 21
2089.3648747035431
  0
LINE
  8
_0-0_
  6
CONTINUOUS
 62
    7
 10
2490.989036707344
 20
2092.1989561692171
 11
2492.4965004939368
 21
2094.0631574829572
  0
LINE
  8
_0-0_
  6
CONTINUOUS
 62
    7
 10
2492.7610808265713
 20
2095.097200842898
 11
2492.4836183054567
 21
2096.4835225108968
  0
LINE
  8
_0-0_
  6
CONTINUOUS
 62
    7
 10
2499.8168040978862
 20
2094.6686203415329
 11
2497.7945482408677
 21
2097.0671847428134
  0
LINE
  8
_0-0_
  6
CONTINUOUS
 62
    7
 10
2492.4965004939368
 20
2094.0631574829572
 11
2492.7610808265713
 21
2095.097200842898
  0
LINE
  8
_0-0_
  6
CONTINUOUS
 62
    7
 10
2510.9252143182348
 20
2079.4059520706705
 11
2510.4064584975076
 21
2081.0276214128294
  0
LINE
  8
_0-0_
  6
CONTINUOUS
 62
    7
 10
2510.4064584975076
 20
2081.0276214128294
 11
2509.8022343109014
 21
2081.7995617840738
  0
LINE
  8
_0-0_
  6
CONTINUOUS
 62
    7
 10
2515.1580041715997
 20
2087.2779601697293
 11
2512.9110532193572
 21
2086.4720801865274
  0
LINE
  8
_0-0_
  6
CONTINUOUS
 62
    7
 10
2512.9110532193572
 20
2086.4720801865274
 11
2510.8471779841711
 21
2087.1399721123539
  0
LINE
  8
_0-0_
  6
CONTINUOUS
 62
    7
 10
2516.9377280570366
 20
2082.4387165202138
 11
2515.8310985196972
 21
2080.3832642544189
  0
LINE
  8
_0-0_
  6
CONTINUOUS
 62
    7
 10
2544.850457681192
 20
2096.0333891172668
 11
2543.5282992212005
 21
2098.0561404430728
  0
LINE
  8
_0-0_
  6
CONTINUOUS
 62
    7
 10
2543.5282992212005
 20
2098.0561404430728
 11
2542.225959512718
 21
2098.3816634365949
  0
LINE
  8
_0-0_
  6
CONTINUOUS
 62
    7
 10
2542.225959512718
 20
2098.3816634365949
 11
2536.0449863860968
 21
2095.4841619660956
  0
LINE
  8
_0-0_
  6
CONTINUOUS
 62
    7
 10
2544.850457681192
 20
2111.7888010975016
 11
2544.1793452082452
 21
2109.7744727410864
  0
LINE
  8
_0-0_
  6
CONTINUOUS
 62
    7
 10
2544.1793452082452
 20
2109.7744727410864
 11
2542.225959512718
 21
2106.5194905402577
  0
LINE
  8
_0-0_
  6
CONTINUOUS
 62
    7
 10
2542.225959512718
 20
2106.5194905402577
 11
2537.3475738289735
 21
2102.4279092913889
  0
LINE
  8
_0-0_
  6
CONTINUOUS
 62
    7
 10
2526.9268742859595
 20
2036.8593040672508
 11
2524.6482133313034
 21
2038.8125658955812
  0
LINE
  8
_0-0_
  6
CONTINUOUS
 62
    7
 10
2524.6482133313034
 20
2038.8125658955812
 11
2523.3463690916083
 21
2041.4166259765625
  0
LINE
  8
_0-0_
  6
CONTINUOUS
 62
    7
 10
2523.3463690916083
 20
2041.4166259765625
 11
2520.0140937598976
 21
2055.6339789725639
  0
LINE
  8
_0-0_
  6
CONTINUOUS
 62
    7
 10
2515.5172190426861
 20
2052.2369210968604
 11
2515.8593402405963
 21
2047.2757921255693
  0
LINE
  8
_0-0_
  6
CONTINUOUS
 62
    7
 10
2515.8593402405963
 20
2047.2757921255693
 11
2516.1848632341184
 21
2041.4166259765625
  0
LINE
  8
_0-0_
  6
CONTINUOUS
 62
    7
 10
2516.1848632341184
 20
2041.4166259765625
 11
2515.8593402405963
 21
2039.1379650219069
  0
LINE
  8
_0-0_
  6
CONTINUOUS
 62
    7
 10
2515.8593402405963
 20
2039.1379650219069
 11
2514.2319730073787
 21
2037.18495092797
  0
LINE
  8
_0-0_
  6
CONTINUOUS
 62
    7
 10
2514.2319730073787
 20
2037.18495092797
 11
2513.3445884085991
 21
2036.8194188298407
  0
LINE
  8
_0-0_
  6
CONTINUOUS
 62
    7
 10
2492.5274672931687
 20
2107.4462649076604
 11
2490.1435192211252
 21
2113.6809963977475
  0
LINE
  8
_0-0_
  6
CONTINUOUS
 62
    7
 10
2490.1435192211252
 20
2113.6809963977475
 11
2489.1671979749522
 21
2117.2612538577046
  0
LINE
  8
_0-0_
  6
CONTINUOUS
 62
    7
 10
2489.1671979749522
 20
2117.2612538577046
 11
2489.1671979749522
 21
2119.2146395532322
  0
LINE
  8
_0-0_
  6
CONTINUOUS
 62
    7
 10
2489.1671979749522
 20
2119.2146395532322
 11
2489.8152711492708
 21
2119.8193592086263
  0
LINE
  8
_0-0_
  6
CONTINUOUS
 62
    7
 10
2484.602939502613
 20
2112.0134961927256
 11
2482.9822610980295
 21
2114.6573176439206
  0
LINE
  8
_0-0_
  6
CONTINUOUS
 62
    7
 10
2482.9822610980295
 20
2114.6573176439206
 11
2480.052801890723
 21
2119.2146395532322
  0
LINE
  8
_0-0_
  6
CONTINUOUS
 62
    7
 10
2480.052801890723
 20
2119.2146395532322
 11
2479.1019972871168
 21
2119.8193592086263
  0
LINE
  8
_0-0_
  6
CONTINUOUS
 62
    7
 10
2474.4636662310154
 20
2071.1972729303661
 11
2464.7534689295703
 21
2060.9475101191101
  0
LINE
  8
_0-0_
  6
CONTINUOUS
 62
    7
 10
2464.7534689295703
 20
2060.9475101191101
 11
2461.8505173024064
 21
2054.778304376197
  0
LINE
  8
_0-0_
  6
CONTINUOUS
 62
    7
 10
2468.8549595541936
 20
2072.9452868133899
 11
2465.0787441886991
 21
2071.363998177429
  0
LINE
  8
_0-0_
  6
CONTINUOUS
 62
    7
 10
2465.0787441886991
 20
2071.363998177429
 11
2463.1258539619594
 21
2071.6892734365574
  0
LINE
  8
_0-0_
  6
CONTINUOUS
 62
    7
 10
2463.1258539619594
 20
2071.6892734365574
 11
2461.8505173024064
 21
2072.4396609155369
  0
LINE
  8
_0-0_
  6
CONTINUOUS
 62
    7
 10
2466.7328667364527
 20
2119.8193592086263
 11
2479.1019972871168
 21
2119.8193592086263
  0
LINE
  8
_0-0_
  6
CONTINUOUS
 62
    7
 10
2544.850457681192
 20
2114.9372575089737
 11
2544.850457681192
 21
2111.7888010975016
  0
LINE
  8
_0-0_
  6
CONTINUOUS
 62
    7
 10
2539.9681082471457
 20
2036.8194188298407
 11
2526.9268742859595
 21
2036.8194188298407
  0
LINE
  8
_0-0_
  6
CONTINUOUS
 62
    7
 10
2461.8505173024064
 20
2041.7018921310837
 11
2461.8505173024064
 21
2054.778304376197
  0
LINE
  8
_0-0_
  6
CONTINUOUS
 62
    7
 10
2513.3445884085991
 20
2036.8194188298407
 11
2466.7328667364527
 21
2036.8194188298407
  0
LINE
  8
_0-0_
  6
CONTINUOUS
 62
    7
 10
2544.850457681192
 20
2096.0333891172668
 11
2544.850457681192
 21
2041.7018921310837
  0
LINE
  8
_0-0_
  6
CONTINUOUS
 62
    7
 10
2489.8152711492708
 20
2119.8193592086263
 11
2539.9681082471457
 21
2119.8193592086263
  0
LINE
  8
_0-0_
  6
CONTINUOUS
 62
    7
 10
2461.8505173024064
 20
2072.4396609155369
 11
2461.8505173024064
 21
2114.9372575089737
  0
LINE
  8
_0-0_
  6
CONTINUOUS
 62
    7
 10
2580.6651712660623
 20
1958.6561208894354
 11
2605.4143326807207
 21
1962.8391161296358
  0
LINE
  8
_0-0_
  6
CONTINUOUS
 62
    7
 10
2604.4370204969719
 20
1967.7448764639009
 11
2577.2679895231622
 21
1963.1528717394499
  0
LINE
  8
_0-0_
  6
CONTINUOUS
 62
    7
 10
2620.5152303923974
 20
1942.6249805288423
 11
2607.4695372121214
 21
1961.7323627250994
  0
LINE
  8
_0-0_
  6
CONTINUOUS
 62
    7
 10
2627.4587299832965
 20
1941.3225169531624
 11
2612.3087808616374
 21
1963.5119627433394
  0
LINE
  8
_0-0_
  6
CONTINUOUS
 62
    7
 10
2612.1710405386552
 20
1967.8227889307677
 11
2619.6996887678347
 21
1978.8531628170529
  0
LINE
  8
_0-0_
  6
CONTINUOUS
 62
    7
 10
2606.8306302103756
 20
1968.8677326040377
 11
2614.4157618813533
 21
1979.9809736450666
  0
LINE
  8
_0-0_
  6
CONTINUOUS
 62
    7
 10
2614.3956953954512
 20
1983.3206810085928
 11
2596.2283413566679
 21
2004.20605294953
  0
LINE
  8
_0-0_
  6
CONTINUOUS
 62
    7
 10
2617.2300245955184
 20
1987.6808063403978
 11
2597.9763552396912
 21
2009.8148834935487
  0
LINE
  8
_0-0_
  6
CONTINUOUS
 62
    7
 10
2621.5145909371986
 20
1986.1863486094826
 11
2637.0443168846341
 21
1994.0670274123261
  0
LINE
  8
_0-0_
  6
CONTINUOUS
 62
    7
 10
2622.098005434721
 20
1980.8755425412683
 11
2632.4770855995675
 21
1986.1424996217704
  0
LINE
  8
_0-0_
  6
CONTINUOUS
 62
    7
 10
2614.4157618813533
 20
1979.9809736450666
 11
2614.8790251978571
 21
1981.5487607565626
  0
LINE
  8
_0-0_
  6
CONTINUOUS
 62
    7
 10
2614.8790251978571
 20
1981.5487607565626
 11
2614.3956953954512
 21
1983.3206810085928
  0
LINE
  8
_0-0_
  6
CONTINUOUS
 62
    7
 10
2617.2300245955184
 20
1987.6808063403978
 11
2619.094225909259
 21
1986.1737141553958
  0
LINE
  8
_0-0_
  6
CONTINUOUS
 62
    7
 10
2620.1282692691993
 20
1985.9091338227613
 11
2621.5145909371986
 21
1986.1863486094826
  0
LINE
  8
_0-0_
  6
CONTINUOUS
 62
    7
 10
2619.6996887678347
 20
1978.8531628170529
 11
2622.098005434721
 21
1980.8755425412683
  0
LINE
  8
_0-0_
  6
CONTINUOUS
 62
    7
 10
2619.094225909259
 20
1986.1737141553958
 11
2620.1282692691993
 21
1985.9091338227613
  0
LINE
  8
_0-0_
  6
CONTINUOUS
 62
    7
 10
2604.4370204969719
 20
1967.7448764639009
 11
2606.058442104737
 21
1968.2635084174312
  0
LINE
  8
_0-0_
  6
CONTINUOUS
 62
    7
 10
2606.058442104737
 20
1968.2635084174312
 11
2606.8306302103756
 21
1968.8677326040377
  0
LINE
  8
_0-0_
  6
CONTINUOUS
 62
    7
 10
2612.3087808616374
 20
1963.5119627433394
 11
2611.5031486128287
 21
1965.7589136955821
  0
LINE
  8
_0-0_
  6
CONTINUOUS
 62
    7
 10
2611.5031486128287
 20
1965.7589136955821
 11
2612.1710405386552
 21
1967.8227889307677
  0
LINE
  8
_0-0_
  6
CONTINUOUS
 62
    7
 10
2607.4695372121214
 20
1961.7323627250994
 11
2605.4143326807207
 21
1962.8391161296358
  0
LINE
  8
_0-0_
  6
CONTINUOUS
 62
    7
 10
2621.0647052779623
 20
1933.8193853665503
 11
2623.0869611349808
 21
1935.1419154281323
  0
LINE
  8
_0-0_
  6
CONTINUOUS
 62
    7
 10
2623.0869611349808
 20
1935.1419154281323
 11
2623.4127318628962
 21
1936.4440074022214
  0
LINE
  8
_0-0_
  6
CONTINUOUS
 62
    7
 10
2623.4127318628962
 20
1936.4440074022214
 11
2620.5152303923974
 21
1942.6249805288423
  0
LINE
  8
_0-0_
  6
CONTINUOUS
 62
    7
 10
2636.8196217894092
 20
1933.8193853665503
 11
2634.8055411673881
 21
1934.4909933082845
  0
LINE
  8
_0-0_
  6
CONTINUOUS
 62
    7
 10
2634.8055411673881
 20
1934.4909933082845
 11
2631.5505589665595
 21
1936.4440074022214
  0
LINE
  8
_0-0_
  6
CONTINUOUS
 62
    7
 10
2631.5505589665595
 20
1936.4440074022214
 11
2627.4587299832965
 21
1941.3225169531624
  0
LINE
  8
_0-0_
  6
CONTINUOUS
 62
    7
 10
2561.8906202279463
 20
1951.7432164961767
 11
2563.8435104546857
 21
1954.0218774508323
  0
LINE
  8
_0-0_
  6
CONTINUOUS
 62
    7
 10
2563.8435104546857
 20
1954.0218774508323
 11
2566.4476944028638
 21
1955.3238455577248
  0
LINE
  8
_0-0_
  6
CONTINUOUS
 62
    7
 10
2566.4476944028638
 20
1955.3238455577248
 11
2580.6651712660623
 21
1958.6561208894354
  0
LINE
  8
_0-0_
  6
CONTINUOUS
 62
    7
 10
2577.2679895231622
 20
1963.1528717394499
 11
2572.3068605518711
 21
1962.8106266743428
  0
LINE
  8
_0-0_
  6
CONTINUOUS
 62
    7
 10
2572.3068605518711
 20
1962.8106266743428
 11
2566.4476944028638
 21
1962.4849798136236
  0
LINE
  8
_0-0_
  6
CONTINUOUS
 62
    7
 10
2566.4476944028638
 20
1962.4849798136236
 11
2564.1690334482082
 21
1962.8106266743428
  0
LINE
  8
_0-0_
  6
CONTINUOUS
 62
    7
 10
2564.1690334482082
 20
1962.8106266743428
 11
2562.2158954870747
 21
1964.438365509151
  0
LINE
  8
_0-0_
  6
CONTINUOUS
 62
    7
 10
2562.2158954870747
 20
1964.438365509151
 11
2561.8507349905358
 21
1965.325626240734
  0
LINE
  8
_0-0_
  6
CONTINUOUS
 62
    7
 10
2632.4770855995675
 20
1986.1424996217704
 11
2638.7118170896556
 21
1988.5263238266168
  0
LINE
  8
_0-0_
  6
CONTINUOUS
 62
    7
 10
2638.7118170896556
 20
1988.5263238266168
 11
2642.2925700183996
 21
1989.5027689399865
  0
LINE
  8
_0-0_
  6
CONTINUOUS
 62
    7
 10
2642.2925700183996
 20
1989.5027689399865
 11
2644.245707979534
 21
1989.5027689399865
  0
LINE
  8
_0-0_
  6
CONTINUOUS
 62
    7
 10
2644.245707979534
 20
1989.5027689399865
 11
2644.8506753693214
 21
1988.8546957656683
  0
LINE
  8
_0-0_
  6
CONTINUOUS
 62
    7
 10
2637.0443168846341
 20
1994.0670274123261
 11
2639.6883860702219
 21
1995.6877058169096
  0
LINE
  8
_0-0_
  6
CONTINUOUS
 62
    7
 10
2639.6883860702219
 20
1995.6877058169096
 11
2644.245707979534
 21
1998.6171650242161
  0
LINE
  8
_0-0_
  6
CONTINUOUS
 62
    7
 10
2644.245707979534
 20
1998.6171650242161
 11
2644.8506753693214
 21
1999.5678457606252
  0
LINE
  8
_0-0_
  6
CONTINUOUS
 62
    7
 10
2596.2283413566679
 20
2004.20605294953
 11
2585.9785785454119
 21
2013.9163741181715
  0
LINE
  8
_0-0_
  6
CONTINUOUS
 62
    7
 10
2585.9785785454119
 20
2013.9163741181715
 11
2579.8094966696954
 21
2016.8195734797296
  0
LINE
  8
_0-0_
  6
CONTINUOUS
 62
    7
 10
2597.9763552396912
 20
2009.8148834935487
 11
2596.3950666037308
 21
2013.5909749918462
  0
LINE
  8
_0-0_
  6
CONTINUOUS
 62
    7
 10
2596.3950666037308
 20
2013.5909749918462
 11
2596.7203418628587
 21
2015.5441129529797
  0
LINE
  8
_0-0_
  6
CONTINUOUS
 62
    7
 10
2596.7203418628587
 20
2015.5441129529797
 11
2597.470977076232
 21
2016.8195734797296
  0
LINE
  8
_0-0_
  6
CONTINUOUS
 62
    7
 10
2644.8506753693214
 20
2011.9371001784864
 11
2644.8506753693214
 21
1999.5678457606252
  0
LINE
  8
_0-0_
  6
CONTINUOUS
 62
    7
 10
2639.9680782008813
 20
1933.8193853665503
 11
2636.8196217894092
 21
1933.8193853665503
  0
LINE
  8
_0-0_
  6
CONTINUOUS
 62
    7
 10
2561.8507349905358
 20
1938.7018586677934
 11
2561.8507349905358
 21
1951.7432164961767
  0
LINE
  8
_0-0_
  6
CONTINUOUS
 62
    7
 10
2566.7328366901884
 20
2016.8195734797296
 11
2579.8094966696954
 21
2016.8195734797296
  0
LINE
  8
_0-0_
  6
CONTINUOUS
 62
    7
 10
2561.8507349905358
 20
1965.325626240734
 11
2561.8507349905358
 21
2011.9371001784864
  0
LINE
  8
_0-0_
  6
CONTINUOUS
 62
    7
 10
2621.0647052779623
 20
1933.8193853665503
 11
2566.7328366901884
 21
1933.8193853665503
  0
LINE
  8
_0-0_
  6
CONTINUOUS
 62
    7
 10
2644.8506753693214
 20
1988.8546957656683
 11
2644.8506753693214
 21
1938.7018586677934
  0
LINE
  8
_0-0_
  6
CONTINUOUS
 62
    7
 10
2597.470977076232
 20
2016.8195734797296
 11
2639.9680782008813
 21
2016.8195734797296
  0
LINE
  8
_0-0_
  6
CONTINUOUS
 62
    7
 10
2686.6870688655663
 20
1898.0049195160736
 11
2690.8700641057662
 21
1873.2557581014155
  0
LINE
  8
_0-0_
  6
CONTINUOUS
 62
    7
 10
2695.7757005728349
 20
1874.2329464179668
 11
2691.1836958483836
 21
1901.4021012589737
  0
LINE
  8
_0-0_
  6
CONTINUOUS
 62
    7
 10
2670.6561762393671
 20
1858.154736522542
 11
2689.7634345684269
 21
1871.2005535700146
  0
LINE
  8
_0-0_
  6
CONTINUOUS
 62
    7
 10
2669.3533410620967
 20
1851.2111130644457
 11
2691.54291071947
 21
1866.3610621861048
  0
LINE
  8
_0-0_
  6
CONTINUOUS
 62
    7
 10
2695.8539846412923
 20
1866.4989263762836
 11
2706.8843585275772
 21
1858.9702781471046
  0
LINE
  8
_0-0_
  6
CONTINUOUS
 62
    7
 10
2696.8989283145625
 20
1871.8394605717604
 11
2708.0120454883945
 21
1864.2542050335855
  0
LINE
  8
_0-0_
  6
CONTINUOUS
 62
    7
 10
2711.3515051175268
 20
1864.2741476522908
 11
2732.2372486600543
 21
1882.4417494254683
  0
LINE
  8
_0-0_
  6
CONTINUOUS
 62
    7
 10
2715.711630449332
 20
1861.4400661866175
 11
2737.8459553368766
 21
1880.6936116752477
  0
LINE
  8
_0-0_
  6
CONTINUOUS
 62
    7
 10
2714.2175443200067
 20
1857.1553759777407
 11
2722.0982231228509
 21
1841.6257738975023
  0
LINE
  8
_0-0_
  6
CONTINUOUS
 62
    7
 10
2708.9066143845957
 20
1856.571837613021
 11
2714.1736953322952
 21
1846.1927574481742
  0
LINE
  8
_0-0_
  6
CONTINUOUS
 62
    7
 10
2708.0120454883945
 20
1864.2542050335855
 11
2709.579956467087
 21
1863.7909417170815
  0
LINE
  8
_0-0_
  6
CONTINUOUS
 62
    7
 10
2709.579956467087
 20
1863.7909417170815
 11
2711.3515051175268
 21
1864.2741476522908
  0
LINE
  8
_0-0_
  6
CONTINUOUS
 62
    7
 10
2715.711630449332
 20
1861.4400661866175
 11
2714.2046621315267
 21
1859.5758648728772
  0
LINE
  8
_0-0_
  6
CONTINUOUS
 62
    7
 10
2713.9400817988922
 20
1858.5416976457395
 11
2714.2175443200067
 21
1857.1553759777407
  0
LINE
  8
_0-0_
  6
CONTINUOUS
 62
    7
 10
2706.8843585275772
 20
1858.9702781471046
 11
2708.9066143845957
 21
1856.571837613021
  0
LINE
  8
_0-0_
  6
CONTINUOUS
 62
    7
 10
2714.2046621315267
 20
1859.5758648728772
 11
2713.9400817988922
 21
1858.5416976457395
  0
LINE
  8
_0-0_
  6
CONTINUOUS
 62
    7
 10
2695.7757005728349
 20
1874.2329464179668
 11
2696.2947041279563
 21
1872.6114009430048
  0
LINE
  8
_0-0_
  6
CONTINUOUS
 62
    7
 10
2696.2947041279563
 20
1872.6114009430048
 11
2696.8989283145625
 21
1871.8394605717604
  0
LINE
  8
_0-0_
  6
CONTINUOUS
 62
    7
 10
2691.54291071947
 20
1866.3610621861048
 11
2693.7901094061067
 21
1867.1668183021102
  0
LINE
  8
_0-0_
  6
CONTINUOUS
 62
    7
 10
2693.7901094061067
 20
1867.1668183021102
 11
2695.8539846412923
 21
1866.4989263762836
  0
LINE
  8
_0-0_
  6
CONTINUOUS
 62
    7
 10
2689.7634345684269
 20
1871.2005535700146
 11
2690.8700641057662
 21
1873.2557581014155
  0
LINE
  8
_0-0_
  6
CONTINUOUS
 62
    7
 10
2661.8504572098777
 20
1857.6053855041737
 11
2663.1731111386571
 21
1855.5828819127619
  0
LINE
  8
_0-0_
  6
CONTINUOUS
 62
    7
 10
2663.1731111386571
 20
1855.5828819127619
 11
2664.4752031127455
 21
1855.2574827864362
  0
LINE
  8
_0-0_
  6
CONTINUOUS
 62
    7
 10
2664.4752031127455
 20
1855.2574827864362
 11
2670.6561762393671
 21
1858.154736522542
  0
LINE
  8
_0-0_
  6
CONTINUOUS
 62
    7
 10
2661.8504572098777
 20
1841.8502212583328
 11
2662.522065151612
 21
1843.8644257475512
  0
LINE
  8
_0-0_
  6
CONTINUOUS
 62
    7
 10
2662.522065151612
 20
1843.8644257475512
 11
2664.4752031127455
 21
1847.1194079483798
  0
LINE
  8
_0-0_
  6
CONTINUOUS
 62
    7
 10
2664.4752031127455
 20
1847.1194079483798
 11
2669.3533410620967
 21
1851.2111130644457
  0
LINE
  8
_0-0_
  6
CONTINUOUS
 62
    7
 10
2679.7742883395044
 20
1916.7797182885838
 11
2682.0527015597663
 21
1914.8265803274501
  0
LINE
  8
_0-0_
  6
CONTINUOUS
 62
    7
 10
2682.0527015597663
 20
1914.8265803274501
 11
2683.3547935338556
 21
1912.2223963792721
  0
LINE
  8
_0-0_
  6
CONTINUOUS
 62
    7
 10
2683.3547935338556
 20
1912.2223963792721
 11
2686.6870688655663
 21
1898.0049195160736
  0
LINE
  8
_0-0_
  6
CONTINUOUS
 62
    7
 10
2691.1836958483836
 20
1901.4021012589737
 11
2690.8418223848676
 21
1906.3632302302651
  0
LINE
  8
_0-0_
  6
CONTINUOUS
 62
    7
 10
2690.8418223848676
 20
1906.3632302302651
 11
2690.5160516569513
 21
1912.2223963792721
  0
LINE
  8
_0-0_
  6
CONTINUOUS
 62
    7
 10
2690.5160516569513
 20
1912.2223963792721
 11
2690.8418223848676
 21
1914.5010573339277
  0
LINE
  8
_0-0_
  6
CONTINUOUS
 62
    7
 10
2690.8418223848676
 20
1914.5010573339277
 11
2692.4691896180848
 21
1916.4540714278644
  0
LINE
  8
_0-0_
  6
CONTINUOUS
 62
    7
 10
2692.4691896180848
 20
1916.4540714278644
 11
2693.3565742168644
 21
1916.8194796587968
  0
LINE
  8
_0-0_
  6
CONTINUOUS
 62
    7
 10
2714.1736953322952
 20
1846.1927574481742
 11
2716.5573956699445
 21
1839.9583975596779
  0
LINE
  8
_0-0_
  6
CONTINUOUS
 62
    7
 10
2716.5573956699445
 20
1839.9583975596779
 11
2717.5339646505113
 21
1836.3776446309328
  0
LINE
  8
_0-0_
  6
CONTINUOUS
 62
    7
 10
2717.5339646505113
 20
1836.3776446309328
 11
2717.5339646505113
 21
1834.4246305369961
  0
LINE
  8
_0-0_
  6
CONTINUOUS
 62
    7
 10
2717.5339646505113
 20
1834.4246305369961
 11
2716.8858914761927
 21
1833.8196631472083
  0
LINE
  8
_0-0_
  6
CONTINUOUS
 62
    7
 10
2722.0982231228509
 20
1841.6257738975023
 11
2723.7186537930402
 21
1838.9817047119141
  0
LINE
  8
_0-0_
  6
CONTINUOUS
 62
    7
 10
2723.7186537930402
 20
1838.9817047119141
 11
2726.6483607347409
 21
1834.4246305369961
  0
LINE
  8
_0-0_
  6
CONTINUOUS
 62
    7
 10
2726.6483607347409
 20
1834.4246305369961
 11
2727.5989176039529
 21
1833.8196631472083
  0
LINE
  8
_0-0_
  6
CONTINUOUS
 62
    7
 10
2732.2372486600543
 20
1882.4417494254683
 11
2741.9474459614994
 21
1892.6916361039209
  0
LINE
  8
_0-0_
  6
CONTINUOUS
 62
    7
 10
2741.9474459614994
 20
1892.6916361039209
 11
2744.8503975886638
 21
1898.8605941124406
  0
LINE
  8
_0-0_
  6
CONTINUOUS
 62
    7
 10
2737.8459553368766
 20
1880.6936116752477
 11
2741.6219229679768
 21
1882.2751480456022
  0
LINE
  8
_0-0_
  6
CONTINUOUS
 62
    7
 10
2741.6219229679768
 20
1882.2751480456022
 11
2743.5750609291108
 21
1881.9495011848833
  0
LINE
  8
_0-0_
  6
CONTINUOUS
 62
    7
 10
2743.5750609291108
 20
1881.9495011848833
 11
2744.8503975886638
 21
1881.1993614402977
  0
LINE
  8
_0-0_
  6
CONTINUOUS
 62
    7
 10
2739.9682958890112
 20
1833.8196631472083
 11
2727.5989176039529
 21
1833.8196631472083
  0
LINE
  8
_0-0_
  6
CONTINUOUS
 62
    7
 10
2661.8504572098777
 20
1838.7018887140575
 11
2661.8504572098777
 21
1841.8502212583328
  0
LINE
  8
_0-0_
  6
CONTINUOUS
 62
    7
 10
2666.7330543783182
 20
1916.8194796587968
 11
2679.7742883395044
 21
1916.8194796587968
  0
LINE
  8
_0-0_
  6
CONTINUOUS
 62
    7
 10
2744.8503975886638
 20
1911.9370063575539
 11
2744.8503975886638
 21
1898.8605941124406
  0
LINE
  8
_0-0_
  6
CONTINUOUS
 62
    7
 10
2693.3565742168644
 20
1916.8194796587968
 11
2739.9682958890112
 21
1916.8194796587968
  0
LINE
  8
_0-0_
  6
CONTINUOUS
 62
    7
 10
2661.8504572098777
 20
1857.6053855041737
 11
2661.8504572098777
 21
1911.9370063575539
  0
LINE
  8
_0-0_
  6
CONTINUOUS
 62
    7
 10
2716.8858914761927
 20
1833.8196631472083
 11
2666.7330543783182
 21
1833.8196631472083
  0
LINE
  8
_0-0_
  6
CONTINUOUS
 62
    7
 10
2744.8503975886638
 20
1881.1993614402977
 11
2744.8503975886638
 21
1838.7018887140575
  0
LINE
  8
_0-0_
  6
CONTINUOUS
 62
    7
 10
2581.5139092994013
 20
2113.8209663302741
 11
2578.6406857994989
 21
2116.31119245728
  0
LINE
  8
_0-0_
  6
CONTINUOUS
 62
    7
 10
2578.6406857994989
 20
2116.31119245728
 11
2574.1945966330277
 21
2118.7052976394712
  0
LINE
  8
_0-0_
  6
CONTINUOUS
 62
    7
 10
2574.1945966330277
 20
2118.7052976394712
 11
2570.6921277727402
 21
2119.8193592086263
  0
LINE
  8
_0-0_
  6
CONTINUOUS
 62
    7
 10
2588.1303994904151
 20
2113.5236850576512
 11
2587.2900844264673
 21
2115.5645209942086
  0
LINE
  8
_0-0_
  6
CONTINUOUS
 62
    7
 10
2587.2900844264673
 20
2115.5645209942086
 11
2586.6063374994342
 21
2117.6165049784895
  0
LINE
  8
_0-0_
  6
CONTINUOUS
 62
    7
 10
2586.6063374994342
 20
2117.6165049784895
 11
2586.6063374994342
 21
2118.984246566949
  0
LINE
  8
_0-0_
  6
CONTINUOUS
 62
    7
 10
2636.6068179450899
 20
2098.684394865883
 11
2640.7308523995534
 21
2101.0039319955245
  0
LINE
  8
_0-0_
  6
CONTINUOUS
 62
    7
 10
2640.7308523995534
 20
2101.0039319955245
 11
2642.4407151859236
 21
2102.3719213183781
  0
LINE
  8
_0-0_
  6
CONTINUOUS
 62
    7
 10
2642.4407151859236
 20
2102.3719213183781
 11
2644.8506753693214
 21
2107.9947488556495
  0
LINE
  8
_0-0_
  6
CONTINUOUS
 62
    7
 10
2634.3819153538998
 20
2092.2093610137586
 11
2637.3775196443653
 21
2093.2510841399085
  0
LINE
  8
_0-0_
  6
CONTINUOUS
 62
    7
 10
2637.3775196443653
 20
2093.2510841399085
 11
2641.8233610764437
 21
2094.6190734627626
  0
LINE
  8
_0-0_
  6
CONTINUOUS
 62
    7
 10
2641.8233610764437
 20
2094.6190734627626
 11
2644.559339722151
 21
2094.277199999246
  0
LINE
  8
_0-0_
  6
CONTINUOUS
 62
    7
 10
2644.559339722151
 20
2094.277199999246
 11
2644.8506753693214
 21
2094.0735623274991
  0
LINE
  8
_0-0_
  6
CONTINUOUS
 62
    7
 10
2621.2252371651784
 20
2045.7217542729322
 11
2624.9333255723641
 21
2041.6608920889009
  0
LINE
  8
_0-0_
  6
CONTINUOUS
 62
    7
 10
2624.9333255723641
 20
2041.6608920889009
 11
2629.037293540925
 21
2039.2669107739071
  0
LINE
  8
_0-0_
  6
CONTINUOUS
 62
    7
 10
2629.037293540925
 20
2039.2669107739071
 11
2633.483134973003
 21
2037.5568002531427
  0
LINE
  8
_0-0_
  6
CONTINUOUS
 62
    7
 10
2635.7622913964469
 20
2036.8194188298407
 11
2633.483134973003
 21
2037.5568002531427
  0
LINE
  8
_0-0_
  6
CONTINUOUS
 62
    7
 10
2618.6324489991175
 20
2036.8194188298407
 11
2618.6324489991175
 21
2039.0491522417105
  0
LINE
  8
_0-0_
  6
CONTINUOUS
 62
    7
 10
2618.6324489991175
 20
2039.0491522417105
 11
2617.5116986013286
 21
2042.2870407693633
  0
LINE
  8
_0-0_
  6
CONTINUOUS
 62
    7
 10
2561.8507349905358
 20
2048.664343403113
 11
2563.7647309174408
 21
2050.4721851422519
  0
LINE
  8
_0-0_
  6
CONTINUOUS
 62
    7
 10
2563.7647309174408
 20
2050.4721851422519
 11
2568.5529412818232
 21
2052.5241691265328
  0
LINE
  8
_0-0_
  6
CONTINUOUS
 62
    7
 10
2568.5529412818232
 20
2052.5241691265328
 11
2572.1772954638864
 21
2054.0071072081341
  0
LINE
  8
_0-0_
  6
CONTINUOUS
 62
    7
 10
2561.8507349905358
 20
2061.1221628667763
 11
2562.8359746748874
 21
2060.3338720255379
  0
LINE
  8
_0-0_
  6
CONTINUOUS
 62
    7
 10
2562.8359746748874
 20
2060.3338720255379
 11
2565.2298321226854
 21
2058.9657588354867
  0
LINE
  8
_0-0_
  6
CONTINUOUS
 62
    7
 10
2565.2298321226854
 20
2058.9657588354867
 11
2568.3079319663029
 21
2058.9657588354867
  0
LINE
  8
_0-0_
  6
CONTINUOUS
 62
    7
 10
2568.3079319663029
 20
2058.9657588354867
 11
2578.3612414032336
 21
2060.7252923678247
  0
LINE
  8
_0-0_
  6
CONTINUOUS
 62
    7
 10
2604.0302406222663
 20
2085.4234204973495
 11
2581.5139092994013
 21
2113.8209663302741
  0
LINE
  8
_0-0_
  6
CONTINUOUS
 62
    7
 10
2607.7635979376241
 20
2088.7626323920877
 11
2588.1303994904151
 21
2113.5236850576512
  0
LINE
  8
_0-0_
  6
CONTINUOUS
 62
    7
 10
2612.5570107242775
 20
2087.9133988899612
 11
2636.6068179450899
 21
2098.684394865883
  0
LINE
  8
_0-0_
  6
CONTINUOUS
 62
    7
 10
2613.3123528911342
 20
2082.7731579519145
 11
2634.3819153538998
 21
2092.2093610137586
  0
LINE
  8
_0-0_
  6
CONTINUOUS
 62
    7
 10
2608.2637736788129
 20
2067.4837343665163
 11
2610.4396248600196
 21
2078.9070150014513
  0
LINE
  8
_0-0_
  6
CONTINUOUS
 62
    7
 10
2603.5166872238101
 20
2069.2845156754306
 11
2605.7678496607477
 21
2081.1019417309853
  0
LINE
  8
_0-0_
  6
CONTINUOUS
 62
    7
 10
2578.3612414032336
 20
2060.7252923678247
 11
2601.0324067222564
 21
2066.449195537788
  0
LINE
  8
_0-0_
  6
CONTINUOUS
 62
    7
 10
2572.1772954638864
 20
2054.0071072081341
 11
2603.2308017333044
 21
2061.8471575703861
  0
LINE
  8
_0-0_
  6
CONTINUOUS
 62
    7
 10
2605.0268760887357
 20
2060.7696368243242
 11
2617.5116986013286
 21
2042.2870407693633
  0
LINE
  8
_0-0_
  6
CONTINUOUS
 62
    7
 10
2608.5781486246115
 20
2064.444528822733
 11
2621.2252371651784
 21
2045.7217542729322
  0
LINE
  8
_0-0_
  6
CONTINUOUS
 62
    7
 10
2602.2698400195504
 20
2067.0680360536317
 11
2603.5166872238101
 21
2069.2845156754306
  0
LINE
  8
_0-0_
  6
CONTINUOUS
 62
    7
 10
2601.0324067222564
 20
2066.449195537788
 11
2602.2698400195504
 21
2067.0680360536317
  0
LINE
  8
_0-0_
  6
CONTINUOUS
 62
    7
 10
2605.0268760887357
 20
2060.7696368243242
 11
2603.2308017333044
 21
2061.8471575703861
  0
LINE
  8
_0-0_
  6
CONTINUOUS
 62
    7
 10
2608.5781486246115
 20
2064.444528822733
 11
2608.2637736788129
 21
2067.4837343665163
  0
LINE
  8
_0-0_
  6
CONTINUOUS
 62
    7
 10
2605.5674325361215
 20
2082.6054417672767
 11
2604.0302406222663
 21
2085.4234204973495
  0
LINE
  8
_0-0_
  6
CONTINUOUS
 62
    7
 10
2605.7678496607477
 20
2081.1019417309853
 11
2605.5674325361215
 21
2082.6054417672767
  0
LINE
  8
_0-0_
  6
CONTINUOUS
 62
    7
 10
2610.4396248600196
 20
2078.9070150014513
 11
2611.2596257036716
 21
2081.0935187615942
  0
LINE
  8
_0-0_
  6
CONTINUOUS
 62
    7
 10
2611.2596257036716
 20
2081.0935187615942
 11
2613.3123528911342
 21
2082.7731579519145
  0
LINE
  8
_0-0_
  6
CONTINUOUS
 62
    7
 10
2610.1814856216251
 20
2087.3854768966617
 11
2612.5570107242775
 21
2087.9133988899612
  0
LINE
  8
_0-0_
  6
CONTINUOUS
 62
    7
 10
2609.3545482149457
 20
2087.6612052770197
 11
2610.1814856216251
 21
2087.3854768966617
  0
LINE
  8
_0-0_
  6
CONTINUOUS
 62
    7
 10
2607.7635979376241
 20
2088.7626323920877
 11
2609.3545482149457
 21
2087.6612052770197
  0
LINE
  8
_0-0_
  6
CONTINUOUS
 62
    7
 10
2586.6063374994342
 20
2118.984246566949
 11
2587.2586221584479
 21
2119.8193592086263
  0
LINE
  8
_0-0_
  6
CONTINUOUS
 62
    7
 10
2644.8506753693214
 20
2041.7018921310837
 11
2644.8506753693214
 21
2094.0735623274991
  0
LINE
  8
_0-0_
  6
CONTINUOUS
 62
    7
 10
2639.9680782008813
 20
2119.8193592086263
 11
2587.2586221584479
 21
2119.8193592086263
  0
LINE
  8
_0-0_
  6
CONTINUOUS
 62
    7
 10
2561.8507349905358
 20
2114.9372575089737
 11
2561.8507349905358
 21
2061.1221628667763
  0
LINE
  8
_0-0_
  6
CONTINUOUS
 62
    7
 10
2566.7328366901884
 20
2036.8194188298407
 11
2618.6324489991175
 21
2036.8194188298407
  0
LINE
  8
_0-0_
  6
CONTINUOUS
 62
    7
 10
2561.8507349905358
 20
2048.664343403113
 11
2561.8507349905358
 21
2041.7018921310837
  0
LINE
  8
_0-0_
  6
CONTINUOUS
 62
    7
 10
2635.7622913964469
 20
2036.8194188298407
 11
2639.9680782008813
 21
2036.8194188298407
  0
LINE
  8
_0-0_
  6
CONTINUOUS
 62
    7
 10
2644.8506753693214
 20
2107.9947488556495
 11
2644.8506753693214
 21
2114.9372575089737
  0
LINE
  8
_0-0_
  6
CONTINUOUS
 62
    7
 10
2570.6921277727402
 20
2119.8193592086263
 11
2566.7328366901884
 21
2119.8193592086263
  0
LINE
  8
_0-0_
  6
CONTINUOUS
 62
    7
 10
2738.8520047103116
 20
1997.1560275692739
 11
2741.3419831029232
 21
2000.0293749363727
  0
LINE
  8
_0-0_
  6
CONTINUOUS
 62
    7
 10
2741.3419831029232
 20
2000.0293749363727
 11
2743.7363360195086
 21
2004.4753402356473
  0
LINE
  8
_0-0_
  6
CONTINUOUS
 62
    7
 10
2743.7363360195086
 20
2004.4753402356473
 11
2744.8503975886638
 21
2007.9778090959348
  0
LINE
  8
_0-0_
  6
CONTINUOUS
 62
    7
 10
2738.5547234376882
 20
1990.5395373782596
 11
2740.595559374246
 21
1991.3798524422075
  0
LINE
  8
_0-0_
  6
CONTINUOUS
 62
    7
 10
2740.595559374246
 20
1991.3798524422075
 11
2742.6475433585265
 21
1992.0637232364375
  0
LINE
  8
_0-0_
  6
CONTINUOUS
 62
    7
 10
2742.6475433585265
 20
1992.0637232364375
 11
2744.0152849469864
 21
1992.0637232364375
  0
LINE
  8
_0-0_
  6
CONTINUOUS
 62
    7
 10
2723.7154332459204
 20
1942.0631189235849
 11
2726.0349703755619
 21
1937.9392083363182
  0
LINE
  8
_0-0_
  6
CONTINUOUS
 62
    7
 10
2726.0349703755619
 20
1937.9392083363182
 11
2727.4029596984155
 21
1936.2292216827509
  0
LINE
  8
_0-0_
  6
CONTINUOUS
 62
    7
 10
2727.4029596984155
 20
1936.2292216827509
 11
2733.0257872356874
 21
1933.8193853665503
  0
LINE
  8
_0-0_
  6
CONTINUOUS
 62
    7
 10
2717.240399393796
 20
1944.2880215147748
 11
2718.2821225199459
 21
1941.2925410915066
  0
LINE
  8
_0-0_
  6
CONTINUOUS
 62
    7
 10
2718.2821225199459
 20
1941.2925410915066
 11
2719.6501118428
 21
1936.8465757922318
  0
LINE
  8
_0-0_
  6
CONTINUOUS
 62
    7
 10
2719.6501118428
 20
1936.8465757922318
 11
2719.308238379283
 21
1934.110597146524
  0
LINE
  8
_0-0_
  6
CONTINUOUS
 62
    7
 10
2719.308238379283
 20
1934.110597146524
 11
2719.1046007075365
 21
1933.8193853665503
  0
LINE
  8
_0-0_
  6
CONTINUOUS
 62
    7
 10
2670.7527926529697
 20
1957.4446997034963
 11
2666.6919304689382
 21
1953.7368590307051
  0
LINE
  8
_0-0_
  6
CONTINUOUS
 62
    7
 10
2666.6919304689382
 20
1953.7368590307051
 11
2664.2978252867479
 21
1949.6327671949466
  0
LINE
  8
_0-0_
  6
CONTINUOUS
 62
    7
 10
2664.2978252867479
 20
1949.6327671949466
 11
2662.5879625003768
 21
1945.186801895672
  0
LINE
  8
_0-0_
  6
CONTINUOUS
 62
    7
 10
2661.8504572098777
 20
1942.9078932066222
 11
2662.5879625003768
 21
1945.186801895672
  0
LINE
  8
_0-0_
  6
CONTINUOUS
 62
    7
 10
2661.8504572098777
 20
1960.0376117367543
 11
2664.0800667545509
 21
1960.0376117367543
  0
LINE
  8
_0-0_
  6
CONTINUOUS
 62
    7
 10
2664.0800667545509
 20
1960.0376117367543
 11
2667.3182030165976
 21
1961.1582382673462
  0
LINE
  8
_0-0_
  6
CONTINUOUS
 62
    7
 10
2673.6953817831504
 20
2016.8195734797296
 11
2675.503347389486
 21
2014.9054536856279
  0
LINE
  8
_0-0_
  6
CONTINUOUS
 62
    7
 10
2675.503347389486
 20
2014.9054536856279
 11
2677.5553313737669
 21
2010.1172433212457
  0
LINE
  8
_0-0_
  6
CONTINUOUS
 62
    7
 10
2677.5553313737669
 20
2010.1172433212457
 11
2679.0382694553682
 21
2006.4928891391828
  0
LINE
  8
_0-0_
  6
CONTINUOUS
 62
    7
 10
2686.1532012468138
 20
2016.8195734797296
 11
2685.3649104055748
 21
2015.8340860609842
  0
LINE
  8
_0-0_
  6
CONTINUOUS
 62
    7
 10
2685.3649104055748
 20
2015.8340860609842
 11
2683.9969210827212
 21
2013.4401047459901
  0
LINE
  8
_0-0_
  6
CONTINUOUS
 62
    7
 10
2683.9969210827212
 20
2013.4401047459901
 11
2683.9969210827212
 21
2010.3621287695687
  0
LINE
  8
_0-0_
  6
CONTINUOUS
 62
    7
 10
2683.9969210827212
 20
2010.3621287695687
 11
2685.7563307478622
 21
2000.3086954654414
  0
LINE
  8
_0-0_
  6
CONTINUOUS
 62
    7
 10
2710.4547066117807
 20
1974.6398201136053
 11
2738.8520047103116
 21
1997.1560275692739
  0
LINE
  8
_0-0_
  6
CONTINUOUS
 62
    7
 10
2713.7939185065193
 20
1970.9064627982475
 11
2738.5547234376882
 21
1990.5395373782596
  0
LINE
  8
_0-0_
  6
CONTINUOUS
 62
    7
 10
2712.9446850043928
 20
1966.1130500115942
 11
2723.7154332459204
 21
1942.0631189235849
  0
LINE
  8
_0-0_
  6
CONTINUOUS
 62
    7
 10
2707.804196331952
 20
1965.3575839775408
 11
2717.240399393796
 21
1944.2880215147748
  0
LINE
  8
_0-0_
  6
CONTINUOUS
 62
    7
 10
2692.5147727465537
 20
1970.406287057059
 11
2703.9380533814892
 21
1968.2303120086553
  0
LINE
  8
_0-0_
  6
CONTINUOUS
 62
    7
 10
2694.3155540554681
 20
1975.1532496448649
 11
2706.1327323766291
 21
1972.9022110751237
  0
LINE
  8
_0-0_
  6
CONTINUOUS
 62
    7
 10
2685.7563307478622
 20
2000.3086954654414
 11
2691.4802339178254
 21
1977.6375301464186
  0
LINE
  8
_0-0_
  6
CONTINUOUS
 62
    7
 10
2679.0382694553682
 20
2006.4928891391828
 11
2686.8783198176202
 21
1975.4392590025677
  0
LINE
  8
_0-0_
  6
CONTINUOUS
 62
    7
 10
2685.8006752043616
 20
1973.6430607799398
 11
2667.3182030165976
 21
1961.1582382673462
  0
LINE
  8
_0-0_
  6
CONTINUOUS
 62
    7
 10
2689.4755672027709
 20
1970.0917882440631
 11
2670.7527926529697
 21
1957.4446997034963
  0
LINE
  8
_0-0_
  6
CONTINUOUS
 62
    7
 10
2692.0990744336686
 20
1976.4000968491248
 11
2694.3155540554681
 21
1975.1532496448649
  0
LINE
  8
_0-0_
  6
CONTINUOUS
 62
    7
 10
2691.4802339178254
 20
1977.6375301464186
 11
2692.0990744336686
 21
1976.4000968491248
  0
LINE
  8
_0-0_
  6
CONTINUOUS
 62
    7
 10
2685.8006752043616
 20
1973.6430607799398
 11
2686.8783198176202
 21
1975.4392590025677
  0
LINE
  8
_0-0_
  6
CONTINUOUS
 62
    7
 10
2689.4755672027709
 20
1970.0917882440631
 11
2692.5147727465537
 21
1970.406287057059
  0
LINE
  8
_0-0_
  6
CONTINUOUS
 62
    7
 10
2707.6364801473137
 20
1973.1026281997504
 11
2710.4547066117807
 21
1974.6398201136053
  0
LINE
  8
_0-0_
  6
CONTINUOUS
 62
    7
 10
2706.1327323766291
 20
1972.9022110751237
 11
2707.6364801473137
 21
1973.1026281997504
  0
LINE
  8
_0-0_
  6
CONTINUOUS
 62
    7
 10
2703.9380533814892
 20
1968.2303120086553
 11
2706.1245571416316
 21
1967.4103111650033
  0
LINE
  8
_0-0_
  6
CONTINUOUS
 62
    7
 10
2706.1245571416316
 20
1967.4103111650033
 11
2707.804196331952
 21
1965.3575839775408
  0
LINE
  8
_0-0_
  6
CONTINUOUS
 62
    7
 10
2712.4165152766991
 20
1968.4884512470494
 11
2712.9446850043928
 21
1966.1130500115942
  0
LINE
  8
_0-0_
  6
CONTINUOUS
 62
    7
 10
2712.6922436570567
 20
1969.3153886537293
 11
2712.4165152766991
 21
1968.4884512470494
  0
LINE
  8
_0-0_
  6
CONTINUOUS
 62
    7
 10
2713.7939185065193
 20
1970.9064627982475
 11
2712.6922436570567
 21
1969.3153886537293
  0
LINE
  8
_0-0_
  6
CONTINUOUS
 62
    7
 10
2744.0152849469864
 20
1992.0637232364375
 11
2744.8503975886638
 21
1991.4114385774237
  0
LINE
  8
_0-0_
  6
CONTINUOUS
 62
    7
 10
2666.7330543783182
 20
1933.8193853665503
 11
2719.1046007075365
 21
1933.8193853665503
  0
LINE
  8
_0-0_
  6
CONTINUOUS
 62
    7
 10
2744.8503975886638
 20
1938.7018586677934
 11
2744.8503975886638
 21
1991.4114385774237
  0
LINE
  8
_0-0_
  6
CONTINUOUS
 62
    7
 10
2739.9682958890112
 20
2016.8195734797296
 11
2686.1532012468138
 21
2016.8195734797296
  0
LINE
  8
_0-0_
  6
CONTINUOUS
 62
    7
 10
2661.8504572098777
 20
2011.9371001784864
 11
2661.8504572098777
 21
1960.0376117367543
  0
LINE
  8
_0-0_
  6
CONTINUOUS
 62
    7
 10
2673.6953817831504
 20
2016.8195734797296
 11
2666.7330543783182
 21
2016.8195734797296
  0
LINE
  8
_0-0_
  6
CONTINUOUS
 62
    7
 10
2661.8504572098777
 20
1942.9078932066222
 11
2661.8504572098777
 21
1938.7018586677934
  0
LINE
  8
_0-0_
  6
CONTINUOUS
 62
    7
 10
2733.0257872356874
 20
1933.8193853665503
 11
2739.9682958890112
 21
1933.8193853665503
  0
LINE
  8
_0-0_
  6
CONTINUOUS
 62
    7
 10
2744.8503975886638
 20
2007.9778090959348
 11
2744.8503975886638
 21
2011.9371001784864
  0
LINE
  8
_0-0_
  6
CONTINUOUS
 62
    7
 10
2825.1871932335343
 20
1839.8180560255603
 11
2828.0604167334359
 21
1837.3280776329484
  0
LINE
  8
_0-0_
  6
CONTINUOUS
 62
    7
 10
2828.0604167334359
 20
1837.3280776329484
 11
2832.506505899908
 21
1834.9338485835601
  0
LINE
  8
_0-0_
  6
CONTINUOUS
 62
    7
 10
2832.506505899908
 20
1834.9338485835601
 11
2836.0087270258014
 21
1833.8196631472083
  0
LINE
  8
_0-0_
  6
CONTINUOUS
 62
    7
 10
2818.5704553081264
 20
1840.1155850325772
 11
2819.4107703720738
 21
1838.0746252288227
  0
LINE
  8
_0-0_
  6
CONTINUOUS
 62
    7
 10
2819.4107703720738
 20
1838.0746252288227
 11
2820.0947650335006
 21
1836.0226412445422
  0
LINE
  8
_0-0_
  6
CONTINUOUS
 62
    7
 10
2820.0947650335006
 20
1836.0226412445422
 11
2820.0947650335006
 21
1834.6547757888854
  0
LINE
  8
_0-0_
  6
CONTINUOUS
 62
    7
 10
2770.0942845878453
 20
1854.9546274899515
 11
2765.9704978677755
 21
1852.63509036031
  0
LINE
  8
_0-0_
  6
CONTINUOUS
 62
    7
 10
2765.9704978677755
 20
1852.63509036031
 11
2764.2603873470116
 21
1851.2669771702595
  0
LINE
  8
_0-0_
  6
CONTINUOUS
 62
    7
 10
2764.2603873470116
 20
1851.2669771702595
 11
2761.8506748980076
 21
1845.6441496329878
  0
LINE
  8
_0-0_
  6
CONTINUOUS
 62
    7
 10
2772.3189394446408
 20
1861.4296613420761
 11
2769.3238306229637
 21
1860.3879382159257
  0
LINE
  8
_0-0_
  6
CONTINUOUS
 62
    7
 10
2769.3238306229637
 20
1860.3879382159257
 11
2764.8774937220978
 21
1859.0198250258752
  0
LINE
  8
_0-0_
  6
CONTINUOUS
 62
    7
 10
2764.8774937220978
 20
1859.0198250258752
 11
2762.1415150763905
 21
1859.3618223565886
  0
LINE
  8
_0-0_
  6
CONTINUOUS
 62
    7
 10
2762.1415150763905
 20
1859.3618223565886
 11
2761.8506748980076
 21
1859.5657077627291
  0
LINE
  8
_0-0_
  6
CONTINUOUS
 62
    7
 10
2785.4756176333631
 20
1907.917391950099
 11
2781.7677769605716
 21
1911.9781302669332
  0
LINE
  8
_0-0_
  6
CONTINUOUS
 62
    7
 10
2781.7677769605716
 20
1911.9781302669332
 11
2777.6638089920102
 21
1914.3721115819276
  0
LINE
  8
_0-0_
  6
CONTINUOUS
 62
    7
 10
2777.6638089920102
 20
1914.3721115819276
 11
2773.2177198255386
 21
1916.0820982354949
  0
LINE
  8
_0-0_
  6
CONTINUOUS
 62
    7
 10
2770.9390588708829
 20
1916.8194796587968
 11
2773.2177198255386
 21
1916.0820982354949
  0
LINE
  8
_0-0_
  6
CONTINUOUS
 62
    7
 10
2788.0686535338182
 20
1916.8194796587968
 11
2788.0686535338182
 21
1914.5898701141241
  0
LINE
  8
_0-0_
  6
CONTINUOUS
 62
    7
 10
2788.0686535338182
 20
1914.5898701141241
 11
2789.1894039316066
 21
1911.351857719274
  0
LINE
  8
_0-0_
  6
CONTINUOUS
 62
    7
 10
2844.8506152767932
 20
1904.9745550855246
 11
2842.9363716154944
 21
1903.1668372135825
  0
LINE
  8
_0-0_
  6
CONTINUOUS
 62
    7
 10
2842.9363716154944
 20
1903.1668372135825
 11
2838.1484089855057
 21
1901.1147293621048
  0
LINE
  8
_0-0_
  6
CONTINUOUS
 62
    7
 10
2838.1484089855057
 20
1901.1147293621048
 11
2834.5238070690493
 21
1899.6321628820942
  0
LINE
  8
_0-0_
  6
CONTINUOUS
 62
    7
 10
2844.8506152767932
 20
1892.5167356218612
 11
2843.8653755924415
 21
1893.3050264630997
  0
LINE
  8
_0-0_
  6
CONTINUOUS
 62
    7
 10
2843.8653755924415
 20
1893.3050264630997
 11
2841.4712704102503
 21
1894.6731396531507
  0
LINE
  8
_0-0_
  6
CONTINUOUS
 62
    7
 10
2841.4712704102503
 20
1894.6731396531507
 11
2838.3931705666323
 21
1894.6731396531507
  0
LINE
  8
_0-0_
  6
CONTINUOUS
 62
    7
 10
2838.3931705666323
 20
1894.6731396531507
 11
2828.3396133953079
 21
1892.9136061208128
  0
LINE
  8
_0-0_
  6
CONTINUOUS
 62
    7
 10
2802.6708619106689
 20
1868.2153541240914
 11
2825.1871932335343
 21
1839.8180560255603
  0
LINE
  8
_0-0_
  6
CONTINUOUS
 62
    7
 10
2798.9375045953107
 20
1864.8762660965497
 11
2818.5704553081264
 21
1840.1155850325772
  0
LINE
  8
_0-0_
  6
CONTINUOUS
 62
    7
 10
2794.1438440742641
 20
1865.7253757314791
 11
2770.0942845878453
 21
1854.9546274899515
  0
LINE
  8
_0-0_
  6
CONTINUOUS
 62
    7
 10
2793.3887496418015
 20
1870.8657405367228
 11
2772.3189394446408
 21
1861.4296613420761
  0
LINE
  8
_0-0_
  6
CONTINUOUS
 62
    7
 10
2798.4373288541224
 20
1886.1552879893181
 11
2796.2614776729156
 21
1874.7320073543826
  0
LINE
  8
_0-0_
  6
CONTINUOUS
 62
    7
 10
2803.1841675747314
 20
1884.3543828132069
 11
2800.933252872187
 21
1872.5372044920462
  0
LINE
  8
_0-0_
  6
CONTINUOUS
 62
    7
 10
2828.3396133953079
 20
1892.9136061208128
 11
2805.6684480762851
 21
1887.1898268180464
  0
LINE
  8
_0-0_
  6
CONTINUOUS
 62
    7
 10
2834.5238070690493
 20
1899.6321628820942
 11
2803.4705485340246
 21
1891.7917409182517
  0
LINE
  8
_0-0_
  6
CONTINUOUS
 62
    7
 10
2801.6742264442
 20
1892.86938553151
 11
2789.1894039316066
 21
1911.351857719274
  0
LINE
  8
_0-0_
  6
CONTINUOUS
 62
    7
 10
2798.1229539083238
 20
1889.1943696659043
 11
2785.4756176333631
 21
1907.917391950099
  0
LINE
  8
_0-0_
  6
CONTINUOUS
 62
    7
 10
2804.4310147789911
 20
1886.5709863022028
 11
2803.1841675747314
 21
1884.3543828132069
  0
LINE
  8
_0-0_
  6
CONTINUOUS
 62
    7
 10
2805.6684480762851
 20
1887.1898268180464
 11
2804.4310147789911
 21
1886.5709863022028
  0
LINE
  8
_0-0_
  6
CONTINUOUS
 62
    7
 10
2801.6742264442
 20
1892.86938553151
 11
2803.4705485340246
 21
1891.7917409182517
  0
LINE
  8
_0-0_
  6
CONTINUOUS
 62
    7
 10
2798.1229539083238
 20
1889.1943696659043
 11
2798.4373288541224
 21
1886.1552879893181
  0
LINE
  8
_0-0_
  6
CONTINUOUS
 62
    7
 10
2801.1336699968138
 20
1871.0334567213611
 11
2802.6708619106689
 21
1868.2153541240914
  0
LINE
  8
_0-0_
  6
CONTINUOUS
 62
    7
 10
2800.933252872187
 20
1872.5372044920462
 11
2801.1336699968138
 21
1871.0334567213611
  0
LINE
  8
_0-0_
  6
CONTINUOUS
 62
    7
 10
2796.2614776729156
 20
1874.7320073543826
 11
2795.441476829264
 21
1872.5453797270434
  0
LINE
  8
_0-0_
  6
CONTINUOUS
 62
    7
 10
2795.441476829264
 20
1872.5453797270434
 11
2793.3887496418015
 21
1870.8657405367228
  0
LINE
  8
_0-0_
  6
CONTINUOUS
 62
    7
 10
2796.5196169113101
 20
1866.2534215919759
 11
2794.1438440742641
 21
1865.7253757314791
  0
LINE
  8
_0-0_
  6
CONTINUOUS
 62
    7
 10
2797.3465543179896
 20
1865.977817078815
 11
2796.5196169113101
 21
1866.2534215919759
  0
LINE
  8
_0-0_
  6
CONTINUOUS
 62
    7
 10
2798.9375045953107
 20
1864.8762660965497
 11
2797.3465543179896
 21
1865.977817078815
  0
LINE
  8
_0-0_
  6
CONTINUOUS
 62
    7
 10
2820.0947650335006
 20
1834.6547757888854
 11
2819.4424803744873
 21
1833.8196631472083
  0
LINE
  8
_0-0_
  6
CONTINUOUS
 62
    7
 10
2761.8506748980076
 20
1911.9370063575539
 11
2761.8506748980076
 21
1859.5657077627291
  0
LINE
  8
_0-0_
  6
CONTINUOUS
 62
    7
 10
2766.7327765976597
 20
1833.8196631472083
 11
2819.4424803744873
 21
1833.8196631472083
  0
LINE
  8
_0-0_
  6
CONTINUOUS
 62
    7
 10
2844.8506152767932
 20
1838.7018887140575
 11
2844.8506152767932
 21
1892.5167356218612
  0
LINE
  8
_0-0_
  6
CONTINUOUS
 62
    7
 10
2839.9680181083531
 20
1916.8194796587968
 11
2788.0686535338182
 21
1916.8194796587968
  0
LINE
  8
_0-0_
  6
CONTINUOUS
 62
    7
 10
2844.8506152767932
 20
1904.9745550855246
 11
2844.8506152767932
 21
1911.9370063575539
  0
LINE
  8
_0-0_
  6
CONTINUOUS
 62
    7
 10
2770.9390588708829
 20
1916.8194796587968
 11
2766.7327765976597
 21
1916.8194796587968
  0
LINE
  8
_0-0_
  6
CONTINUOUS
 62
    7
 10
2761.8506748980076
 20
1845.6441496329878
 11
2761.8506748980076
 21
1838.7018887140575
  0
LINE
  8
_0-0_
  6
CONTINUOUS
 62
    7
 10
2836.0087270258014
 20
1833.8196631472083
 11
2839.9680181083531
 21
1833.8196631472083
  0
LINE
  8
_0-0_
  6
CONTINUOUS
 62
    7
 10
2734.0164770767033
 20
2083.5401436352822
 11
2741.7091254746128
 21
2086.3373126762713
  0
LINE
  8
_0-0_
  6
CONTINUOUS
 62
    7
 10
2741.7091254746128
 20
2086.3373126762713
 11
2744.2538531682662
 21
2087.7508851275938
  0
LINE
  8
_0-0_
  6
CONTINUOUS
 62
    7
 10
2744.2538531682662
 20
2087.7508851275938
 11
2744.8503975886638
 21
2088.6189464436534
  0
LINE
  8
_0-0_
  6
CONTINUOUS
 62
    7
 10
2731.3686918752073
 20
2078.6711718585038
 11
2738.599067894188
 21
2080.1171975154211
  0
LINE
  8
_0-0_
  6
CONTINUOUS
 62
    7
 10
2738.599067894188
 20
2080.1171975154211
 11
2742.8400329825499
 21
2080.9654400799723
  0
LINE
  8
_0-0_
  6
CONTINUOUS
 62
    7
 10
2742.8400329825499
 20
2080.9654400799723
 11
2744.5365181116522
 21
2080.682527402193
  0
LINE
  8
_0-0_
  6
CONTINUOUS
 62
    7
 10
2744.5365181116522
 20
2080.682527402193
 11
2744.8503975886638
 21
2080.4080376938045
  0
LINE
  8
_0-0_
  6
CONTINUOUS
 62
    7
 10
2712.668708889641
 20
2050.1430700000187
 11
2712.8698692174494
 21
2042.7956394799426
  0
LINE
  8
_0-0_
  6
CONTINUOUS
 62
    7
 10
2712.8698692174494
 20
2042.7956394799426
 11
2713.1527818952286
 21
2039.6854580323206
  0
LINE
  8
_0-0_
  6
CONTINUOUS
 62
    7
 10
2713.1527818952286
 20
2039.6854580323206
 11
2713.7181117820001
 21
2037.7065556942264
  0
LINE
  8
_0-0_
  6
CONTINUOUS
 62
    7
 10
2713.7181117820001
 20
2037.7065556942264
 11
2715.1118654818147
 21
2036.8194188298407
  0
LINE
  8
_0-0_
  6
CONTINUOUS
 62
    7
 10
2705.8584904026338
 20
2036.8194188298407
 11
2706.9324189999852
 21
2037.4236430164469
  0
LINE
  8
_0-0_
  6
CONTINUOUS
 62
    7
 10
2706.9324189999852
 20
2037.4236430164469
 11
2708.0633265079218
 21
2039.6854580323206
  0
LINE
  8
_0-0_
  6
CONTINUOUS
 62
    7
 10
2708.0633265079218
 20
2039.6854580323206
 11
2708.3848857511425
 21
2042.7384128349627
  0
LINE
  8
_0-0_
  6
CONTINUOUS
 62
    7
 10
2693.4918371959084
 20
2119.8193592086263
 11
2694.4919409438908
 21
2118.5695391916402
  0
LINE
  8
_0-0_
  6
CONTINUOUS
 62
    7
 10
2694.4919409438908
 20
2118.5695391916402
 11
2694.7746058872772
 21
2116.590389119152
  0
LINE
  8
_0-0_
  6
CONTINUOUS
 62
    7
 10
2694.7746058872772
 20
2116.590389119152
 11
2695.1221772418517
 21
2111.5514715481909
  0
LINE
  8
_0-0_
  6
CONTINUOUS
 62
    7
 10
2699.072797620619
 20
2110.7934043030018
 11
2699.8640612745839
 21
2114.0456614254986
  0
LINE
  8
_0-0_
  6
CONTINUOUS
 62
    7
 10
2699.8640612745839
 20
2114.0456614254986
 11
2700.7120561047414
 21
2117.4386316837031
  0
LINE
  8
_0-0_
  6
CONTINUOUS
 62
    7
 10
2700.7120561047414
 20
2117.4386316837031
 11
2702.4085412338436
 21
2119.7004466995768
  0
LINE
  8
_0-0_
  6
CONTINUOUS
 62
    7
 10
2661.8504572098777
 20
2056.6423818227404
 11
2662.2597144285228
 21
2057.4979325519103
  0
LINE
  8
_0-0_
  6
CONTINUOUS
 62
    7
 10
2662.2597144285228
 20
2057.4979325519103
 11
2664.2391122354043
 21
2060.6082378667293
  0
LINE
  8
_0-0_
  6
CONTINUOUS
 62
    7
 10
2664.2391122354043
 20
2060.6082378667293
 11
2668.1961737084112
 21
2064.0905163739176
  0
LINE
  8
_0-0_
  6
CONTINUOUS
 62
    7
 10
2661.8504572098777
 20
2068.1560855114321
 11
2661.9770494851364
 21
2067.9593844027131
  0
LINE
  8
_0-0_
  6
CONTINUOUS
 62
    7
 10
2661.8504572098777
 20
2067.9908466707325
 11
2663.1079569930735
 21
2067.6767194593272
  0
LINE
  8
_0-0_
  6
CONTINUOUS
 62
    7
 10
2663.1079569930735
 20
2067.6767194593272
 11
2665.0873547999554
 21
2067.6767194593272
  0
LINE
  8
_0-0_
  6
CONTINUOUS
 62
    7
 10
2665.0873547999554
 20
2067.6767194593272
 11
2670.9395843859347
 21
2071.1281550344811
  0
LINE
  8
_0-0_
  6
CONTINUOUS
 62
    7
 10
2712.8971200007732
 20
2077.775859759121
 11
2734.0164770767033
 21
2083.5401436352822
  0
LINE
  8
_0-0_
  6
CONTINUOUS
 62
    7
 10
2715.5463916086319
 20
2074.3526659048662
 11
2731.3686918752073
 21
2078.6711718585038
  0
LINE
  8
_0-0_
  6
CONTINUOUS
 62
    7
 10
2713.5147218446473
 20
2072.4349539620534
 11
2712.668708889641
 21
2050.1430700000187
  0
LINE
  8
_0-0_
  6
CONTINUOUS
 62
    7
 10
2709.5430440424029
 20
2073.2604049623701
 11
2708.3848857511425
 21
2042.7384128349627
  0
LINE
  8
_0-0_
  6
CONTINUOUS
 62
    7
 10
2697.2016597438501
 20
2082.7394660743507
 11
2709.1877929216184
 21
2074.5927205325092
  0
LINE
  8
_0-0_
  6
CONTINUOUS
 62
    7
 10
2698.4975583580926
 20
2086.6952888753885
 11
2710.4968214587352
 21
2078.5396248953684
  0
LINE
  8
_0-0_
  6
CONTINUOUS
 62
    7
 10
2697.2123123227857
 20
2088.4943360435459
 11
2699.072797620619
 21
2110.7934043030018
  0
LINE
  8
_0-0_
  6
CONTINUOUS
 62
    7
 10
2695.1221772418517
 20
2111.5514715481909
 11
2693.205703971008
 21
2088.5807953470003
  0
LINE
  8
_0-0_
  6
CONTINUOUS
 62
    7
 10
2691.775285580904
 20
2086.6734882487294
 11
2670.9395843859347
 21
2071.1281550344811
  0
LINE
  8
_0-0_
  6
CONTINUOUS
 62
    7
 10
2693.2391481141785
 20
2082.7751398270657
 11
2668.1961737084112
 21
2064.0905163739176
  0
LINE
  8
_0-0_
  6
CONTINUOUS
 62
    7
 10
2697.2123123227857
 20
2088.4943360435459
 11
2698.4975583580926
 21
2086.6952888753885
  0
LINE
  8
_0-0_
  6
CONTINUOUS
 62
    7
 10
2691.775285580904
 20
2086.6734882487294
 11
2693.205703971008
 21
2088.5807953470003
  0
LINE
  8
_0-0_
  6
CONTINUOUS
 62
    7
 10
2693.2391481141785
 20
2082.7751398270657
 11
2695.1987271695521
 21
2083.5101677736257
  0
LINE
  8
_0-0_
  6
CONTINUOUS
 62
    7
 10
2695.1987271695521
 20
2083.5101677736257
 11
2697.2016597438501
 21
2082.7394660743507
  0
LINE
  8
_0-0_
  6
CONTINUOUS
 62
    7
 10
2713.5147218446473
 20
2072.4349539620534
 11
2714.1422330642758
 21
2073.3315047334058
  0
LINE
  8
_0-0_
  6
CONTINUOUS
 62
    7
 10
2714.1422330642758
 20
2073.3315047334058
 11
2715.5463916086319
 21
2074.3526659048662
  0
LINE
  8
_0-0_
  6
CONTINUOUS
 62
    7
 10
2710.4968214587352
 20
2078.5396248953684
 11
2712.8971200007732
 21
2077.775859759121
  0
LINE
  8
_0-0_
  6
CONTINUOUS
 62
    7
 10
2709.1877929216184
 20
2074.5927205325092
 11
2709.5430440424029
 21
2073.2604049623701
  0
LINE
  8
_0-0_
  6
CONTINUOUS
 62
    7
 10
2666.7330543783182
 20
2036.8194188298407
 11
2705.8584904026338
 21
2036.8194188298407
  0
LINE
  8
_0-0_
  6
CONTINUOUS
 62
    7
 10
2744.8503975886638
 20
2041.7018921310837
 11
2744.8503975886638
 21
2080.4080376938045
  0
LINE
  8
_0-0_
  6
CONTINUOUS
 62
    7
 10
2739.9682958890112
 20
2119.8193592086263
 11
2702.4085412338436
 21
2119.8193592086263
  0
LINE
  8
_0-0_
  6
CONTINUOUS
 62
    7
 10
2661.8504572098777
 20
2114.9372575089737
 11
2661.8504572098777
 21
2068.1560855114321
  0
LINE
  8
_0-0_
  6
CONTINUOUS
 62
    7
 10
2715.1118654818147
 20
2036.8194188298407
 11
2739.9682958890112
 21
2036.8194188298407
  0
LINE
  8
_0-0_
  6
CONTINUOUS
 62
    7
 10
2661.8504572098777
 20
2056.6423818227404
 11
2661.8504572098777
 21
2041.7018921310837
  0
LINE
  8
_0-0_
  6
CONTINUOUS
 62
    7
 10
2693.4918371959084
 20
2119.8193592086263
 11
2666.7330543783182
 21
2119.8193592086263
  0
LINE
  8
_0-0_
  6
CONTINUOUS
 62
    7
 10
2744.8503975886638
 20
2088.6189464436534
 11
2744.8503975886638
 21
2114.9372575089737
  0
LINE
  8
_0-0_
  6
CONTINUOUS
 62
    7
 10
2808.5711519690549
 20
1944.6535536129043
 11
2811.3685687444381
 21
1936.9609052149945
  0
LINE
  8
_0-0_
  6
CONTINUOUS
 62
    7
 10
2811.3685687444381
 20
1936.9609052149945
 11
2812.7821411957611
 21
1934.4161775213411
  0
LINE
  8
_0-0_
  6
CONTINUOUS
 62
    7
 10
2812.7821411957611
 20
1934.4161775213411
 11
2813.6502025118207
 21
1933.8193853665503
  0
LINE
  8
_0-0_
  6
CONTINUOUS
 62
    7
 10
2803.702180192277
 20
1947.3013388144002
 11
2805.1482058491947
 21
1940.0709627954197
  0
LINE
  8
_0-0_
  6
CONTINUOUS
 62
    7
 10
2805.1482058491947
 20
1940.0709627954197
 11
2805.9962006793517
 21
1935.8298738398607
  0
LINE
  8
_0-0_
  6
CONTINUOUS
 62
    7
 10
2805.9962006793517
 20
1935.8298738398607
 11
2805.7137834703599
 21
1934.1333887107585
  0
LINE
  8
_0-0_
  6
CONTINUOUS
 62
    7
 10
2805.7137834703599
 20
1934.1333887107585
 11
2805.4387982931839
 21
1933.8193853665503
  0
LINE
  8
_0-0_
  6
CONTINUOUS
 62
    7
 10
2775.1740783337918
 20
1966.0014456671638
 11
2767.8267716809132
 21
1965.8002853393555
  0
LINE
  8
_0-0_
  6
CONTINUOUS
 62
    7
 10
2767.8267716809132
 20
1965.8002853393555
 11
2764.7167141004875
 21
1965.5173726615758
  0
LINE
  8
_0-0_
  6
CONTINUOUS
 62
    7
 10
2764.7167141004875
 20
1965.5173726615758
 11
2762.737316293606
 21
1964.9520427748043
  0
LINE
  8
_0-0_
  6
CONTINUOUS
 62
    7
 10
2762.737316293606
 20
1964.9520427748043
 11
2761.8506748980076
 21
1963.5581652077929
  0
LINE
  8
_0-0_
  6
CONTINUOUS
 62
    7
 10
2761.8506748980076
 20
1972.8116641541706
 11
2762.4548990846142
 21
1971.7376116896228
  0
LINE
  8
_0-0_
  6
CONTINUOUS
 62
    7
 10
2762.4548990846142
 20
1971.7376116896228
 11
2764.7167141004875
 21
1970.6067041816857
  0
LINE
  8
_0-0_
  6
CONTINUOUS
 62
    7
 10
2764.7167141004875
 20
1970.6067041816857
 11
2767.7695450359329
 21
1970.2852688056621
  0
LINE
  8
_0-0_
  6
CONTINUOUS
 62
    7
 10
2844.8506152767932
 20
1985.1781934936994
 11
2843.6005475254133
 21
1984.1780897457168
  0
LINE
  8
_0-0_
  6
CONTINUOUS
 62
    7
 10
2843.6005475254133
 20
1984.1780897457168
 11
2841.6213974529251
 21
1983.8953009351339
  0
LINE
  8
_0-0_
  6
CONTINUOUS
 62
    7
 10
2841.6213974529251
 20
1983.8953009351339
 11
2836.5827276163577
 21
1983.5478534477556
  0
LINE
  8
_0-0_
  6
CONTINUOUS
 62
    7
 10
2835.8241649023812
 20
1979.597233068989
 11
2839.0769174936659
 21
1978.8062171494178
  0
LINE
  8
_0-0_
  6
CONTINUOUS
 62
    7
 10
2839.0769174936659
 20
1978.8062171494178
 11
2842.4696400174762
 21
1977.9579745848669
  0
LINE
  8
_0-0_
  6
CONTINUOUS
 62
    7
 10
2842.4696400174762
 20
1977.9579745848669
 11
2844.7314550333499
 21
1976.2614894557644
  0
LINE
  8
_0-0_
  6
CONTINUOUS
 62
    7
 10
2781.673390156514
 20
2016.8195734797296
 11
2782.5290647528805
 21
2016.4103162610852
  0
LINE
  8
_0-0_
  6
CONTINUOUS
 62
    7
 10
2782.5290647528805
 20
2016.4103162610852
 11
2785.6391223333053
 21
2014.4310423214004
  0
LINE
  8
_0-0_
  6
CONTINUOUS
 62
    7
 10
2785.6391223333053
 20
2014.4310423214004
 11
2789.1215247076912
 21
2010.4739808483932
  0
LINE
  8
_0-0_
  6
CONTINUOUS
 62
    7
 10
2793.1870938452057
 20
2016.8195734797296
 11
2792.9903927364867
 21
2016.6928573372741
  0
LINE
  8
_0-0_
  6
CONTINUOUS
 62
    7
 10
2793.0221027388998
 20
2016.8195734797296
 11
2792.707480058707
 21
2015.5620736965341
  0
LINE
  8
_0-0_
  6
CONTINUOUS
 62
    7
 10
2792.707480058707
 20
2015.5620736965341
 11
2792.707480058707
 21
2013.5827997568492
  0
LINE
  8
_0-0_
  6
CONTINUOUS
 62
    7
 10
2792.707480058707
 20
2013.5827997568492
 11
2796.1594111026484
 21
2007.7301985692793
  0
LINE
  8
_0-0_
  6
CONTINUOUS
 62
    7
 10
2802.8068680928941
 20
1965.7727868216377
 11
2808.5711519690549
 21
1944.6535536129043
  0
LINE
  8
_0-0_
  6
CONTINUOUS
 62
    7
 10
2799.3836742386393
 20
1963.1236390809754
 11
2803.702180192277
 21
1947.3013388144002
  0
LINE
  8
_0-0_
  6
CONTINUOUS
 62
    7
 10
2797.4657145614328
 20
1965.1554327121573
 11
2775.1740783337918
 21
1966.0014456671638
  0
LINE
  8
_0-0_
  6
CONTINUOUS
 62
    7
 10
2798.2916610305374
 20
1969.1271105144015
 11
2767.7695450359329
 21
1970.2852688056621
  0
LINE
  8
_0-0_
  6
CONTINUOUS
 62
    7
 10
2807.770722142518
 20
1981.4683709457574
 11
2799.6239766006765
 21
1969.482361635186
  0
LINE
  8
_0-0_
  6
CONTINUOUS
 62
    7
 10
2811.7262972091617
 20
1980.1724723315147
 11
2803.5706332291415
 21
1968.1732092308721
  0
LINE
  8
_0-0_
  6
CONTINUOUS
 62
    7
 10
2813.525344377319
 20
1981.4574706324279
 11
2835.8241649023812
 21
1979.597233068989
  0
LINE
  8
_0-0_
  6
CONTINUOUS
 62
    7
 10
2836.5827276163577
 20
1983.5478534477556
 11
2813.6118036807734
 21
1985.4643267185993
  0
LINE
  8
_0-0_
  6
CONTINUOUS
 62
    7
 10
2811.7044965825025
 20
1986.8947451087038
 11
2796.1594111026484
 21
2007.7301985692793
  0
LINE
  8
_0-0_
  6
CONTINUOUS
 62
    7
 10
2807.8063958952325
 20
1985.4306348410353
 11
2789.1215247076912
 21
2010.4739808483932
  0
LINE
  8
_0-0_
  6
CONTINUOUS
 62
    7
 10
2813.525344377319
 20
1981.4574706324279
 11
2811.7262972091617
 21
1980.1724723315147
  0
LINE
  8
_0-0_
  6
CONTINUOUS
 62
    7
 10
2811.7044965825025
 20
1986.8947451087038
 11
2813.6118036807734
 21
1985.4643267185993
  0
LINE
  8
_0-0_
  6
CONTINUOUS
 62
    7
 10
2807.8063958952325
 20
1985.4306348410353
 11
2808.540928373005
 21
1983.4714273872521
  0
LINE
  8
_0-0_
  6
CONTINUOUS
 62
    7
 10
2808.540928373005
 20
1983.4714273872521
 11
2807.770722142518
 21
1981.4683709457574
  0
LINE
  8
_0-0_
  6
CONTINUOUS
 62
    7
 10
2797.4657145614328
 20
1965.1554327121573
 11
2798.3625130671794
 21
1964.5279214925288
  0
LINE
  8
_0-0_
  6
CONTINUOUS
 62
    7
 10
2798.3625130671794
 20
1964.5279214925288
 11
2799.3836742386393
 21
1963.1236390809754
  0
LINE
  8
_0-0_
  6
CONTINUOUS
 62
    7
 10
2803.5706332291415
 20
1968.1732092308721
 11
2802.8068680928941
 21
1965.7727868216377
  0
LINE
  8
_0-0_
  6
CONTINUOUS
 62
    7
 10
2799.6239766006765
 20
1969.482361635186
 11
2798.2916610305374
 21
1969.1271105144015
  0
LINE
  8
_0-0_
  6
CONTINUOUS
 62
    7
 10
2761.8506748980076
 20
2011.9371001784864
 11
2761.8506748980076
 21
1972.8116641541706
  0
LINE
  8
_0-0_
  6
CONTINUOUS
 62
    7
 10
2766.7327765976597
 20
1933.8193853665503
 11
2805.4387982931839
 21
1933.8193853665503
  0
LINE
  8
_0-0_
  6
CONTINUOUS
 62
    7
 10
2844.8506152767932
 20
1938.7018586677934
 11
2844.8506152767932
 21
1976.2614894557644
  0
LINE
  8
_0-0_
  6
CONTINUOUS
 62
    7
 10
2761.8506748980076
 20
1963.5581652077929
 11
2761.8506748980076
 21
1938.7018586677934
  0
LINE
  8
_0-0_
  6
CONTINUOUS
 62
    7
 10
2781.673390156514
 20
2016.8195734797296
 11
2766.7327765976597
 21
2016.8195734797296
  0
LINE
  8
_0-0_
  6
CONTINUOUS
 62
    7
 10
2844.8506152767932
 20
1985.1781934936994
 11
2844.8506152767932
 21
2011.9371001784864
  0
LINE
  8
_0-0_
  6
CONTINUOUS
 62
    7
 10
2813.6502025118207
 20
1933.8193853665503
 11
2839.9680181083531
 21
1933.8193853665503
  0
LINE
  8
_0-0_
  6
CONTINUOUS
 62
    7
 10
2684.9350912322411
 20
2219.4437638212817
 11
2684.388836893796
 21
2219.8195768967557
  0
LINE
  8
_0-0_
  6
CONTINUOUS
 62
    7
 10
2684.9350912322411
 20
2219.4437638212817
 11
2686.3964764215771
 21
2216.8133200273551
  0
LINE
  8
_0-0_
  6
CONTINUOUS
 62
    7
 10
2686.3964764215771
 20
2216.8133200273551
 11
2688.4422670460117
 21
2210.9908185686386
  0
LINE
  8
_0-0_
  6
CONTINUOUS
 62
    7
 10
2692.0341680224801
 20
2213.6792322107262
 11
2692.1337572488083
 21
2215.764908072571
  0
LINE
  8
_0-0_
  6
CONTINUOUS
 62
    7
 10
2692.1337572488083
 20
2215.764908072571
 11
2692.4258360991603
 21
2217.8106986970051
  0
LINE
  8
_0-0_
  6
CONTINUOUS
 62
    7
 10
2692.4258360991603
 20
2217.8106986970051
 11
2693.7041455714398
 21
2219.8195768967557
  0
LINE
  8
_0-0_
  6
CONTINUOUS
 62
    7
 10
2736.6362682916943
 20
2184.0276548761199
 11
2741.435378969406
 21
2185.7811189158083
  0
LINE
  8
_0-0_
  6
CONTINUOUS
 62
    7
 10
2737.3995379591543
 20
2180.0933849673474
 11
2741.0176987813707
 21
2180.0933849673474
  0
LINE
  8
_0-0_
  6
CONTINUOUS
 62
    7
 10
2741.0176987813707
 20
2180.0933849673474
 11
2742.7711628210591
 21
2179.8010583826012
  0
LINE
  8
_0-0_
  6
CONTINUOUS
 62
    7
 10
2742.7711628210591
 20
2179.8010583826012
 11
2744.8503975886638
 21
2177.9197633956851
  0
LINE
  8
_0-0_
  6
CONTINUOUS
 62
    7
 10
2712.2797658912923
 20
2150.7101039812833
 11
2712.6989324856909
 21
2144.63317930008
  0
LINE
  8
_0-0_
  6
CONTINUOUS
 62
    7
 10
2712.6989324856909
 20
2144.63317930008
 11
2712.4066059009447
 21
2140.249271466465
  0
LINE
  8
_0-0_
  6
CONTINUOUS
 62
    7
 10
2712.4066059009447
 20
2140.249271466465
 11
2711.8222004658469
 21
2137.6188276725388
  0
LINE
  8
_0-0_
  6
CONTINUOUS
 62
    7
 10
2711.8222004658469
 20
2137.6188276725388
 11
2711.0227615768845
 21
2136.8193887835764
  0
LINE
  8
_0-0_
  6
CONTINUOUS
 62
    7
 10
2718.4290290155009
 20
2140.166775913312
 11
2720.1936411029124
 21
2138.0104957492194
  0
LINE
  8
_0-0_
  6
CONTINUOUS
 62
    7
 10
2720.1936411029124
 20
2138.0104957492194
 11
2721.622573086654
 21
2136.8193887835764
  0
LINE
  8
_0-0_
  6
CONTINUOUS
 62
    7
 10
2661.8504572098777
 20
2176.7365839306453
 11
2663.8385257205446
 21
2176.0738944270897
  0
LINE
  8
_0-0_
  6
CONTINUOUS
 62
    7
 10
2663.8385257205446
 20
2176.0738944270897
 11
2671.047596581654
 21
2177.7560109613482
  0
LINE
  8
_0-0_
  6
CONTINUOUS
 62
    7
 10
2674.5319808311906
 20
2174.6308415828985
 11
2667.152964175898
 21
2171.402366962212
  0
LINE
  8
_0-0_
  6
CONTINUOUS
 62
    7
 10
2667.152964175898
 20
2171.402366962212
 11
2663.7599939176935
 21
2169.4232168897238
  0
LINE
  8
_0-0_
  6
CONTINUOUS
 62
    7
 10
2663.7599939176935
 20
2169.4232168897238
 11
2661.8504572098777
 21
2168.1501098397157
  0
LINE
  8
_0-0_
  6
CONTINUOUS
 62
    7
 10
2711.4681880170315
 20
2177.5025786764372
 11
2736.6362682916943
 21
2184.0276548761199
  0
LINE
  8
_0-0_
  6
CONTINUOUS
 62
    7
 10
2716.7263505265519
 20
2174.7334036219531
 11
2737.3995379591543
 21
2180.0933849673474
  0
LINE
  8
_0-0_
  6
CONTINUOUS
 62
    7
 10
2712.5423643487761
 20
2170.1104320982708
 11
2718.4290290155009
 21
2140.166775913312
  0
LINE
  8
_0-0_
  6
CONTINUOUS
 62
    7
 10
2708.1312057318378
 20
2171.8123673840378
 11
2712.2797658912923
 21
2150.7101039812833
  0
LINE
  8
_0-0_
  6
CONTINUOUS
 62
    7
 10
2697.7580711924429
 20
2179.3427497539742
 11
2705.9984603351609
 21
2174.6605697101609
  0
LINE
  8
_0-0_
  6
CONTINUOUS
 62
    7
 10
2698.1477573939728
 20
2183.721702899712
 11
2708.5781185783476
 21
2177.7956484643651
  0
LINE
  8
_0-0_
  6
CONTINUOUS
 62
    7
 10
2697.1000886423708
 20
2184.5986826539497
 11
2692.0341680224801
 21
2213.6792322107262
  0
LINE
  8
_0-0_
  6
CONTINUOUS
 62
    7
 10
2691.8795817607156
 20
2191.2580308951005
 11
2688.4422670460117
 21
2210.9908185686386
  0
LINE
  8
_0-0_
  6
CONTINUOUS
 62
    7
 10
2691.6655392444272
 20
2183.9899992482542
 11
2671.047596581654
 21
2177.7560109613482
  0
LINE
  8
_0-0_
  6
CONTINUOUS
 62
    7
 10
2693.1048760727108
 20
2180.2464848227482
 11
2674.5319808311906
 21
2174.6308415828985
  0
LINE
  8
_0-0_
  6
CONTINUOUS
 62
    7
 10
2708.5781185783476
 20
2177.7956484643651
 11
2709.9027543822767
 21
2177.39407101193
  0
LINE
  8
_0-0_
  6
CONTINUOUS
 62
    7
 10
2709.9027543822767
 20
2177.39407101193
 11
2711.4681880170315
 21
2177.5025786764372
  0
LINE
  8
_0-0_
  6
CONTINUOUS
 62
    7
 10
2712.5423643487761
 20
2170.1104320982708
 11
2712.4306361371487
 21
2172.6192383048156
  0
LINE
  8
_0-0_
  6
CONTINUOUS
 62
    7
 10
2712.4306361371487
 20
2172.6192383048156
 11
2713.5541116132699
 21
2174.0236445835658
  0
LINE
  8
_0-0_
  6
CONTINUOUS
 62
    7
 10
2713.5541116132699
 20
2174.0236445835658
 11
2716.7263505265519
 21
2174.7334036219531
  0
LINE
  8
_0-0_
  6
CONTINUOUS
 62
    7
 10
2705.9984603351609
 20
2174.6605697101609
 11
2706.8130110221477
 21
2174.304327651801
  0
LINE
  8
_0-0_
  6
CONTINUOUS
 62
    7
 10
2706.8130110221477
 20
2174.304327651801
 11
2707.6558034300342
 21
2172.9001691074445
  0
LINE
  8
_0-0_
  6
CONTINUOUS
 62
    7
 10
2707.6558034300342
 20
2172.9001691074445
 11
2708.1312057318378
 21
2171.8123673840378
  0
LINE
  8
_0-0_
  6
CONTINUOUS
 62
    7
 10
2693.1048760727108
 20
2180.2464848227482
 11
2694.7352161186541
 21
2180.20288356943
  0
LINE
  8
_0-0_
  6
CONTINUOUS
 62
    7
 10
2694.7352161186541
 20
2180.20288356943
 11
2696.4205532000328
 21
2179.9219527668015
  0
LINE
  8
_0-0_
  6
CONTINUOUS
 62
    7
 10
2696.4205532000328
 20
2179.9219527668015
 11
2697.7580711924429
 21
2179.3427497539742
  0
LINE
  8
_0-0_
  6
CONTINUOUS
 62
    7
 10
2698.1477573939728
 20
2183.721702899712
 11
2697.1000886423708
 21
2184.5986826539497
  0
LINE
  8
_0-0_
  6
CONTINUOUS
 62
    7
 10
2691.8795817607156
 20
2191.2580308951005
 11
2692.4882651664116
 21
2187.5058457658097
  0
LINE
  8
_0-0_
  6
CONTINUOUS
 62
    7
 10
2692.4882651664116
 20
2187.5058457658097
 11
2692.4882651664116
 21
2185.539577881802
  0
LINE
  8
_0-0_
  6
CONTINUOUS
 62
    7
 10
2692.4882651664116
 20
2185.539577881802
 11
2691.6655392444272
 21
2183.9899992482542
  0
LINE
  8
_0-0_
  6
CONTINUOUS
 62
    7
 10
2741.435378969406
 20
2185.7811189158083
 11
2743.3273265352582
 21
2186.6630533579237
  0
LINE
  8
_0-0_
  6
CONTINUOUS
 62
    7
 10
2743.3273265352582
 20
2186.6630533579237
 11
2744.8503975886638
 21
2188.4041306779191
  0
LINE
  8
_0-0_
  6
CONTINUOUS
 62
    7
 10
2739.9682958890112
 20
2136.8193887835764
 11
2721.622573086654
 21
2136.8193887835764
  0
LINE
  8
_0-0_
  6
CONTINUOUS
 62
    7
 10
2661.8504572098777
 20
2141.7017382176227
 11
2661.8504572098777
 21
2168.1501098397157
  0
LINE
  8
_0-0_
  6
CONTINUOUS
 62
    7
 10
2666.7330543783182
 20
2219.8195768967557
 11
2684.388836893796
 21
2219.8195768967557
  0
LINE
  8
_0-0_
  6
CONTINUOUS
 62
    7
 10
2744.8503975886638
 20
2214.9372274627094
 11
2744.8503975886638
 21
2188.4041306779191
  0
LINE
  8
_0-0_
  6
CONTINUOUS
 62
    7
 10
2693.7041455714398
 20
2219.8195768967557
 11
2739.9682958890112
 21
2219.8195768967557
  0
LINE
  8
_0-0_
  6
CONTINUOUS
 62
    7
 10
2661.8504572098777
 20
2176.7365839306453
 11
2661.8504572098777
 21
2214.9372274627094
  0
LINE
  8
_0-0_
  6
CONTINUOUS
 62
    7
 10
2711.0227615768845
 20
2136.8193887835764
 11
2666.7330543783182
 21
2136.8193887835764
  0
LINE
  8
_0-0_
  6
CONTINUOUS
 62
    7
 10
2744.8503975886638
 20
2177.9197633956851
 11
2744.8503975886638
 21
2141.7017382176227
  0
LINE
  8
_0-0_
  6
CONTINUOUS
 62
    7
 10
2826.0359312668734
 20
2194.9829652410676
 11
2801.286769852215
 21
2190.7999700008672
  0
LINE
  8
_0-0_
  6
CONTINUOUS
 62
    7
 10
2802.2638343015697
 20
2185.894333533799
 11
2829.433113009773
 21
2190.4863382582498
  0
LINE
  8
_0-0_
  6
CONTINUOUS
 62
    7
 10
2786.1858721405383
 20
2211.0138578672668
 11
2799.2315653208143
 21
2191.9065995382066
  0
LINE
  8
_0-0_
  6
CONTINUOUS
 62
    7
 10
2779.242124815245
 20
2212.3166930445373
 11
2794.3920739369041
 21
2190.1268756527697
  0
LINE
  8
_0-0_
  6
CONTINUOUS
 62
    7
 10
2794.5303097286742
 20
2185.8160494653416
 11
2787.001413765101
 21
2174.7856755790563
  0
LINE
  8
_0-0_
  6
CONTINUOUS
 62
    7
 10
2799.8704723225596
 20
2184.7711057920715
 11
2792.2850929171882
 21
2173.6577408838457
  0
LINE
  8
_0-0_
  6
CONTINUOUS
 62
    7
 10
2792.3051594030903
 20
2170.3182812547134
 11
2810.4727611762678
 21
2149.4330331809733
  0
LINE
  8
_0-0_
  6
CONTINUOUS
 62
    7
 10
2789.4710779374168
 20
2165.9581559229082
 11
2808.7244995588503
 21
2143.8240787697573
  0
LINE
  8
_0-0_
  6
CONTINUOUS
 62
    7
 10
2785.1862638613429
 20
2167.4524897866268
 11
2769.6567856483016
 21
2159.5718109837831
  0
LINE
  8
_0-0_
  6
CONTINUOUS
 62
    7
 10
2784.6028493638205
 20
2172.7636674564319
 11
2774.223769198974
 21
2167.4965865087324
  0
LINE
  8
_0-0_
  6
CONTINUOUS
 62
    7
 10
2792.2850929171882
 20
2173.6577408838457
 11
2791.8220773350777
 21
2172.0900776395465
  0
LINE
  8
_0-0_
  6
CONTINUOUS
 62
    7
 10
2791.8220773350777
 20
2172.0900776395465
 11
2792.3051594030903
 21
2170.3182812547134
  0
LINE
  8
_0-0_
  6
CONTINUOUS
 62
    7
 10
2789.4710779374168
 20
2165.9581559229082
 11
2787.6068766236767
 21
2167.4653719751072
  0
LINE
  8
_0-0_
  6
CONTINUOUS
 62
    7
 10
2786.5728332637359
 20
2167.7299523077418
 11
2785.1862638613429
 21
2167.4524897866268
  0
LINE
  8
_0-0_
  6
CONTINUOUS
 62
    7
 10
2787.001413765101
 20
2174.7856755790563
 11
2784.6028493638205
 21
2172.7636674564319
  0
LINE
  8
_0-0_
  6
CONTINUOUS
 62
    7
 10
2787.6068766236767
 20
2167.4653719751072
 11
2786.5728332637359
 21
2167.7299523077418
  0
LINE
  8
_0-0_
  6
CONTINUOUS
 62
    7
 10
2802.2638343015697
 20
2185.894333533799
 11
2800.6424126938045
 21
2185.3753299786777
  0
LINE
  8
_0-0_
  6
CONTINUOUS
 62
    7
 10
2800.6424126938045
 20
2185.3753299786777
 11
2799.8704723225596
 21
2184.7711057920715
  0
LINE
  8
_0-0_
  6
CONTINUOUS
 62
    7
 10
2794.3920739369041
 20
2190.1268756527697
 11
2795.1977061857128
 21
2187.8799247005272
  0
LINE
  8
_0-0_
  6
CONTINUOUS
 62
    7
 10
2795.1977061857128
 20
2187.8799247005272
 11
2794.5303097286742
 21
2185.8160494653416
  0
LINE
  8
_0-0_
  6
CONTINUOUS
 62
    7
 10
2799.2315653208143
 20
2191.9065995382066
 11
2801.286769852215
 21
2190.7999700008672
  0
LINE
  8
_0-0_
  6
CONTINUOUS
 62
    7
 10
2785.6363972549734
 20
2219.8195768967557
 11
2783.6138936635607
 21
2218.497170702371
  0
LINE
  8
_0-0_
  6
CONTINUOUS
 62
    7
 10
2783.6138936635607
 20
2218.497170702371
 11
2783.2886184044328
 21
2217.194830993888
  0
LINE
  8
_0-0_
  6
CONTINUOUS
 62
    7
 10
2783.2886184044328
 20
2217.194830993888
 11
2786.1858721405383
 21
2211.0138578672668
  0
LINE
  8
_0-0_
  6
CONTINUOUS
 62
    7
 10
2769.8812330091323
 20
2219.8195768967557
 11
2771.8953136311534
 21
2219.1482166894152
  0
LINE
  8
_0-0_
  6
CONTINUOUS
 62
    7
 10
2771.8953136311534
 20
2219.1482166894152
 11
2775.1505435663762
 21
2217.194830993888
  0
LINE
  8
_0-0_
  6
CONTINUOUS
 62
    7
 10
2775.1505435663762
 20
2217.194830993888
 11
2779.242124815245
 21
2212.3166930445373
  0
LINE
  8
_0-0_
  6
CONTINUOUS
 62
    7
 10
2844.8107300393831
 20
2201.8959935015232
 11
2842.8575920782491
 21
2199.6173325468676
  0
LINE
  8
_0-0_
  6
CONTINUOUS
 62
    7
 10
2842.8575920782491
 20
2199.6173325468676
 11
2840.253408130071
 21
2198.3152405727783
  0
LINE
  8
_0-0_
  6
CONTINUOUS
 62
    7
 10
2840.253408130071
 20
2198.3152405727783
 11
2826.0359312668734
 21
2194.9829652410676
  0
LINE
  8
_0-0_
  6
CONTINUOUS
 62
    7
 10
2829.433113009773
 20
2190.4863382582498
 11
2834.3942419810646
 21
2190.8284594561601
  0
LINE
  8
_0-0_
  6
CONTINUOUS
 62
    7
 10
2834.3942419810646
 20
2190.8284594561601
 11
2840.253408130071
 21
2191.1537347152889
  0
LINE
  8
_0-0_
  6
CONTINUOUS
 62
    7
 10
2840.253408130071
 20
2191.1537347152889
 11
2842.532069084727
 21
2190.8284594561601
  0
LINE
  8
_0-0_
  6
CONTINUOUS
 62
    7
 10
2842.532069084727
 20
2190.8284594561601
 11
2844.485207045861
 21
2189.2008444885487
  0
LINE
  8
_0-0_
  6
CONTINUOUS
 62
    7
 10
2844.485207045861
 20
2189.2008444885487
 11
2844.8506152767932
 21
2188.3134598897691
  0
LINE
  8
_0-0_
  6
CONTINUOUS
 62
    7
 10
2774.223769198974
 20
2167.4965865087324
 11
2767.9892854432801
 21
2165.1128861710831
  0
LINE
  8
_0-0_
  6
CONTINUOUS
 62
    7
 10
2767.9892854432801
 20
2165.1128861710831
 11
2764.4085325145352
 21
2164.1360694561226
  0
LINE
  8
_0-0_
  6
CONTINUOUS
 62
    7
 10
2764.4085325145352
 20
2164.1360694561226
 11
2762.4556422877954
 21
2164.1360694561226
  0
LINE
  8
_0-0_
  6
CONTINUOUS
 62
    7
 10
2762.4556422877954
 20
2164.1360694561226
 11
2761.8506748980076
 21
2164.7841426304408
  0
LINE
  8
_0-0_
  6
CONTINUOUS
 62
    7
 10
2769.6567856483016
 20
2159.5718109837831
 11
2767.0127164627133
 21
2157.9513803135933
  0
LINE
  8
_0-0_
  6
CONTINUOUS
 62
    7
 10
2767.0127164627133
 20
2157.9513803135933
 11
2762.4556422877954
 21
2155.021673371893
  0
LINE
  8
_0-0_
  6
CONTINUOUS
 62
    7
 10
2762.4556422877954
 20
2155.021673371893
 11
2761.8506748980076
 21
2154.071116502681
  0
LINE
  8
_0-0_
  6
CONTINUOUS
 62
    7
 10
2810.4727611762678
 20
2149.4330331809733
 11
2820.7227717219171
 21
2139.7225881451345
  0
LINE
  8
_0-0_
  6
CONTINUOUS
 62
    7
 10
2820.7227717219171
 20
2139.7225881451345
 11
2826.8916058632394
 21
2136.8193887835764
  0
LINE
  8
_0-0_
  6
CONTINUOUS
 62
    7
 10
2808.7244995588503
 20
2143.8240787697573
 11
2810.3062836635986
 21
2140.0481111386571
  0
LINE
  8
_0-0_
  6
CONTINUOUS
 62
    7
 10
2810.3062836635986
 20
2140.0481111386571
 11
2809.9805129356828
 21
2138.0949731775231
  0
LINE
  8
_0-0_
  6
CONTINUOUS
 62
    7
 10
2809.9805129356828
 20
2138.0949731775231
 11
2809.230373191097
 21
2136.8193887835764
  0
LINE
  8
_0-0_
  6
CONTINUOUS
 62
    7
 10
2761.8506748980076
 20
2141.7017382176227
 11
2761.8506748980076
 21
2154.071116502681
  0
LINE
  8
_0-0_
  6
CONTINUOUS
 62
    7
 10
2766.7327765976597
 20
2219.8195768967557
 11
2769.8812330091323
 21
2219.8195768967557
  0
LINE
  8
_0-0_
  6
CONTINUOUS
 62
    7
 10
2844.8506152767932
 20
2214.9372274627094
 11
2844.8506152767932
 21
2201.8959935015232
  0
LINE
  8
_0-0_
  6
CONTINUOUS
 62
    7
 10
2839.9680181083531
 20
2136.8193887835764
 11
2826.8916058632394
 21
2136.8193887835764
  0
LINE
  8
_0-0_
  6
CONTINUOUS
 62
    7
 10
2844.8506152767932
 20
2188.3134598897691
 11
2844.8506152767932
 21
2141.7017382176227
  0
LINE
  8
_0-0_
  6
CONTINUOUS
 62
    7
 10
2785.6363972549734
 20
2219.8195768967557
 11
2839.9680181083531
 21
2219.8195768967557
  0
LINE
  8
_0-0_
  6
CONTINUOUS
 62
    7
 10
2761.8506748980076
 20
2164.7841426304408
 11
2761.8506748980076
 21
2214.9372274627094
  0
LINE
  8
_0-0_
  6
CONTINUOUS
 62
    7
 10
2809.230373191097
 20
2136.8193887835764
 11
2766.7327765976597
 21
2136.8193887835764
  0
LINE
  8
_0-0_
  6
CONTINUOUS
 62
    7
 10
2844.4750499357128
 20
2096.7347251862629
 11
2844.8506152767932
 21
2097.2812272591018
  0
LINE
  8
_0-0_
  6
CONTINUOUS
 62
    7
 10
2844.4750499357128
 20
2096.7347251862629
 11
2841.8443584073925
 21
2095.273339996927
  0
LINE
  8
_0-0_
  6
CONTINUOUS
 62
    7
 10
2841.8443584073925
 20
2095.273339996927
 11
2836.0218569486756
 21
2093.2277971068866
  0
LINE
  8
_0-0_
  6
CONTINUOUS
 62
    7
 10
2838.7100228563695
 20
2089.6356483960244
 11
2840.7959464526084
 21
2089.5365546384833
  0
LINE
  8
_0-0_
  6
CONTINUOUS
 62
    7
 10
2840.7959464526084
 20
2089.5365546384833
 11
2842.8417370770426
 21
2089.2442280537371
  0
LINE
  8
_0-0_
  6
CONTINUOUS
 62
    7
 10
2842.8417370770426
 20
2089.2442280537371
 11
2844.8506152767932
 21
2087.965918581458
  0
LINE
  8
_0-0_
  6
CONTINUOUS
 62
    7
 10
2809.0586932561569
 20
2045.0336719940069
 11
2810.8121572958457
 21
2040.234561316295
  0
LINE
  8
_0-0_
  6
CONTINUOUS
 62
    7
 10
2805.1244233473844
 20
2044.270526193744
 11
2805.1244233473844
 21
2040.6524892387242
  0
LINE
  8
_0-0_
  6
CONTINUOUS
 62
    7
 10
2805.1244233473844
 20
2040.6524892387242
 11
2804.8320967626387
 21
2038.8989013318387
  0
LINE
  8
_0-0_
  6
CONTINUOUS
 62
    7
 10
2804.8320967626387
 20
2038.8989013318387
 11
2802.9508017757225
 21
2036.8194188298407
  0
LINE
  8
_0-0_
  6
CONTINUOUS
 62
    7
 10
2775.7411423613207
 20
2069.3902982616055
 11
2769.6642176801174
 21
2068.9711316672074
  0
LINE
  8
_0-0_
  6
CONTINUOUS
 62
    7
 10
2769.6642176801174
 20
2068.9711316672074
 11
2765.2803098465024
 21
2069.2634582519531
  0
LINE
  8
_0-0_
  6
CONTINUOUS
 62
    7
 10
2765.2803098465024
 20
2069.2634582519531
 11
2762.6498660525758
 21
2069.8478636870514
  0
LINE
  8
_0-0_
  6
CONTINUOUS
 62
    7
 10
2762.6498660525758
 20
2069.8478636870514
 11
2761.8506748980076
 21
2070.6470548416196
  0
LINE
  8
_0-0_
  6
CONTINUOUS
 62
    7
 10
2765.1980620277436
 20
2063.2407874030037
 11
2763.0415341292569
 21
2061.4765469171825
  0
LINE
  8
_0-0_
  6
CONTINUOUS
 62
    7
 10
2763.0415341292569
 20
2061.4765469171825
 11
2761.8506748980076
 21
2060.0473671990471
  0
LINE
  8
_0-0_
  6
CONTINUOUS
 62
    7
 10
2801.7676223106828
 20
2119.8193592086263
 11
2801.1049328071272
 21
2117.8317861667474
  0
LINE
  8
_0-0_
  6
CONTINUOUS
 62
    7
 10
2801.1049328071272
 20
2117.8317861667474
 11
2802.7870493413861
 21
2110.62221983685
  0
LINE
  8
_0-0_
  6
CONTINUOUS
 62
    7
 10
2799.6618799629359
 20
2107.1378355873135
 11
2796.4334053422494
 21
2114.5170999769998
  0
LINE
  8
_0-0_
  6
CONTINUOUS
 62
    7
 10
2796.4334053422494
 20
2114.5170999769998
 11
2794.4542552697612
 21
2117.9098225008106
  0
LINE
  8
_0-0_
  6
CONTINUOUS
 62
    7
 10
2794.4542552697612
 20
2117.9098225008106
 11
2793.1811482197531
 21
2119.8193592086263
  0
LINE
  8
_0-0_
  6
CONTINUOUS
 62
    7
 10
2802.5336170564747
 20
2070.2018761358668
 11
2809.0586932561569
 21
2045.0336719940069
  0
LINE
  8
_0-0_
  6
CONTINUOUS
 62
    7
 10
2799.7644420019906
 20
2064.9437136263459
 11
2805.1244233473844
 21
2044.270526193744
  0
LINE
  8
_0-0_
  6
CONTINUOUS
 62
    7
 10
2795.1417182127025
 20
2069.1276998041217
 11
2765.1980620277436
 21
2063.2407874030037
  0
LINE
  8
_0-0_
  6
CONTINUOUS
 62
    7
 10
2796.8434057640752
 20
2073.5388584210605
 11
2775.7411423613207
 21
2069.3902982616055
  0
LINE
  8
_0-0_
  6
CONTINUOUS
 62
    7
 10
2804.3737881340116
 20
2083.9122406948486
 11
2799.6916080901979
 21
2075.6716038177374
  0
LINE
  8
_0-0_
  6
CONTINUOUS
 62
    7
 10
2808.7527412797494
 20
2083.522306758925
 11
2802.8266868444025
 21
2073.0921933089444
  0
LINE
  8
_0-0_
  6
CONTINUOUS
 62
    7
 10
2809.6297210339872
 20
2084.5702232449212
 11
2838.7100228563695
 21
2089.6356483960244
  0
LINE
  8
_0-0_
  6
CONTINUOUS
 62
    7
 10
2816.289069275138
 20
2089.7902346577885
 11
2836.0218569486756
 21
2093.2277971068866
  0
LINE
  8
_0-0_
  6
CONTINUOUS
 62
    7
 10
2809.0210376282912
 20
2090.0042771740768
 11
2802.7870493413861
 21
2110.62221983685
  0
LINE
  8
_0-0_
  6
CONTINUOUS
 62
    7
 10
2805.2775232027857
 20
2088.5651880801875
 11
2799.6618799629359
 21
2107.1378355873135
  0
LINE
  8
_0-0_
  6
CONTINUOUS
 62
    7
 10
2802.8266868444025
 20
2073.0921933089444
 11
2802.4253571263607
 21
2071.7673097706206
  0
LINE
  8
_0-0_
  6
CONTINUOUS
 62
    7
 10
2802.4253571263607
 20
2071.7673097706206
 11
2802.5336170564747
 21
2070.2018761358668
  0
LINE
  8
_0-0_
  6
CONTINUOUS
 62
    7
 10
2795.1417182127025
 20
2069.1276998041217
 11
2797.6505244192467
 21
2069.2394280157496
  0
LINE
  8
_0-0_
  6
CONTINUOUS
 62
    7
 10
2797.6505244192467
 20
2069.2394280157496
 11
2799.0546829636032
 21
2068.1159525396279
  0
LINE
  8
_0-0_
  6
CONTINUOUS
 62
    7
 10
2799.0546829636032
 20
2068.1159525396279
 11
2799.7644420019906
 21
2064.9437136263459
  0
LINE
  8
_0-0_
  6
CONTINUOUS
 62
    7
 10
2799.6916080901979
 20
2075.6716038177374
 11
2799.335366031838
 21
2074.8568053963563
  0
LINE
  8
_0-0_
  6
CONTINUOUS
 62
    7
 10
2799.335366031838
 20
2074.8568053963563
 11
2797.931207487482
 21
2074.0142607228636
  0
LINE
  8
_0-0_
  6
CONTINUOUS
 62
    7
 10
2797.931207487482
 20
2074.0142607228636
 11
2796.8434057640752
 21
2073.5388584210605
  0
LINE
  8
_0-0_
  6
CONTINUOUS
 62
    7
 10
2805.2775232027857
 20
2088.5651880801875
 11
2805.2339219494679
 21
2086.93460029985
  0
LINE
  8
_0-0_
  6
CONTINUOUS
 62
    7
 10
2805.2339219494679
 20
2086.93460029985
 11
2804.9529911468385
 21
2085.2492632184708
  0
LINE
  8
_0-0_
  6
CONTINUOUS
 62
    7
 10
2804.9529911468385
 20
2085.2492632184708
 11
2804.3737881340116
 21
2083.9122406948486
  0
LINE
  8
_0-0_
  6
CONTINUOUS
 62
    7
 10
2808.7527412797494
 20
2083.522306758925
 11
2809.6297210339872
 21
2084.5702232449212
  0
LINE
  8
_0-0_
  6
CONTINUOUS
 62
    7
 10
2816.289069275138
 20
2089.7902346577885
 11
2812.5368841458471
 21
2089.1815512520925
  0
LINE
  8
_0-0_
  6
CONTINUOUS
 62
    7
 10
2812.5368841458471
 20
2089.1815512520925
 11
2810.5708639962331
 21
2089.1815512520925
  0
LINE
  8
_0-0_
  6
CONTINUOUS
 62
    7
 10
2810.5708639962331
 20
2089.1815512520925
 11
2809.0210376282912
 21
2090.0042771740768
  0
LINE
  8
_0-0_
  6
CONTINUOUS
 62
    7
 10
2810.8121572958457
 20
2040.234561316295
 11
2811.6940917379607
 21
2038.3428614848369
  0
LINE
  8
_0-0_
  6
CONTINUOUS
 62
    7
 10
2811.6940917379607
 20
2038.3428614848369
 11
2813.4351690579565
 21
2036.8194188298407
  0
LINE
  8
_0-0_
  6
CONTINUOUS
 62
    7
 10
2761.8506748980076
 20
2041.7018921310837
 11
2761.8506748980076
 21
2060.0473671990471
  0
LINE
  8
_0-0_
  6
CONTINUOUS
 62
    7
 10
2766.7327765976597
 20
2119.8193592086263
 11
2793.1811482197531
 21
2119.8193592086263
  0
LINE
  8
_0-0_
  6
CONTINUOUS
 62
    7
 10
2844.8506152767932
 20
2114.9372575089737
 11
2844.8506152767932
 21
2097.2812272591018
  0
LINE
  8
_0-0_
  6
CONTINUOUS
 62
    7
 10
2844.8506152767932
 20
2087.965918581458
 11
2844.8506152767932
 21
2041.7018921310837
  0
LINE
  8
_0-0_
  6
CONTINUOUS
 62
    7
 10
2801.7676223106828
 20
2119.8193592086263
 11
2839.9680181083531
 21
2119.8193592086263
  0
LINE
  8
_0-0_
  6
CONTINUOUS
 62
    7
 10
2761.8506748980076
 20
2070.6470548416196
 11
2761.8506748980076
 21
2114.9372575089737
  0
LINE
  8
_0-0_
  6
CONTINUOUS
 62
    7
 10
2802.9508017757225
 20
2036.8194188298407
 11
2766.7327765976597
 21
2036.8194188298407
  0
LINE
  8
_0-0_
  6
CONTINUOUS
 62
    7
 10
1886.6869376340887
 20
1898.0049195160736
 11
1890.8699328742891
 21
1873.2557581014155
  0
LINE
  8
_0-0_
  6
CONTINUOUS
 62
    7
 10
1895.7756932085545
 20
1874.2329464179668
 11
1891.1836884841034
 21
1901.4021012589737
  0
LINE
  8
_0-0_
  6
CONTINUOUS
 62
    7
 10
1870.655921140693
 20
1858.154736522542
 11
1889.7633033369498
 21
1871.2005535700146
  0
LINE
  8
_0-0_
  6
CONTINUOUS
 62
    7
 10
1869.353333697816
 20
1851.2111130644457
 11
1891.5429033551895
 21
1866.3610621861048
  0
LINE
  8
_0-0_
  6
CONTINUOUS
 62
    7
 10
1895.8537295426181
 20
1866.4989263762836
 11
1906.884103428903
 21
1858.9702781471046
  0
LINE
  8
_0-0_
  6
CONTINUOUS
 62
    7
 10
1896.8987970830849
 20
1871.8394605717604
 11
1908.0120381241138
 21
1864.2542050335855
  0
LINE
  8
_0-0_
  6
CONTINUOUS
 62
    7
 10
1911.3514977532463
 20
1864.2741476522908
 11
1932.2371174285772
 21
1882.4417494254683
  0
LINE
  8
_0-0_
  6
CONTINUOUS
 62
    7
 10
1915.7116230850513
 20
1861.4400661866175
 11
1937.8458241053988
 21
1880.6936116752477
  0
LINE
  8
_0-0_
  6
CONTINUOUS
 62
    7
 10
1914.2172892213327
 20
1857.1553759777407
 11
1922.0979680241767
 21
1841.6257738975023
  0
LINE
  8
_0-0_
  6
CONTINUOUS
 62
    7
 10
1908.9064831531186
 20
1856.571837613021
 11
1914.1733163664239
 21
1846.1927574481742
  0
LINE
  8
_0-0_
  6
CONTINUOUS
 62
    7
 10
1908.0120381241138
 20
1864.2542050335855
 11
1909.5797013684128
 21
1863.7909417170815
  0
LINE
  8
_0-0_
  6
CONTINUOUS
 62
    7
 10
1909.5797013684128
 20
1863.7909417170815
 11
1911.3514977532463
 21
1864.2741476522908
  0
LINE
  8
_0-0_
  6
CONTINUOUS
 62
    7
 10
1915.7116230850513
 20
1861.4400661866175
 11
1914.2045309000493
 21
1859.5758648728772
  0
LINE
  8
_0-0_
  6
CONTINUOUS
 62
    7
 10
1913.9399505674148
 20
1858.5416976457395
 11
1914.2172892213327
 21
1857.1553759777407
  0
LINE
  8
_0-0_
  6
CONTINUOUS
 62
    7
 10
1906.884103428903
 20
1858.9702781471046
 11
1908.9064831531186
 21
1856.571837613021
  0
LINE
  8
_0-0_
  6
CONTINUOUS
 62
    7
 10
1914.2045309000493
 20
1859.5758648728772
 11
1913.9399505674148
 21
1858.5416976457395
  0
LINE
  8
_0-0_
  6
CONTINUOUS
 62
    7
 10
1895.7756932085545
 20
1874.2329464179668
 11
1896.2945728964787
 21
1872.6114009430048
  0
LINE
  8
_0-0_
  6
CONTINUOUS
 62
    7
 10
1896.2945728964787
 20
1872.6114009430048
 11
1896.8987970830849
 21
1871.8394605717604
  0
LINE
  8
_0-0_
  6
CONTINUOUS
 62
    7
 10
1891.5429033551895
 20
1866.3610621861048
 11
1893.7899781746294
 21
1867.1668183021102
  0
LINE
  8
_0-0_
  6
CONTINUOUS
 62
    7
 10
1893.7899781746294
 20
1867.1668183021102
 11
1895.8537295426181
 21
1866.4989263762836
  0
LINE
  8
_0-0_
  6
CONTINUOUS
 62
    7
 10
1889.7633033369498
 20
1871.2005535700146
 11
1890.8699328742891
 21
1873.2557581014155
  0
LINE
  8
_0-0_
  6
CONTINUOUS
 62
    7
 10
1861.8504498455973
 20
1857.6053855041737
 11
1863.1728560399824
 21
1855.5828819127619
  0
LINE
  8
_0-0_
  6
CONTINUOUS
 62
    7
 10
1863.1728560399824
 20
1855.5828819127619
 11
1864.4749480140715
 21
1855.2574827864362
  0
LINE
  8
_0-0_
  6
CONTINUOUS
 62
    7
 10
1864.4749480140715
 20
1855.2574827864362
 11
1870.655921140693
 21
1858.154736522542
  0
LINE
  8
_0-0_
  6
CONTINUOUS
 62
    7
 10
1861.8504498455973
 20
1841.8502212583328
 11
1862.521810052938
 21
1843.8644257475512
  0
LINE
  8
_0-0_
  6
CONTINUOUS
 62
    7
 10
1862.521810052938
 20
1843.8644257475512
 11
1864.4749480140715
 21
1847.1194079483798
  0
LINE
  8
_0-0_
  6
CONTINUOUS
 62
    7
 10
1864.4749480140715
 20
1847.1194079483798
 11
1869.353333697816
 21
1851.2111130644457
  0
LINE
  8
_0-0_
  6
CONTINUOUS
 62
    7
 10
1879.7741571080269
 20
1916.7797182885838
 11
1882.0526941954859
 21
1914.8265803274501
  0
LINE
  8
_0-0_
  6
CONTINUOUS
 62
    7
 10
1882.0526941954859
 20
1914.8265803274501
 11
1883.3546623023781
 21
1912.2223963792721
  0
LINE
  8
_0-0_
  6
CONTINUOUS
 62
    7
 10
1883.3546623023781
 20
1912.2223963792721
 11
1886.6869376340887
 21
1898.0049195160736
  0
LINE
  8
_0-0_
  6
CONTINUOUS
 62
    7
 10
1891.1836884841034
 20
1901.4021012589737
 11
1890.8415672861931
 21
1906.3632302302651
  0
LINE
  8
_0-0_
  6
CONTINUOUS
 62
    7
 10
1890.8415672861931
 20
1906.3632302302651
 11
1890.5161681598679
 21
1912.2223963792721
  0
LINE
  8
_0-0_
  6
CONTINUOUS
 62
    7
 10
1890.5161681598679
 20
1912.2223963792721
 11
1890.8415672861931
 21
1914.5010573339277
  0
LINE
  8
_0-0_
  6
CONTINUOUS
 62
    7
 10
1890.8415672861931
 20
1914.5010573339277
 11
1892.4691822538045
 21
1916.4540714278644
  0
LINE
  8
_0-0_
  6
CONTINUOUS
 62
    7
 10
1892.4691822538045
 20
1916.4540714278644
 11
1893.3564429853873
 21
1916.8194796587968
  0
LINE
  8
_0-0_
  6
CONTINUOUS
 62
    7
 10
1914.1733163664239
 20
1846.1927574481742
 11
1916.557264438467
 21
1839.9583975596779
  0
LINE
  8
_0-0_
  6
CONTINUOUS
 62
    7
 10
1916.557264438467
 20
1839.9583975596779
 11
1917.533833419034
 21
1836.3776446309328
  0
LINE
  8
_0-0_
  6
CONTINUOUS
 62
    7
 10
1917.533833419034
 20
1836.3776446309328
 11
1917.533833419034
 21
1834.4246305369961
  0
LINE
  8
_0-0_
  6
CONTINUOUS
 62
    7
 10
1917.533833419034
 20
1834.4246305369961
 11
1916.8856363775185
 21
1833.8196631472083
  0
LINE
  8
_0-0_
  6
CONTINUOUS
 62
    7
 10
1922.0979680241767
 20
1841.6257738975023
 11
1923.7185225615631
 21
1838.9817047119141
  0
LINE
  8
_0-0_
  6
CONTINUOUS
 62
    7
 10
1923.7185225615631
 20
1838.9817047119141
 11
1926.6481056360662
 21
1834.4246305369961
  0
LINE
  8
_0-0_
  6
CONTINUOUS
 62
    7
 10
1926.6481056360662
 20
1834.4246305369961
 11
1927.5987863724756
 21
1833.8196631472083
  0
LINE
  8
_0-0_
  6
CONTINUOUS
 62
    7
 10
1932.2371174285772
 20
1882.4417494254683
 11
1941.9473147300218
 21
1892.6916361039209
  0
LINE
  8
_0-0_
  6
CONTINUOUS
 62
    7
 10
1941.9473147300218
 20
1892.6916361039209
 11
1944.8503902243831
 21
1898.8605941124406
  0
LINE
  8
_0-0_
  6
CONTINUOUS
 62
    7
 10
1937.8458241053988
 20
1880.6936116752477
 11
1941.6217917364997
 21
1882.2751480456022
  0
LINE
  8
_0-0_
  6
CONTINUOUS
 62
    7
 10
1941.6217917364997
 20
1882.2751480456022
 11
1943.5750535648301
 21
1881.9495011848833
  0
LINE
  8
_0-0_
  6
CONTINUOUS
 62
    7
 10
1943.5750535648301
 20
1881.9495011848833
 11
1944.8503902243831
 21
1881.1993614402977
  0
LINE
  8
_0-0_
  6
CONTINUOUS
 62
    7
 10
1939.968040790337
 20
1833.8196631472083
 11
1927.5987863724756
 21
1833.8196631472083
  0
LINE
  8
_0-0_
  6
CONTINUOUS
 62
    7
 10
1861.8504498455973
 20
1838.7018887140575
 11
1861.8504498455973
 21
1841.8502212583328
  0
LINE
  8
_0-0_
  6
CONTINUOUS
 62
    7
 10
1866.7327992796438
 20
1916.8194796587968
 11
1879.7741571080269
 21
1916.8194796587968
  0
LINE
  8
_0-0_
  6
CONTINUOUS
 62
    7
 10
1944.8503902243831
 20
1911.9370063575539
 11
1944.8503902243831
 21
1898.8605941124406
  0
LINE
  8
_0-0_
  6
CONTINUOUS
 62
    7
 10
1893.3564429853873
 20
1916.8194796587968
 11
1939.968040790337
 21
1916.8194796587968
  0
LINE
  8
_0-0_
  6
CONTINUOUS
 62
    7
 10
1861.8504498455973
 20
1857.6053855041737
 11
1861.8504498455973
 21
1911.9370063575539
  0
LINE
  8
_0-0_
  6
CONTINUOUS
 62
    7
 10
1916.8856363775185
 20
1833.8196631472083
 11
1866.7327992796438
 21
1833.8196631472083
  0
LINE
  8
_0-0_
  6
CONTINUOUS
 62
    7
 10
1944.8503902243831
 20
1881.1993614402977
 11
1944.8503902243831
 21
1838.7018887140575
  0
LINE
  8
_0-0_
  6
CONTINUOUS
 62
    7
 10
1938.8518734788342
 20
1997.1560275692739
 11
1941.3419757386432
 21
2000.0293749363727
  0
LINE
  8
_0-0_
  6
CONTINUOUS
 62
    7
 10
1941.3419757386432
 20
2000.0293749363727
 11
1943.7360809208344
 21
2004.4753402356473
  0
LINE
  8
_0-0_
  6
CONTINUOUS
 62
    7
 10
1943.7360809208344
 20
2004.4753402356473
 11
1944.8503902243831
 21
2007.9778090959348
  0
LINE
  8
_0-0_
  6
CONTINUOUS
 62
    7
 10
1938.5545922062111
 20
1990.5395373782596
 11
1940.5953042755714
 21
1991.3798524422075
  0
LINE
  8
_0-0_
  6
CONTINUOUS
 62
    7
 10
1940.5953042755714
 20
1991.3798524422075
 11
1942.6474121270494
 21
1992.0637232364375
  0
LINE
  8
_0-0_
  6
CONTINUOUS
 62
    7
 10
1942.6474121270494
 20
1992.0637232364375
 11
1944.0152775827062
 21
1992.0637232364375
  0
LINE
  8
_0-0_
  6
CONTINUOUS
 62
    7
 10
1923.7150542800489
 20
1942.0631189235849
 11
1926.0348391440843
 21
1937.9392083363182
  0
LINE
  8
_0-0_
  6
CONTINUOUS
 62
    7
 10
1926.0348391440843
 20
1937.9392083363182
 11
1927.4028284669382
 21
1936.2292216827509
  0
LINE
  8
_0-0_
  6
CONTINUOUS
 62
    7
 10
1927.4028284669382
 20
1936.2292216827509
 11
1933.0256560042096
 21
1933.8193853665503
  0
LINE
  8
_0-0_
  6
CONTINUOUS
 62
    7
 10
1917.2402681623184
 20
1944.2880215147748
 11
1918.2821151556655
 21
1941.2925410915066
  0
LINE
  8
_0-0_
  6
CONTINUOUS
 62
    7
 10
1918.2821151556655
 20
1941.2925410915066
 11
1919.6501044785193
 21
1936.8465757922318
  0
LINE
  8
_0-0_
  6
CONTINUOUS
 62
    7
 10
1919.6501044785193
 20
1936.8465757922318
 11
1919.3081071478059
 21
1934.110597146524
  0
LINE
  8
_0-0_
  6
CONTINUOUS
 62
    7
 10
1919.3081071478059
 20
1934.110597146524
 11
1919.1043456088621
 21
1933.8193853665503
  0
LINE
  8
_0-0_
  6
CONTINUOUS
 62
    7
 10
1870.7526614214921
 20
1957.4446997034963
 11
1866.6917992374611
 21
1953.7368590307051
  0
LINE
  8
_0-0_
  6
CONTINUOUS
 62
    7
 10
1866.6917992374611
 20
1953.7368590307051
 11
1864.2978179224669
 21
1949.6327671949466
  0
LINE
  8
_0-0_
  6
CONTINUOUS
 62
    7
 10
1864.2978179224669
 20
1949.6327671949466
 11
1862.5877074017026
 21
1945.186801895672
  0
LINE
  8
_0-0_
  6
CONTINUOUS
 62
    7
 10
1861.8504498455973
 20
1942.9078932066222
 11
1862.5877074017026
 21
1945.186801895672
  0
LINE
  8
_0-0_
  6
CONTINUOUS
 62
    7
 10
1861.8504498455973
 20
1960.0376117367543
 11
1864.0799355230738
 21
1960.0376117367543
  0
LINE
  8
_0-0_
  6
CONTINUOUS
 62
    7
 10
1864.0799355230738
 20
1960.0376117367543
 11
1867.3180717851205
 21
1961.1582382673462
  0
LINE
  8
_0-0_
  6
CONTINUOUS
 62
    7
 10
1873.69537441887
 20
2016.8195734797296
 11
1875.5032161580089
 21
2014.9054536856279
  0
LINE
  8
_0-0_
  6
CONTINUOUS
 62
    7
 10
1875.5032161580089
 20
2014.9054536856279
 11
1877.5552001422898
 21
2010.1172433212457
  0
LINE
  8
_0-0_
  6
CONTINUOUS
 62
    7
 10
1877.5552001422898
 20
2010.1172433212457
 11
1879.0378904894974
 21
2006.4928891391828
  0
LINE
  8
_0-0_
  6
CONTINUOUS
 62
    7
 10
1886.1530700153367
 20
2016.8195734797296
 11
1885.3647791740977
 21
2015.8340860609842
  0
LINE
  8
_0-0_
  6
CONTINUOUS
 62
    7
 10
1885.3647791740977
 20
2015.8340860609842
 11
1883.9967898512439
 21
2013.4401047459901
  0
LINE
  8
_0-0_
  6
CONTINUOUS
 62
    7
 10
1883.9967898512439
 20
2013.4401047459901
 11
1883.9967898512439
 21
2010.3621287695687
  0
LINE
  8
_0-0_
  6
CONTINUOUS
 62
    7
 10
1883.9967898512439
 20
2010.3621287695687
 11
1885.7560756491878
 21
2000.3086954654414
  0
LINE
  8
_0-0_
  6
CONTINUOUS
 62
    7
 10
1910.4544515131061
 20
1974.6398201136053
 11
1938.8518734788342
 21
1997.1560275692739
  0
LINE
  8
_0-0_
  6
CONTINUOUS
 62
    7
 10
1913.7936634078449
 20
1970.9064627982475
 11
1938.5545922062111
 21
1990.5395373782596
  0
LINE
  8
_0-0_
  6
CONTINUOUS
 62
    7
 10
1912.9444299057184
 20
1966.1130500115942
 11
1923.7150542800489
 21
1942.0631189235849
  0
LINE
  8
_0-0_
  6
CONTINUOUS
 62
    7
 10
1907.8040651004746
 20
1965.3575839775408
 11
1917.2402681623184
 21
1944.2880215147748
  0
LINE
  8
_0-0_
  6
CONTINUOUS
 62
    7
 10
1892.5145176478793
 20
1970.406287057059
 11
1903.9380460172085
 21
1968.2303120086553
  0
LINE
  8
_0-0_
  6
CONTINUOUS
 62
    7
 10
1894.3155466911876
 20
1975.1532496448649
 11
1906.1327250123484
 21
1972.9022110751237
  0
LINE
  8
_0-0_
  6
CONTINUOUS
 62
    7
 10
1885.7560756491878
 20
2000.3086954654414
 11
1891.4801026863481
 21
1977.6375301464186
  0
LINE
  8
_0-0_
  6
CONTINUOUS
 62
    7
 10
1879.0378904894974
 20
2006.4928891391828
 11
1886.8781885861429
 21
1975.4392590025677
  0
LINE
  8
_0-0_
  6
CONTINUOUS
 62
    7
 10
1885.8005439728843
 20
1973.6430607799398
 11
1867.3180717851205
 21
1961.1582382673462
  0
LINE
  8
_0-0_
  6
CONTINUOUS
 62
    7
 10
1889.4756837056871
 20
1970.0917882440631
 11
1870.7526614214921
 21
1957.4446997034963
  0
LINE
  8
_0-0_
  6
CONTINUOUS
 62
    7
 10
1892.0988193349947
 20
1976.4000968491248
 11
1894.3155466911876
 21
1975.1532496448649
  0
LINE
  8
_0-0_
  6
CONTINUOUS
 62
    7
 10
1891.4801026863481
 20
1977.6375301464186
 11
1892.0988193349947
 21
1976.4000968491248
  0
LINE
  8
_0-0_
  6
CONTINUOUS
 62
    7
 10
1885.8005439728843
 20
1973.6430607799398
 11
1886.8781885861429
 21
1975.4392590025677
  0
LINE
  8
_0-0_
  6
CONTINUOUS
 62
    7
 10
1889.4756837056871
 20
1970.0917882440631
 11
1892.5145176478793
 21
1970.406287057059
  0
LINE
  8
_0-0_
  6
CONTINUOUS
 62
    7
 10
1907.6362250486395
 20
1973.1026281997504
 11
1910.4544515131061
 21
1974.6398201136053
  0
LINE
  8
_0-0_
  6
CONTINUOUS
 62
    7
 10
1906.1327250123484
 20
1972.9022110751237
 11
1907.6362250486395
 21
1973.1026281997504
  0
LINE
  8
_0-0_
  6
CONTINUOUS
 62
    7
 10
1903.9380460172085
 20
1968.2303120086553
 11
1906.1246736445482
 21
1967.4103111650033
  0
LINE
  8
_0-0_
  6
CONTINUOUS
 62
    7
 10
1906.1246736445482
 20
1967.4103111650033
 11
1907.8040651004746
 21
1965.3575839775408
  0
LINE
  8
_0-0_
  6
CONTINUOUS
 62
    7
 10
1912.4165079124186
 20
1968.4884512470494
 11
1912.9444299057184
 21
1966.1130500115942
  0
LINE
  8
_0-0_
  6
CONTINUOUS
 62
    7
 10
1912.6919885583825
 20
1969.3153886537293
 11
1912.4165079124186
 21
1968.4884512470494
  0
LINE
  8
_0-0_
  6
CONTINUOUS
 62
    7
 10
1913.7936634078449
 20
1970.9064627982475
 11
1912.6919885583825
 21
1969.3153886537293
  0
LINE
  8
_0-0_
  6
CONTINUOUS
 62
    7
 10
1944.0152775827062
 20
1992.0637232364375
 11
1944.8503902243831
 21
1991.4114385774237
  0
LINE
  8
_0-0_
  6
CONTINUOUS
 62
    7
 10
1866.7327992796438
 20
1933.8193853665503
 11
1919.1043456088621
 21
1933.8193853665503
  0
LINE
  8
_0-0_
  6
CONTINUOUS
 62
    7
 10
1944.8503902243831
 20
1938.7018586677934
 11
1944.8503902243831
 21
1991.4114385774237
  0
LINE
  8
_0-0_
  6
CONTINUOUS
 62
    7
 10
1939.968040790337
 20
2016.8195734797296
 11
1886.1530700153367
 21
2016.8195734797296
  0
LINE
  8
_0-0_
  6
CONTINUOUS
 62
    7
 10
1861.8504498455973
 20
2011.9371001784864
 11
1861.8504498455973
 21
1960.0376117367543
  0
LINE
  8
_0-0_
  6
CONTINUOUS
 62
    7
 10
1873.69537441887
 20
2016.8195734797296
 11
1866.7327992796438
 21
2016.8195734797296
  0
LINE
  8
_0-0_
  6
CONTINUOUS
 62
    7
 10
1861.8504498455973
 20
1942.9078932066222
 11
1861.8504498455973
 21
1938.7018586677934
  0
LINE
  8
_0-0_
  6
CONTINUOUS
 62
    7
 10
1933.0256560042096
 20
1933.8193853665503
 11
1939.968040790337
 21
1933.8193853665503
  0
LINE
  8
_0-0_
  6
CONTINUOUS
 62
    7
 10
1944.8503902243831
 20
2007.9778090959348
 11
1944.8503902243831
 21
2011.9371001784864
  0
LINE
  8
_0-0_
  6
CONTINUOUS
 62
    7
 10
2025.1870620020568
 20
1839.8180560255603
 11
2028.0604093691556
 21
1837.3280776329484
  0
LINE
  8
_0-0_
  6
CONTINUOUS
 62
    7
 10
2028.0604093691556
 20
1837.3280776329484
 11
2032.5063746684307
 21
1834.9338485835601
  0
LINE
  8
_0-0_
  6
CONTINUOUS
 62
    7
 10
2032.5063746684307
 20
1834.9338485835601
 11
2036.0087196615211
 21
1833.8196631472083
  0
LINE
  8
_0-0_
  6
CONTINUOUS
 62
    7
 10
2018.5704479438457
 20
1840.1155850325772
 11
2019.4106391405967
 21
1838.0746252288227
  0
LINE
  8
_0-0_
  6
CONTINUOUS
 62
    7
 10
2019.4106391405967
 20
1838.0746252288227
 11
2020.0946338020235
 21
1836.0226412445422
  0
LINE
  8
_0-0_
  6
CONTINUOUS
 62
    7
 10
2020.0946338020235
 20
1836.0226412445422
 11
2020.0946338020235
 21
1834.6547757888854
  0
LINE
  8
_0-0_
  6
CONTINUOUS
 62
    7
 10
1970.0940294891711
 20
1854.9546274899515
 11
1965.9702427691013
 21
1852.63509036031
  0
LINE
  8
_0-0_
  6
CONTINUOUS
 62
    7
 10
1965.9702427691013
 20
1852.63509036031
 11
1964.260256115534
 21
1851.2669771702595
  0
LINE
  8
_0-0_
  6
CONTINUOUS
 62
    7
 10
1964.260256115534
 20
1851.2669771702595
 11
1961.8504197993334
 21
1845.6441496329878
  0
LINE
  8
_0-0_
  6
CONTINUOUS
 62
    7
 10
1972.318932080361
 20
1861.4296613420761
 11
1969.3235755242895
 21
1860.3879382159257
  0
LINE
  8
_0-0_
  6
CONTINUOUS
 62
    7
 10
1969.3235755242895
 20
1860.3879382159257
 11
1964.8774863578178
 21
1859.0198250258752
  0
LINE
  8
_0-0_
  6
CONTINUOUS
 62
    7
 10
1964.8774863578178
 20
1859.0198250258752
 11
1962.1413838449132
 21
1859.3618223565886
  0
LINE
  8
_0-0_
  6
CONTINUOUS
 62
    7
 10
1962.1413838449132
 20
1859.3618223565886
 11
1961.8504197993334
 21
1859.5657077627291
  0
LINE
  8
_0-0_
  6
CONTINUOUS
 62
    7
 10
1985.4754864018855
 20
1907.917391950099
 11
1981.7677695962914
 21
1911.9781302669332
  0
LINE
  8
_0-0_
  6
CONTINUOUS
 62
    7
 10
1981.7677695962914
 20
1911.9781302669332
 11
1977.6636777605331
 21
1914.3721115819276
  0
LINE
  8
_0-0_
  6
CONTINUOUS
 62
    7
 10
1977.6636777605331
 20
1914.3721115819276
 11
1973.2177124612579
 21
1916.0820982354949
  0
LINE
  8
_0-0_
  6
CONTINUOUS
 62
    7
 10
1970.9388037722083
 20
1916.8194796587968
 11
1973.2177124612579
 21
1916.0820982354949
  0
LINE
  8
_0-0_
  6
CONTINUOUS
 62
    7
 10
1988.0683984351435
 20
1916.8194796587968
 11
1988.0683984351435
 21
1914.5898701141241
  0
LINE
  8
_0-0_
  6
CONTINUOUS
 62
    7
 10
1988.0683984351435
 20
1914.5898701141241
 11
1989.1892727001295
 21
1911.351857719274
  0
LINE
  8
_0-0_
  6
CONTINUOUS
 62
    7
 10
2044.850360178119
 20
1904.9745550855246
 11
2042.9363642512139
 21
1903.1668372135825
  0
LINE
  8
_0-0_
  6
CONTINUOUS
 62
    7
 10
2042.9363642512139
 20
1903.1668372135825
 11
2038.1482777540286
 21
1901.1147293621048
  0
LINE
  8
_0-0_
  6
CONTINUOUS
 62
    7
 10
2038.1482777540286
 20
1901.1147293621048
 11
2034.5237997047689
 21
1899.6321628820942
  0
LINE
  8
_0-0_
  6
CONTINUOUS
 62
    7
 10
2044.850360178119
 20
1892.5167356218612
 11
2043.8651204937673
 21
1893.3050264630997
  0
LINE
  8
_0-0_
  6
CONTINUOUS
 62
    7
 10
2043.8651204937673
 20
1893.3050264630997
 11
2041.471139178773
 21
1894.6731396531507
  0
LINE
  8
_0-0_
  6
CONTINUOUS
 62
    7
 10
2041.471139178773
 20
1894.6731396531507
 11
2038.3930393351552
 21
1894.6731396531507
  0
LINE
  8
_0-0_
  6
CONTINUOUS
 62
    7
 10
2038.3930393351552
 20
1894.6731396531507
 11
2028.3396060310274
 21
1892.9136061208128
  0
LINE
  8
_0-0_
  6
CONTINUOUS
 62
    7
 10
2002.6708545463885
 20
1868.2153541240914
 11
2025.1870620020568
 21
1839.8180560255603
  0
LINE
  8
_0-0_
  6
CONTINUOUS
 62
    7
 10
1998.9374972310304
 20
1864.8762660965497
 11
2018.5704479438457
 21
1840.1155850325772
  0
LINE
  8
_0-0_
  6
CONTINUOUS
 62
    7
 10
1994.1439605771805
 20
1865.7253757314791
 11
1970.0940294891711
 21
1854.9546274899515
  0
LINE
  8
_0-0_
  6
CONTINUOUS
 62
    7
 10
1993.3886184103242
 20
1870.8657405367228
 11
1972.318932080361
 21
1861.4296613420761
  0
LINE
  8
_0-0_
  6
CONTINUOUS
 62
    7
 10
1998.4371976226453
 20
1886.1552879893181
 11
1996.2612225742414
 21
1874.7320073543826
  0
LINE
  8
_0-0_
  6
CONTINUOUS
 62
    7
 10
2003.1840363432543
 20
1884.3543828132069
 11
2000.9331216407099
 21
1872.5372044920462
  0
LINE
  8
_0-0_
  6
CONTINUOUS
 62
    7
 10
2028.3396060310274
 20
1892.9136061208128
 11
2005.6683168448076
 21
1887.1898268180464
  0
LINE
  8
_0-0_
  6
CONTINUOUS
 62
    7
 10
2034.5237997047689
 20
1899.6321628820942
 11
2003.4702934353506
 21
1891.7917409182517
  0
LINE
  8
_0-0_
  6
CONTINUOUS
 62
    7
 10
2001.6740952127227
 20
1892.86938553151
 11
1989.1892727001295
 21
1911.351857719274
  0
LINE
  8
_0-0_
  6
CONTINUOUS
 62
    7
 10
1998.1228226768465
 20
1889.1943696659043
 11
1985.4754864018855
 21
1907.917391950099
  0
LINE
  8
_0-0_
  6
CONTINUOUS
 62
    7
 10
2004.4310074147111
 20
1886.5709863022028
 11
2003.1840363432543
 21
1884.3543828132069
  0
LINE
  8
_0-0_
  6
CONTINUOUS
 62
    7
 10
2005.6683168448076
 20
1887.1898268180464
 11
2004.4310074147111
 21
1886.5709863022028
  0
LINE
  8
_0-0_
  6
CONTINUOUS
 62
    7
 10
2001.6740952127227
 20
1892.86938553151
 11
2003.4702934353506
 21
1891.7917409182517
  0
LINE
  8
_0-0_
  6
CONTINUOUS
 62
    7
 10
1998.1228226768465
 20
1889.1943696659043
 11
1998.4371976226453
 21
1886.1552879893181
  0
LINE
  8
_0-0_
  6
CONTINUOUS
 62
    7
 10
2001.1335387653367
 20
1871.0334567213611
 11
2002.6708545463885
 21
1868.2153541240914
  0
LINE
  8
_0-0_
  6
CONTINUOUS
 62
    7
 10
2000.9331216407099
 20
1872.5372044920462
 11
2001.1335387653367
 21
1871.0334567213611
  0
LINE
  8
_0-0_
  6
CONTINUOUS
 62
    7
 10
1996.2612225742414
 20
1874.7320073543826
 11
1995.4413455977863
 21
1872.5453797270434
  0
LINE
  8
_0-0_
  6
CONTINUOUS
 62
    7
 10
1995.4413455977863
 20
1872.5453797270434
 11
1993.3886184103242
 21
1870.8657405367228
  0
LINE
  8
_0-0_
  6
CONTINUOUS
 62
    7
 10
1996.5194856798325
 20
1866.2534215919759
 11
1994.1439605771805
 21
1865.7253757314791
  0
LINE
  8
_0-0_
  6
CONTINUOUS
 62
    7
 10
1997.3462992193154
 20
1865.977817078815
 11
1996.5194856798325
 21
1866.2534215919759
  0
LINE
  8
_0-0_
  6
CONTINUOUS
 62
    7
 10
1998.9374972310304
 20
1864.8762660965497
 11
1997.3462992193154
 21
1865.977817078815
  0
LINE
  8
_0-0_
  6
CONTINUOUS
 62
    7
 10
2020.0946338020235
 20
1834.6547757888854
 11
2019.4423491430098
 21
1833.8196631472083
  0
LINE
  8
_0-0_
  6
CONTINUOUS
 62
    7
 10
1961.8504197993334
 20
1911.9370063575539
 11
1961.8504197993334
 21
1859.5657077627291
  0
LINE
  8
_0-0_
  6
CONTINUOUS
 62
    7
 10
1966.7327692333797
 20
1833.8196631472083
 11
2019.4423491430098
 21
1833.8196631472083
  0
LINE
  8
_0-0_
  6
CONTINUOUS
 62
    7
 10
2044.850360178119
 20
1838.7018887140575
 11
2044.850360178119
 21
1892.5167356218612
  0
LINE
  8
_0-0_
  6
CONTINUOUS
 62
    7
 10
2039.9680107440727
 20
1916.8194796587968
 11
1988.0683984351435
 21
1916.8194796587968
  0
LINE
  8
_0-0_
  6
CONTINUOUS
 62
    7
 10
2044.850360178119
 20
1904.9745550855246
 11
2044.850360178119
 21
1911.9370063575539
  0
LINE
  8
_0-0_
  6
CONTINUOUS
 62
    7
 10
1970.9388037722083
 20
1916.8194796587968
 11
1966.7327692333797
 21
1916.8194796587968
  0
LINE
  8
_0-0_
  6
CONTINUOUS
 62
    7
 10
1961.8504197993334
 20
1845.6441496329878
 11
1961.8504197993334
 21
1838.7018887140575
  0
LINE
  8
_0-0_
  6
CONTINUOUS
 62
    7
 10
2036.0087196615211
 20
1833.8196631472083
 11
2039.9680107440727
 21
1833.8196631472083
  0
LINE
  8
_0-0_
  6
CONTINUOUS
 62
    7
 10
1934.0163458452262
 20
2083.5401436352822
 11
1941.7091181103328
 21
2086.3373126762713
  0
LINE
  8
_0-0_
  6
CONTINUOUS
 62
    7
 10
1941.7091181103328
 20
2086.3373126762713
 11
1944.2537219367891
 21
2087.7508851275938
  0
LINE
  8
_0-0_
  6
CONTINUOUS
 62
    7
 10
1944.2537219367891
 20
2087.7508851275938
 11
1944.8503902243831
 21
2088.6189464436534
  0
LINE
  8
_0-0_
  6
CONTINUOUS
 62
    7
 10
1931.36856064373
 20
2078.6711718585038
 11
1938.5989366627107
 21
2080.1171975154211
  0
LINE
  8
_0-0_
  6
CONTINUOUS
 62
    7
 10
1938.5989366627107
 20
2080.1171975154211
 11
1942.8400256182695
 21
2080.9654400799723
  0
LINE
  8
_0-0_
  6
CONTINUOUS
 62
    7
 10
1942.8400256182695
 20
2080.9654400799723
 11
1944.5363868801749
 21
2080.682527402193
  0
LINE
  8
_0-0_
  6
CONTINUOUS
 62
    7
 10
1944.5363868801749
 20
2080.682527402193
 11
1944.8503902243831
 21
2080.4080376938045
  0
LINE
  8
_0-0_
  6
CONTINUOUS
 62
    7
 10
1912.6684537909664
 20
2050.1430700000187
 11
1912.8698618531687
 21
2042.7956394799426
  0
LINE
  8
_0-0_
  6
CONTINUOUS
 62
    7
 10
1912.8698618531687
 20
2042.7956394799426
 11
1913.1525267965546
 21
2039.6854580323206
  0
LINE
  8
_0-0_
  6
CONTINUOUS
 62
    7
 10
1913.1525267965546
 20
2039.6854580323206
 11
1913.717980550523
 21
2037.7065556942264
  0
LINE
  8
_0-0_
  6
CONTINUOUS
 62
    7
 10
1913.717980550523
 20
2037.7065556942264
 11
1915.1116103831405
 21
2036.8194188298407
  0
LINE
  8
_0-0_
  6
CONTINUOUS
 62
    7
 10
1905.8582353039596
 20
2036.8194188298407
 11
1906.9322877685076
 21
2037.4236430164469
  0
LINE
  8
_0-0_
  6
CONTINUOUS
 62
    7
 10
1906.9322877685076
 20
2037.4236430164469
 11
1908.0631952764443
 21
2039.6854580323206
  0
LINE
  8
_0-0_
  6
CONTINUOUS
 62
    7
 10
1908.0631952764443
 20
2039.6854580323206
 11
1908.3846306524683
 21
2042.7384128349627
  0
LINE
  8
_0-0_
  6
CONTINUOUS
 62
    7
 10
1893.4918298316279
 20
2119.8193592086263
 11
1894.4916858452166
 21
2118.5695391916402
  0
LINE
  8
_0-0_
  6
CONTINUOUS
 62
    7
 10
1894.4916858452166
 20
2118.5695391916402
 11
1894.7745985229963
 21
2116.590389119152
  0
LINE
  8
_0-0_
  6
CONTINUOUS
 62
    7
 10
1894.7745985229963
 20
2116.590389119152
 11
1895.1220460103746
 21
2111.5514715481909
  0
LINE
  8
_0-0_
  6
CONTINUOUS
 62
    7
 10
1899.0726663891414
 20
2110.7934043030018
 11
1899.8638061759095
 21
2114.0456614254986
  0
LINE
  8
_0-0_
  6
CONTINUOUS
 62
    7
 10
1899.8638061759095
 20
2114.0456614254986
 11
1900.7120487404607
 21
2117.4386316837031
  0
LINE
  8
_0-0_
  6
CONTINUOUS
 62
    7
 10
1900.7120487404607
 20
2117.4386316837031
 11
1902.4084100023661
 21
2119.7004466995768
  0
LINE
  8
_0-0_
  6
CONTINUOUS
 62
    7
 10
1861.8504498455973
 20
2056.6423818227404
 11
1862.2595831970448
 21
2057.4979325519103
  0
LINE
  8
_0-0_
  6
CONTINUOUS
 62
    7
 10
1862.2595831970448
 20
2057.4979325519103
 11
1864.2388571367301
 21
2060.6082378667293
  0
LINE
  8
_0-0_
  6
CONTINUOUS
 62
    7
 10
1864.2388571367301
 20
2060.6082378667293
 11
1868.195918609737
 21
2064.0905163739176
  0
LINE
  8
_0-0_
  6
CONTINUOUS
 62
    7
 10
1861.8504498455973
 20
2068.1560855114321
 11
1861.9769182536593
 21
2067.9593844027131
  0
LINE
  8
_0-0_
  6
CONTINUOUS
 62
    7
 10
1861.8504498455973
 20
2067.9908466707325
 11
1863.1078257615964
 21
2067.6767194593272
  0
LINE
  8
_0-0_
  6
CONTINUOUS
 62
    7
 10
1863.1078257615964
 20
2067.6767194593272
 11
1865.0869758340843
 21
2067.6767194593272
  0
LINE
  8
_0-0_
  6
CONTINUOUS
 62
    7
 10
1865.0869758340843
 20
2067.6767194593272
 11
1870.9397008888509
 21
2071.1281550344811
  0
LINE
  8
_0-0_
  6
CONTINUOUS
 62
    7
 10
1912.8969887692956
 20
2077.775859759121
 11
1934.0163458452262
 21
2083.5401436352822
  0
LINE
  8
_0-0_
  6
CONTINUOUS
 62
    7
 10
1915.5462603771548
 20
2074.3526659048662
 11
1931.36856064373
 21
2078.6711718585038
  0
LINE
  8
_0-0_
  6
CONTINUOUS
 62
    7
 10
1913.51459061317
 20
2072.4349539620534
 11
1912.6684537909664
 21
2050.1430700000187
  0
LINE
  8
_0-0_
  6
CONTINUOUS
 62
    7
 10
1909.5430366781227
 20
2073.2604049623701
 11
1908.3846306524683
 21
2042.7384128349627
  0
LINE
  8
_0-0_
  6
CONTINUOUS
 62
    7
 10
1897.2014046451759
 20
2082.7394660743507
 11
1909.1876616901413
 21
2074.5927205325092
  0
LINE
  8
_0-0_
  6
CONTINUOUS
 62
    7
 10
1898.4973032594187
 20
2086.6952888753885
 11
1910.496814094455
 21
2078.5396248953684
  0
LINE
  8
_0-0_
  6
CONTINUOUS
 62
    7
 10
1897.2123049585057
 20
2088.4943360435459
 11
1899.0726663891414
 21
2110.7934043030018
  0
LINE
  8
_0-0_
  6
CONTINUOUS
 62
    7
 10
1895.1220460103746
 20
2111.5514715481909
 11
1893.2056966067282
 21
2088.5807953470003
  0
LINE
  8
_0-0_
  6
CONTINUOUS
 62
    7
 10
1891.7751543494264
 20
2086.6734882487294
 11
1870.9397008888509
 21
2071.1281550344811
  0
LINE
  8
_0-0_
  6
CONTINUOUS
 62
    7
 10
1893.2391407498983
 20
2082.7751398270657
 11
1868.195918609737
 21
2064.0905163739176
  0
LINE
  8
_0-0_
  6
CONTINUOUS
 62
    7
 10
1897.2123049585057
 20
2088.4943360435459
 11
1898.4973032594187
 21
2086.6952888753885
  0
LINE
  8
_0-0_
  6
CONTINUOUS
 62
    7
 10
1891.7751543494264
 20
2086.6734882487294
 11
1893.2056966067282
 21
2088.5807953470003
  0
LINE
  8
_0-0_
  6
CONTINUOUS
 62
    7
 10
1893.2391407498983
 20
2082.7751398270657
 11
1895.198719805272
 21
2083.5101677736257
  0
LINE
  8
_0-0_
  6
CONTINUOUS
 62
    7
 10
1895.198719805272
 20
2083.5101677736257
 11
1897.2014046451759
 21
2082.7394660743507
  0
LINE
  8
_0-0_
  6
CONTINUOUS
 62
    7
 10
1913.51459061317
 20
2072.4349539620534
 11
1914.1421018327987
 21
2073.3315047334058
  0
LINE
  8
_0-0_
  6
CONTINUOUS
 62
    7
 10
1914.1421018327987
 20
2073.3315047334058
 11
1915.5462603771548
 21
2074.3526659048662
  0
LINE
  8
_0-0_
  6
CONTINUOUS
 62
    7
 10
1910.496814094455
 20
2078.5396248953684
 11
1912.8969887692956
 21
2077.775859759121
  0
LINE
  8
_0-0_
  6
CONTINUOUS
 62
    7
 10
1909.1876616901413
 20
2074.5927205325092
 11
1909.5430366781227
 21
2073.2604049623701
  0
LINE
  8
_0-0_
  6
CONTINUOUS
 62
    7
 10
1866.7327992796438
 20
2036.8194188298407
 11
1905.8582353039596
 21
2036.8194188298407
  0
LINE
  8
_0-0_
  6
CONTINUOUS
 62
    7
 10
1944.8503902243831
 20
2041.7018921310837
 11
1944.8503902243831
 21
2080.4080376938045
  0
LINE
  8
_0-0_
  6
CONTINUOUS
 62
    7
 10
1939.968040790337
 20
2119.8193592086263
 11
1902.4084100023661
 21
2119.8193592086263
  0
LINE
  8
_0-0_
  6
CONTINUOUS
 62
    7
 10
1861.8504498455973
 20
2114.9372575089737
 11
1861.8504498455973
 21
2068.1560855114321
  0
LINE
  8
_0-0_
  6
CONTINUOUS
 62
    7
 10
1915.1116103831405
 20
2036.8194188298407
 11
1939.968040790337
 21
2036.8194188298407
  0
LINE
  8
_0-0_
  6
CONTINUOUS
 62
    7
 10
1861.8504498455973
 20
2056.6423818227404
 11
1861.8504498455973
 21
2041.7018921310837
  0
LINE
  8
_0-0_
  6
CONTINUOUS
 62
    7
 10
1893.4918298316279
 20
2119.8193592086263
 11
1866.7327992796438
 21
2119.8193592086263
  0
LINE
  8
_0-0_
  6
CONTINUOUS
 62
    7
 10
1944.8503902243831
 20
2088.6189464436534
 11
1944.8503902243831
 21
2114.9372575089737
  0
LINE
  8
_0-0_
  6
CONTINUOUS
 62
    7
 10
2008.571020737578
 20
1944.6535536129043
 11
2011.3683136457641
 21
1936.9609052149945
  0
LINE
  8
_0-0_
  6
CONTINUOUS
 62
    7
 10
2011.3683136457641
 20
1936.9609052149945
 11
2012.7818860970867
 21
1934.4161775213411
  0
LINE
  8
_0-0_
  6
CONTINUOUS
 62
    7
 10
2012.7818860970867
 20
1934.4161775213411
 11
2013.6499474131463
 21
1933.8193853665503
  0
LINE
  8
_0-0_
  6
CONTINUOUS
 62
    7
 10
2003.7020489607999
 20
1947.3013388144002
 11
2005.1480746177172
 21
1940.0709627954197
  0
LINE
  8
_0-0_
  6
CONTINUOUS
 62
    7
 10
2005.1480746177172
 20
1940.0709627954197
 11
2005.9963171822685
 21
1935.8298738398607
  0
LINE
  8
_0-0_
  6
CONTINUOUS
 62
    7
 10
2005.9963171822685
 20
1935.8298738398607
 11
2005.7134045044886
 21
1934.1333887107585
  0
LINE
  8
_0-0_
  6
CONTINUOUS
 62
    7
 10
2005.7134045044886
 20
1934.1333887107585
 11
2005.438790928903
 21
1933.8193853665503
  0
LINE
  8
_0-0_
  6
CONTINUOUS
 62
    7
 10
1975.1739471023145
 20
1966.0014456671638
 11
1967.8266404494354
 21
1965.8002853393555
  0
LINE
  8
_0-0_
  6
CONTINUOUS
 62
    7
 10
1967.8266404494354
 20
1965.8002853393555
 11
1964.7164590018135
 21
1965.5173726615758
  0
LINE
  8
_0-0_
  6
CONTINUOUS
 62
    7
 10
1964.7164590018135
 20
1965.5173726615758
 11
1962.7373089293255
 21
1964.9520427748043
  0
LINE
  8
_0-0_
  6
CONTINUOUS
 62
    7
 10
1962.7373089293255
 20
1964.9520427748043
 11
1961.8504197993334
 21
1963.5581652077929
  0
LINE
  8
_0-0_
  6
CONTINUOUS
 62
    7
 10
1961.8504197993334
 20
1972.8116641541706
 11
1962.4545201187427
 21
1971.7376116896228
  0
LINE
  8
_0-0_
  6
CONTINUOUS
 62
    7
 10
1962.4545201187427
 20
1971.7376116896228
 11
1964.7164590018135
 21
1970.6067041816857
  0
LINE
  8
_0-0_
  6
CONTINUOUS
 62
    7
 10
1964.7164590018135
 20
1970.6067041816857
 11
1967.7692899372587
 21
1970.2852688056621
  0
LINE
  8
_0-0_
  6
CONTINUOUS
 62
    7
 10
2044.850360178119
 20
1985.1781934936994
 11
2043.6004162939357
 21
1984.1780897457168
  0
LINE
  8
_0-0_
  6
CONTINUOUS
 62
    7
 10
2043.6004162939357
 20
1984.1780897457168
 11
2041.6212662214477
 21
1983.8953009351339
  0
LINE
  8
_0-0_
  6
CONTINUOUS
 62
    7
 10
2041.6212662214477
 20
1983.8953009351339
 11
2036.5824725176835
 21
1983.5478534477556
  0
LINE
  8
_0-0_
  6
CONTINUOUS
 62
    7
 10
2035.824157538101
 20
1979.597233068989
 11
2039.0766623949912
 21
1978.8062171494178
  0
LINE
  8
_0-0_
  6
CONTINUOUS
 62
    7
 10
2039.0766623949912
 20
1978.8062171494178
 11
2042.4695087859991
 21
1977.9579745848669
  0
LINE
  8
_0-0_
  6
CONTINUOUS
 62
    7
 10
2042.4695087859991
 20
1977.9579745848669
 11
2044.7313238018728
 21
1976.2614894557644
  0
LINE
  8
_0-0_
  6
CONTINUOUS
 62
    7
 10
1981.6732589250364
 20
2016.8195734797296
 11
1982.5289335214031
 21
2016.4103162610852
  0
LINE
  8
_0-0_
  6
CONTINUOUS
 62
    7
 10
1982.5289335214031
 20
2016.4103162610852
 11
1985.6391149690253
 21
2014.4310423214004
  0
LINE
  8
_0-0_
  6
CONTINUOUS
 62
    7
 10
1985.6391149690253
 20
2014.4310423214004
 11
1989.1213934762138
 21
2010.4739808483932
  0
LINE
  8
_0-0_
  6
CONTINUOUS
 62
    7
 10
1993.187086480925
 20
2016.8195734797296
 11
1992.9903853722062
 21
2016.6928573372741
  0
LINE
  8
_0-0_
  6
CONTINUOUS
 62
    7
 10
1993.0218476402254
 20
2016.8195734797296
 11
1992.7074726944263
 21
2015.5620736965341
  0
LINE
  8
_0-0_
  6
CONTINUOUS
 62
    7
 10
1992.7074726944263
 20
2015.5620736965341
 11
1992.7074726944263
 21
2013.5827997568492
  0
LINE
  8
_0-0_
  6
CONTINUOUS
 62
    7
 10
1992.7074726944263
 20
2013.5827997568492
 11
1996.1590321367771
 21
2007.7301985692793
  0
LINE
  8
_0-0_
  6
CONTINUOUS
 62
    7
 10
2002.8067368614168
 20
1965.7727868216377
 11
2008.571020737578
 21
1944.6535536129043
  0
LINE
  8
_0-0_
  6
CONTINUOUS
 62
    7
 10
1999.3835430071622
 20
1963.1236390809754
 11
2003.7020489607999
 21
1947.3013388144002
  0
LINE
  8
_0-0_
  6
CONTINUOUS
 62
    7
 10
1997.4658310643495
 20
1965.1554327121573
 11
1975.1739471023145
 21
1966.0014456671638
  0
LINE
  8
_0-0_
  6
CONTINUOUS
 62
    7
 10
1998.2914059318632
 20
1969.1271105144015
 11
1967.7692899372587
 21
1970.2852688056621
  0
LINE
  8
_0-0_
  6
CONTINUOUS
 62
    7
 10
2007.7705909110405
 20
1981.4683709457574
 11
1999.623845369199
 21
1969.482361635186
  0
LINE
  8
_0-0_
  6
CONTINUOUS
 62
    7
 10
2011.7262898448812
 20
1980.1724723315147
 11
2003.570501997664
 21
1968.1732092308721
  0
LINE
  8
_0-0_
  6
CONTINUOUS
 62
    7
 10
2013.5252131458415
 20
1981.4574706324279
 11
2035.824157538101
 21
1979.597233068989
  0
LINE
  8
_0-0_
  6
CONTINUOUS
 62
    7
 10
2036.5824725176835
 20
1983.5478534477556
 11
2013.6117963164929
 21
1985.4643267185993
  0
LINE
  8
_0-0_
  6
CONTINUOUS
 62
    7
 10
2011.7044892182221
 20
1986.8947451087038
 11
1996.1590321367771
 21
2007.7301985692793
  0
LINE
  8
_0-0_
  6
CONTINUOUS
 62
    7
 10
2007.8060169293612
 20
1985.4306348410353
 11
1989.1213934762138
 21
2010.4739808483932
  0
LINE
  8
_0-0_
  6
CONTINUOUS
 62
    7
 10
2013.5252131458415
 20
1981.4574706324279
 11
2011.7262898448812
 21
1980.1724723315147
  0
LINE
  8
_0-0_
  6
CONTINUOUS
 62
    7
 10
2011.7044892182221
 20
1986.8947451087038
 11
2013.6117963164929
 21
1985.4643267185993
  0
LINE
  8
_0-0_
  6
CONTINUOUS
 62
    7
 10
2007.8060169293612
 20
1985.4306348410353
 11
2008.540921008725
 21
1983.4714273872521
  0
LINE
  8
_0-0_
  6
CONTINUOUS
 62
    7
 10
2008.540921008725
 20
1983.4714273872521
 11
2007.7705909110405
 21
1981.4683709457574
  0
LINE
  8
_0-0_
  6
CONTINUOUS
 62
    7
 10
1997.4658310643495
 20
1965.1554327121573
 11
1998.362257968505
 21
1964.5279214925288
  0
LINE
  8
_0-0_
  6
CONTINUOUS
 62
    7
 10
1998.362257968505
 20
1964.5279214925288
 11
1999.3835430071622
 21
1963.1236390809754
  0
LINE
  8
_0-0_
  6
CONTINUOUS
 62
    7
 10
2003.570501997664
 20
1968.1732092308721
 11
2002.8067368614168
 21
1965.7727868216377
  0
LINE
  8
_0-0_
  6
CONTINUOUS
 62
    7
 10
1999.623845369199
 20
1969.482361635186
 11
1998.2914059318632
 21
1969.1271105144015
  0
LINE
  8
_0-0_
  6
CONTINUOUS
 62
    7
 10
1961.8504197993334
 20
2011.9371001784864
 11
1961.8504197993334
 21
1972.8116641541706
  0
LINE
  8
_0-0_
  6
CONTINUOUS
 62
    7
 10
1966.7327692333797
 20
1933.8193853665503
 11
2005.438790928903
 21
1933.8193853665503
  0
LINE
  8
_0-0_
  6
CONTINUOUS
 62
    7
 10
2044.850360178119
 20
1938.7018586677934
 11
2044.850360178119
 21
1976.2614894557644
  0
LINE
  8
_0-0_
  6
CONTINUOUS
 62
    7
 10
2039.9680107440727
 20
2016.8195734797296
 11
1993.187086480925
 21
2016.8195734797296
  0
LINE
  8
_0-0_
  6
CONTINUOUS
 62
    7
 10
1961.8504197993334
 20
1963.5581652077929
 11
1961.8504197993334
 21
1938.7018586677934
  0
LINE
  8
_0-0_
  6
CONTINUOUS
 62
    7
 10
1981.6732589250364
 20
2016.8195734797296
 11
1966.7327692333797
 21
2016.8195734797296
  0
LINE
  8
_0-0_
  6
CONTINUOUS
 62
    7
 10
2044.850360178119
 20
1985.1781934936994
 11
2044.850360178119
 21
2011.9371001784864
  0
LINE
  8
_0-0_
  6
CONTINUOUS
 62
    7
 10
2013.6499474131463
 20
1933.8193853665503
 11
2039.9680107440727
 21
1933.8193853665503
  0
LINE
  8
_0-0_
  6
CONTINUOUS
 62
    7
 10
2072.6844341322262
 20
1870.0988787205524
 11
2064.9917857343166
 21
1867.3015858123663
  0
LINE
  8
_0-0_
  6
CONTINUOUS
 62
    7
 10
2064.9917857343166
 20
1867.3015858123663
 11
2062.4471819078599
 21
1865.8880133610435
  0
LINE
  8
_0-0_
  6
CONTINUOUS
 62
    7
 10
2062.4471819078599
 20
1865.8880133610435
 11
2061.8503897530691
 21
1865.0199520449839
  0
LINE
  8
_0-0_
  6
CONTINUOUS
 62
    7
 10
2075.3322193337222
 20
1874.9680982317245
 11
2068.1019671819386
 21
1873.5217009732162
  0
LINE
  8
_0-0_
  6
CONTINUOUS
 62
    7
 10
2068.1019671819386
 20
1873.5217009732162
 11
2063.8608782263796
 21
1872.6735822758619
  0
LINE
  8
_0-0_
  6
CONTINUOUS
 62
    7
 10
2063.8608782263796
 20
1872.6735822758619
 11
2062.1643930972773
 21
1872.9563710864445
  0
LINE
  8
_0-0_
  6
CONTINUOUS
 62
    7
 10
2062.1643930972773
 20
1872.9563710864445
 11
2061.8503897530691
 21
1873.2309846620301
  0
LINE
  8
_0-0_
  6
CONTINUOUS
 62
    7
 10
2094.0325739208797
 20
1903.4960762230126
 11
2093.8311658586777
 21
1910.8433828758916
  0
LINE
  8
_0-0_
  6
CONTINUOUS
 62
    7
 10
2093.8311658586777
 20
1910.8433828758916
 11
2093.548253180898
 21
1913.9534404563167
  0
LINE
  8
_0-0_
  6
CONTINUOUS
 62
    7
 10
2093.548253180898
 20
1913.9534404563167
 11
2092.9829232941261
 21
1915.9327143960015
  0
LINE
  8
_0-0_
  6
CONTINUOUS
 62
    7
 10
2092.9829232941261
 20
1915.9327143960015
 11
2091.5891695943119
 21
1916.8194796587968
  0
LINE
  8
_0-0_
  6
CONTINUOUS
 62
    7
 10
2100.8427924078865
 20
1916.8194796587968
 11
2099.7686160761414
 21
1916.2152554721906
  0
LINE
  8
_0-0_
  6
CONTINUOUS
 62
    7
 10
2099.7686160761414
 20
1916.2152554721906
 11
2098.6377085682047
 21
1913.9534404563167
  0
LINE
  8
_0-0_
  6
CONTINUOUS
 62
    7
 10
2098.6377085682047
 20
1913.9534404563167
 11
2098.3163970593778
 21
1910.9004856536749
  0
LINE
  8
_0-0_
  6
CONTINUOUS
 62
    7
 10
2113.2091978802182
 20
1833.8196631472083
 11
2112.2090941322354
 21
1835.0697308985882
  0
LINE
  8
_0-0_
  6
CONTINUOUS
 62
    7
 10
2112.2090941322354
 20
1835.0697308985882
 11
2111.9264291888499
 21
1837.0487571038793
  0
LINE
  8
_0-0_
  6
CONTINUOUS
 62
    7
 10
2111.9264291888499
 20
1837.0487571038793
 11
2111.5788578342749
 21
1842.0875508076435
  0
LINE
  8
_0-0_
  6
CONTINUOUS
 62
    7
 10
2107.628237455508
 20
1842.8456180528324
 11
2106.8372215359368
 21
1839.5934847975329
  0
LINE
  8
_0-0_
  6
CONTINUOUS
 62
    7
 10
2106.8372215359368
 20
1839.5934847975329
 11
2105.9889789713857
 21
1836.2005145393282
  0
LINE
  8
_0-0_
  6
CONTINUOUS
 62
    7
 10
2105.9889789713857
 20
1836.2005145393282
 11
2104.292493842283
 21
1833.9386995234545
  0
LINE
  8
_0-0_
  6
CONTINUOUS
 62
    7
 10
2144.8503301318547
 20
1896.9966405330936
 11
2144.4410729132105
 21
1896.1409659367271
  0
LINE
  8
_0-0_
  6
CONTINUOUS
 62
    7
 10
2144.4410729132105
 20
1896.1409659367271
 11
2142.462170575116
 21
1893.030908356302
  0
LINE
  8
_0-0_
  6
CONTINUOUS
 62
    7
 10
2142.462170575116
 20
1893.030908356302
 11
2138.5048613677154
 21
1889.5483821147197
  0
LINE
  8
_0-0_
  6
CONTINUOUS
 62
    7
 10
2144.8503301318547
 20
1885.4828129772054
 11
2144.7239855909897
 21
1885.6797618203179
  0
LINE
  8
_0-0_
  6
CONTINUOUS
 62
    7
 10
2144.8503301318547
 20
1885.6480518179048
 11
2143.5928303486589
 21
1885.962302896507
  0
LINE
  8
_0-0_
  6
CONTINUOUS
 62
    7
 10
2143.5928303486589
 20
1885.962302896507
 11
2141.6139280105649
 21
1885.962302896507
  0
LINE
  8
_0-0_
  6
CONTINUOUS
 62
    7
 10
2141.6139280105649
 20
1885.962302896507
 11
2135.7612029557981
 21
1882.5107434541562
  0
LINE
  8
_0-0_
  6
CONTINUOUS
 62
    7
 10
2093.8039150753539
 20
1875.8630387295168
 11
2072.6844341322262
 21
1870.0988787205524
  0
LINE
  8
_0-0_
  6
CONTINUOUS
 62
    7
 10
2091.1546434674942
 20
1879.2863564509682
 11
2075.3322193337222
 21
1874.9680982317245
  0
LINE
  8
_0-0_
  6
CONTINUOUS
 62
    7
 10
2093.186560965873
 20
1881.204068393781
 11
2094.0325739208797
 21
1903.4960762230126
  0
LINE
  8
_0-0_
  6
CONTINUOUS
 62
    7
 10
2097.1579910337236
 20
1880.3786173934643
 11
2098.3163970593778
 21
1910.9004856536749
  0
LINE
  8
_0-0_
  6
CONTINUOUS
 62
    7
 10
2109.499375332276
 20
1870.8994324142868
 11
2097.5132421545081
 21
1879.0460540889312
  0
LINE
  8
_0-0_
  6
CONTINUOUS
 62
    7
 10
2108.2034767180335
 20
1866.9436096132492
 11
2096.2042136173914
 21
1875.0993974604662
  0
LINE
  8
_0-0_
  6
CONTINUOUS
 62
    7
 10
2109.4884750189467
 20
1865.1446863122887
 11
2107.628237455508
 21
1842.8456180528324
  0
LINE
  8
_0-0_
  6
CONTINUOUS
 62
    7
 10
2111.5788578342749
 20
1842.0875508076435
 11
2113.4953311051181
 21
1865.0581031416373
  0
LINE
  8
_0-0_
  6
CONTINUOUS
 62
    7
 10
2114.9257494952226
 20
1866.965286372711
 11
2135.7612029557981
 21
1882.5107434541562
  0
LINE
  8
_0-0_
  6
CONTINUOUS
 62
    7
 10
2113.4616392275539
 20
1870.8637586615719
 11
2138.5048613677154
 21
1889.5483821147197
  0
LINE
  8
_0-0_
  6
CONTINUOUS
 62
    7
 10
2109.4884750189467
 20
1865.1446863122887
 11
2108.2034767180335
 21
1866.9436096132492
  0
LINE
  8
_0-0_
  6
CONTINUOUS
 62
    7
 10
2114.9257494952226
 20
1866.965286372711
 11
2113.4953311051181
 21
1865.0581031416373
  0
LINE
  8
_0-0_
  6
CONTINUOUS
 62
    7
 10
2113.4616392275539
 20
1870.8637586615719
 11
2111.5023079065741
 21
1870.1291023166025
  0
LINE
  8
_0-0_
  6
CONTINUOUS
 62
    7
 10
2111.5023079065741
 20
1870.1291023166025
 11
2109.499375332276
 21
1870.8994324142868
  0
LINE
  8
_0-0_
  6
CONTINUOUS
 62
    7
 10
2093.186560965873
 20
1881.204068393781
 11
2092.5588020118507
 21
1880.3075176224286
  0
LINE
  8
_0-0_
  6
CONTINUOUS
 62
    7
 10
2092.5588020118507
 20
1880.3075176224286
 11
2091.1546434674942
 21
1879.2863564509682
  0
LINE
  8
_0-0_
  6
CONTINUOUS
 62
    7
 10
2096.2042136173914
 20
1875.0993974604662
 11
2093.8039150753539
 21
1875.8630387295168
  0
LINE
  8
_0-0_
  6
CONTINUOUS
 62
    7
 10
2097.5132421545081
 20
1879.0460540889312
 11
2097.1579910337236
 21
1880.3786173934643
  0
LINE
  8
_0-0_
  6
CONTINUOUS
 62
    7
 10
2139.9682284322025
 20
1916.8194796587968
 11
2100.8427924078865
 21
1916.8194796587968
  0
LINE
  8
_0-0_
  6
CONTINUOUS
 62
    7
 10
2061.8503897530691
 20
1911.9370063575539
 11
2061.8503897530691
 21
1873.2309846620301
  0
LINE
  8
_0-0_
  6
CONTINUOUS
 62
    7
 10
2066.7327391871154
 20
1833.8196631472083
 11
2104.292493842283
 21
1833.8196631472083
  0
LINE
  8
_0-0_
  6
CONTINUOUS
 62
    7
 10
2144.8503301318547
 20
1838.7018887140575
 11
2144.8503301318547
 21
1885.4828129772054
  0
LINE
  8
_0-0_
  6
CONTINUOUS
 62
    7
 10
2091.5891695943119
 20
1916.8194796587968
 11
2066.7327391871154
 21
1916.8194796587968
  0
LINE
  8
_0-0_
  6
CONTINUOUS
 62
    7
 10
2144.8503301318547
 20
1896.9966405330936
 11
2144.8503301318547
 21
1911.9370063575539
  0
LINE
  8
_0-0_
  6
CONTINUOUS
 62
    7
 10
2113.2091978802182
 20
1833.8196631472083
 11
2139.9682284322025
 21
1833.8196631472083
  0
LINE
  8
_0-0_
  6
CONTINUOUS
 62
    7
 10
2061.8503897530691
 20
1865.0199520449839
 11
2061.8503897530691
 21
1838.7018887140575
  0
LINE
  8
_0-0_
  6
CONTINUOUS
 62
    7
 10
1730.238456431503
 20
2236.8196064717058
 11
1730.238456431503
 21
1816.8195097050611
  0
LINE
  8
_0-0_
  6
CONTINUOUS
 62
    7
 10
1730.238456431503
 20
2236.8196064717058
 11
1839.9992853702265
 21
2236.8196064717058
  0
LINE
  8
_0-0_
  6
CONTINUOUS
 62
    7
 10
1730.238456431503
 20
1816.8195097050611
 11
1839.9992853702265
 21
1816.8195097050611
  0
LINE
  8
_0-0_
  6
CONTINUOUS
 62
    7
 10
2853.3506300642684
 20
2236.8196064717058
 11
2853.3506300642684
 21
1816.8195097050611
  0
LINE
  8
_0-0_
  6
CONTINUOUS
 62
    7
 10
2853.3506300642684
 20
2236.8196064717058
 11
1853.3504350581225
 21
2236.8196064717058
  0
LINE
  8
_0-0_
  6
CONTINUOUS
 62
    7
 10
2853.3506300642684
 20
2036.8194188298407
 11
2813.4351690579565
 21
2036.8194188298407
  0
LINE
  8
_0-0_
  6
CONTINUOUS
 62
    7
 10
2853.3506300642684
 20
2016.8195734797296
 11
2793.1870938452057
 21
2016.8195734797296
  0
LINE
  8
_0-0_
  6
CONTINUOUS
 62
    7
 10
1853.3504350581225
 20
2036.8194188298407
 11
2853.3506300642684
 21
2036.8194188298407
  0
LINE
  8
_0-0_
  6
CONTINUOUS
 62
    7
 10
1853.3504350581225
 20
2016.8195734797296
 11
2853.3506300642684
 21
2016.8195734797296
  0
LINE
  8
_0-0_
  6
CONTINUOUS
 62
    7
 10
1853.3504350581225
 20
1816.8195097050611
 11
2853.3506300642684
 21
1816.8195097050611
  0
LINE
  8
_0-0_
  6
CONTINUOUS
 62
    7
 10
2508.3227645108136
 20
2031.8193955587142
 11
2598.3784281609137
 21
2031.8193955587142
  0
LINE
  8
_0-0_
  6
CONTINUOUS
 62
    7
 10
2508.3227645108136
 20
2021.8195967508559
 11
2598.3784281609137
 21
2021.8195967508559
  0
LINE
  8
_0-0_
  6
CONTINUOUS
 62
    7
 10
2108.3783772000934
 20
2031.8193955587142
 11
2198.3783006115768
 21
2031.8193955587142
  0
LINE
  8
_0-0_
  6
CONTINUOUS
 62
    7
 10
2108.3226369614767
 20
2021.8195967508559
 11
2198.3783006115768
 21
2021.8195967508559
  0
LINE
  8
_0-0_
  6
CONTINUOUS
 62
    7
 10
2103.3503599424621
 20
2324.7977694949586
 11
2203.3505776305915
 21
2324.7977694949586
  0
LINE
  8
_0-0_
  6
CONTINUOUS
 62
    7
 10
2503.350487491799
 20
2324.7977694949586
 11
2603.3504574455351
 21
2324.7977694949586
  0
LINE
  8
_0-0_
  6
CONTINUOUS
 62
    7
 10
2103.3503599424621
 20
2324.7977694949586
 11
2103.3503599424621
 21
2263.4609631866101
  0
LINE
  8
_0-0_
  6
CONTINUOUS
 62
    7
 10
2203.3505776305915
 20
2324.7977694949586
 11
2203.3505776305915
 21
2263.4609631866101
  0
LINE
  8
_0-0_
  6
CONTINUOUS
 62
    7
 10
2503.350487491799
 20
2324.7977694949586
 11
2503.350487491799
 21
2263.4609631866101
  0
LINE
  8
_0-0_
  6
CONTINUOUS
 62
    7
 10
2603.3504574455351
 20
2324.7977694949586
 11
2603.3504574455351
 21
2263.4609631866101
  0
LINE
  8
_0-0_
  6
CONTINUOUS
 62
    7
 10
1853.3504350581225
 20
2405.0339849759253
 11
2853.3506300642684
 21
2405.0339849759253
  0
LINE
  8
_0-0_
  6
CONTINUOUS
 62
    7
 10
1853.3504350581225
 20
2405.0339849759253
 11
1853.3504350581225
 21
2263.4609631866101
  0
LINE
  8
_0-0_
  6
CONTINUOUS
 62
    7
 10
2853.3506300642684
 20
2405.0339849759253
 11
2853.3506300642684
 21
2263.4609631866101
  0
LINE
  8
_0-0_
  6
CONTINUOUS
 62
    7
 10
1853.3504350581225
 20
1660.7909383000556
 11
2853.3503823298747
 21
1660.7909383000556
  0
LINE
  8
_0-0_
  6
CONTINUOUS
 62
    7
 10
1853.3504350581225
 20
1522.7909896732758
 11
2853.3503823298747
 21
1522.7909896732758
  0
LINE
  8
_0-0_
  6
CONTINUOUS
 62
    7
 10
1853.3504350581225
 20
1510.7909833694519
 11
2853.3503823298747
 21
1510.7909833694519
  0
LINE
  8
_0-0_
  6
CONTINUOUS
 62
    7
 10
1933.3504357945503
 20
1614.2909448395362
 11
1933.3504357945503
 21
1569.2909831337945
  0
LINE
  8
_0-0_
  6
CONTINUOUS
 62
    7
 10
1853.3504350581225
 20
1614.2909448395362
 11
1933.3504357945503
 21
1614.2909448395362
  0
LINE
  8
_0-0_
  6
CONTINUOUS
 62
    7
 10
2773.3505054606435
 20
1614.2909448395362
 11
2773.3505054606435
 21
1569.2909831337945
  0
LINE
  8
_0-0_
  6
CONTINUOUS
 62
    7
 10
2773.3505054606435
 20
1614.2909448395362
 11
2853.3503823298747
 21
1614.2909448395362
  0
LINE
  8
_0-0_
  6
CONTINUOUS
 62
    7
 10
1933.3504357945503
 20
1569.2909831337945
 11
1853.3504350581225
 21
1569.2909831337945
  0
LINE
  8
_0-0_
  6
CONTINUOUS
 62
    7
 10
2773.3505054606435
 20
1569.2909831337945
 11
2853.3503823298747
 21
1569.2909831337945
  0
LINE
  8
_0-0_
  6
CONTINUOUS
 62
    7
 10
1131.7361911199268
 20
2096.3051537473229
 11
1151.7361603372344
 21
2096.3051537473229
  0
LINE
  8
_0-0_
  6
CONTINUOUS
 62
    7
 10
1131.7361911199268
 20
2141.3051154530644
 11
1131.7361911199268
 21
2096.3051537473229
  0
LINE
  8
_0-0_
  6
CONTINUOUS
 62
    7
 10
751.73615665509431
 20
2141.3051154530644
 11
751.73615665509431
 21
2096.3051537473229
  0
LINE
  8
_0-0_
  6
CONTINUOUS
 62
    7
 10
731.73618743778661
 20
2096.3051537473229
 11
751.73615665509431
 21
2096.3051537473229
  0
LINE
  8
_0-0_
  6
CONTINUOUS
 62
    7
 10
731.73618743778661
 20
2141.3051154530644
 11
751.73615665509431
 21
2141.3051154530644
  0
LINE
  8
_0-0_
  6
CONTINUOUS
 62
    7
 10
1131.7361911199268
 20
2141.3051154530644
 11
1151.7361603372344
 21
2141.3051154530644
  0
LINE
  8
_0-0_
  6
CONTINUOUS
 62
    7
 10
1151.7361603372344
 20
2187.8051089135838
 11
1151.7361603372344
 21
2141.3051154530644
  0
LINE
  8
_0-0_
  6
CONTINUOUS
 62
    7
 10
1151.7361603372344
 20
2096.3051537473229
 11
1151.7361603372344
 21
2049.8052841540007
  0
LINE
  8
_0-0_
  6
CONTINUOUS
 62
    7
 10
731.73618743778661
 20
2187.8051089135838
 11
731.73618743778661
 21
2141.3051154530644
  0
LINE
  8
_0-0_
  6
CONTINUOUS
 62
    7
 10
731.73618743778661
 20
2096.3051537473229
 11
731.73618743778661
 21
2049.8052841540007
  0
LINE
  8
_0-0_
  6
CONTINUOUS
 62
    7
 10
731.73618743778661
 20
2141.3051154530644
 11
731.73618743778661
 21
2096.3051537473229
  0
LINE
  8
_0-0_
  6
CONTINUOUS
 62
    7
 10
1151.7361603372344
 20
2141.3051154530644
 11
1151.7361603372344
 21
2096.3051537473229
  0
LINE
  8
_0-0_
  6
CONTINUOUS
 62
    7
 10
1440.3599829655357
 20
1382.9144530130629
 11
3440.3600013762366
 21
1382.9144530130629
  0
LINE
  8
_0-0_
  6
CONTINUOUS
 62
    7
 10
1853.3504350581225
 20
1586.1344445718303
 11
1853.3504350581225
 21
1598.1344508756542
  0
LINE
  8
_0-0_
  6
CONTINUOUS
 62
    7
 10
2853.3503823298747
 20
1598.1344508756542
 11
2853.3503823298747
 21
1586.1344445718303
  0
LINE
  8
_0-0_
  6
CONTINUOUS
 62
    7
 10
1440.3599829655357
 20
802.91454057435726
 11
3440.3600013762366
 21
802.91454057435726
  0
LINE
  8
_0-0_
  6
CONTINUOUS
 62
    7
 10
1440.3599829655357
 20
1382.9144530130629
 11
1440.3599829655357
 21
802.91454057435726
  0
LINE
  8
_0-0_
  6
CONTINUOUS
 62
    7
 10
3440.3600013762366
 20
1382.9144530130629
 11
3440.3600013762366
 21
802.91454057435726
  0
LINE
  8
_0-0_
  6
CONTINUOUS
 62
    7
 10
726.73622610025882
 20
1455.7704131667676
 11
791.73621895690701
 21
1455.7704131667676
  0
LINE
  8
_0-0_
  6
CONTINUOUS
 62
    7
 10
726.73622610025882
 20
1394.1885975428988
 11
726.73622610025882
 21
1455.7704131667676
  0
LINE
  8
_0-0_
  6
CONTINUOUS
 62
    7
 10
791.73621895690701
 20
1394.1885975428988
 11
791.73621895690701
 21
1455.7704131667676
  0
LINE
  8
_0-0_
  6
CONTINUOUS
 62
    7
 10
791.73621895690701
 20
1455.7704131667676
 11
1091.7362526853112
 21
1455.7704131667676
  0
LINE
  8
_0-0_
  6
CONTINUOUS
 62
    7
 10
1091.7362526853112
 20
1394.1885975428988
 11
1091.7362526853112
 21
1455.7704131667676
  0
LINE
  8
_0-0_
  6
CONTINUOUS
 62
    7
 10
1091.7362526853112
 20
1455.7704131667676
 11
1156.7361836083608
 21
1455.7704131667676
  0
LINE
  8
_0-0_
  6
CONTINUOUS
 62
    7
 10
1156.7361836083608
 20
1394.1885975428988
 11
1156.7361836083608
 21
1455.7704131667676
  0
LINE
  8
_0-0_
  6
CONTINUOUS
 62
    7
 10
1156.7361836083608
 20
1382.9144530130629
 11
1156.7361836083608
 21
1337.914491307321
  0
LINE
  8
_0-0_
  6
CONTINUOUS
 62
    7
 10
1091.7361288181141
 20
1382.9144530130629
 11
1156.7361836083608
 21
1382.9144530130629
  0
LINE
  8
_0-0_
  6
CONTINUOUS
 62
    7
 10
726.73622610025882
 20
1382.9144530130629
 11
791.73615702330835
 21
1382.9144530130629
  0
LINE
  8
_0-0_
  6
CONTINUOUS
 62
    7
 10
791.73615702330835
 20
1382.9144530130629
 11
796.23619035404147
 21
1312.9144988188873
  0
LINE
  8
_0-0_
  6
CONTINUOUS
 62
    7
 10
1091.7361288181141
 20
1382.9144530130629
 11
1087.2361574209795
 21
1312.9144988188873
  0
LINE
  8
_0-0_
  6
CONTINUOUS
 62
    7
 10
636.86599164395716
 20
1382.9144530130629
 11
636.86599164395716
 21
882.91454131078535
  0
LINE
  8
_0-0_
  6
CONTINUOUS
 62
    7
 10
636.86599164395716
 20
882.91454131078535
 11
636.86599164395716
 21
802.91454057435726
  0
LINE
  8
_0-0_
  6
CONTINUOUS
 62
    7
 10
636.86599164395716
 20
882.91454131078535
 11
708.96989211152402
 21
882.91454131078535
  0
LINE
  8
_0-0_
  6
CONTINUOUS
 62
    7
 10
636.86599164395716
 20
802.91454057435726
 11
708.96989211152402
 21
802.91454057435726
  0
LINE
  8
_0-0_
  6
CONTINUOUS
 62
    7
 10
1440.3599829655357
 20
882.91454131078535
 11
3440.3600013762366
 21
882.91454131078535
  0
LINE
  8
_0-0_
  6
CONTINUOUS
 62
    7
 10
636.86599164395716
 20
1382.9144530130629
 11
708.96989211152402
 21
1382.9144530130629
  0
LINE
  8
_0-0_
  6
CONTINUOUS
 62
    7
 10
636.86599164395716
 20
882.91454131078535
 11
708.96989211152402
 21
882.91454131078535
  0
LINE
  8
_0-0_
  6
CONTINUOUS
 62
    7
 10
726.73622610025882
 20
831.19880985569307
 11
726.73622610025882
 21
1337.914491307321
  0
LINE
  8
_0-0_
  6
CONTINUOUS
 62
    7
 10
726.73622610025882
 20
831.19880985569307
 11
755.0204953815944
 21
802.91454057435726
  0
LINE
  8
_0-0_
  6
CONTINUOUS
 62
    7
 10
1128.4518523934264
 20
802.91454057435726
 11
755.0204953815944
 21
802.91454057435726
  0
LINE
  8
_0-0_
  6
CONTINUOUS
 62
    7
 10
1156.7361836083608
 20
831.19880985569307
 11
1156.7361836083608
 21
1337.914491307321
  0
LINE
  8
_0-0_
  6
CONTINUOUS
 62
    7
 10
1128.4518523934264
 20
802.91454057435726
 11
1156.7361836083608
 21
831.19880985569307
  0
LINE
  8
_0-0_
  6
CONTINUOUS
 62
    7
 10
726.73622610025882
 20
947.92060366008275
 11
726.73622610025882
 21
869.91734213810628
  0
LINE
  8
_0-0_
  6
CONTINUOUS
 62
    7
 10
1156.7361836083608
 20
947.92060366008275
 11
1156.7361836083608
 21
869.91734213810628
  0
LINE
  8
_0-0_
  6
CONTINUOUS
 62
    7
 10
1853.3504350581225
 20
1660.7909383000556
 11
1853.3504350581225
 21
1510.7909833694519
  0
LINE
  8
_0-0_
  6
CONTINUOUS
 62
    7
 10
2853.3503823298747
 20
1660.7909383000556
 11
2853.3503823298747
 21
1510.7909833694519
  0
LINE
  8
_0-0_
  6
CONTINUOUS
 62
    7
 10
814.19489009960273
 20
930.56866737866483
 11
796.23619035404147
 21
1312.9144988188873
  0
LINE
  8
_0-0_
  6
CONTINUOUS
 62
    7
 10
1019.3325936011825
 20
882.91454131078535
 11
864.1398161074369
 21
882.91454131078535
  0
LINE
  8
_0-0_
  6
CONTINUOUS
 62
    7
 10
1069.2775196090167
 20
930.56866737866483
 11
1087.2361574209795
 21
1312.9144988188873
  0
ARC
  8
_0-0_
  6
CONTINUOUS
 62
    7
 10
1966.7327692333797
 20
1838.7018887140575
 40
4.882352821039877
 50
180
 51
270
  0
ARC
  8
_0-0_
  6
CONTINUOUS
 62
    7
 10
1866.7327992796438
 20
2141.7017382176227
 40
4.882352821039877
 50
180
 51
270
  0
ARC
  8
_0-0_
  6
CONTINUOUS
 62
    7
 10
1939.968040790337
 20
2141.7017382176227
 40
4.882352821039877
 50
270
 51
0
  0
ARC
  8
_0-0_
  6
CONTINUOUS
 62
    7
 10
1866.7327992796438
 20
2214.9372274627094
 40
4.882352821039877
 50
90
 51
180
  0
ARC
  8
_0-0_
  6
CONTINUOUS
 62
    7
 10
1939.968040790337
 20
2214.9372274627094
 40
4.882352821039877
 50
0
 51
90
  0
ARC
  8
_0-0_
  6
CONTINUOUS
 62
    7
 10
2139.9682284322025
 20
2214.9372274627094
 40
4.882352821039877
 50
0
 51
90
  0
ARC
  8
_0-0_
  6
CONTINUOUS
 62
    7
 10
2139.9682284322025
 20
2141.7017382176227
 40
4.882352821039877
 50
270
 51
0
  0
ARC
  8
_0-0_
  6
CONTINUOUS
 62
    7
 10
2066.7327391871154
 20
2141.7017382176227
 40
4.882352821039877
 50
180
 51
270
  0
ARC
  8
_0-0_
  6
CONTINUOUS
 62
    7
 10
2066.7327391871154
 20
2214.9372274627094
 40
4.882352821039877
 50
90
 51
180
  0
ARC
  8
_0-0_
  6
CONTINUOUS
 62
    7
 10
2166.7327091408511
 20
2141.7017382176227
 40
4.882352821039877
 50
180
 51
270
  0
ARC
  8
_0-0_
  6
CONTINUOUS
 62
    7
 10
2239.9679506515445
 20
2141.7017382176227
 40
4.882352821039877
 50
270
 51
0
  0
ARC
  8
_0-0_
  6
CONTINUOUS
 62
    7
 10
2166.7327091408511
 20
2214.9372274627094
 40
4.882352821039877
 50
90
 51
180
  0
ARC
  8
_0-0_
  6
CONTINUOUS
 62
    7
 10
2239.9679506515445
 20
2214.9372274627094
 40
4.882352821039877
 50
0
 51
90
  0
ARC
  8
_0-0_
  6
CONTINUOUS
 62
    7
 10
2039.9680107440727
 20
2214.9372274627094
 40
4.882352821039877
 50
0
 51
90
  0
ARC
  8
_0-0_
  6
CONTINUOUS
 62
    7
 10
1966.7327692333797
 20
2214.9372274627094
 40
4.882352821039877
 50
90
 51
180
  0
ARC
  8
_0-0_
  6
CONTINUOUS
 62
    7
 10
1966.7327692333797
 20
2141.7017382176227
 40
4.882352821039877
 50
180
 51
270
  0
ARC
  8
_0-0_
  6
CONTINUOUS
 62
    7
 10
2039.9680107440727
 20
2141.7017382176227
 40
4.882352821039877
 50
270
 51
0
  0
ARC
  8
_0-0_
  6
CONTINUOUS
 62
    7
 10
1966.7327692333797
 20
2114.9372575089737
 40
4.882352821039877
 50
90
 51
180
  0
ARC
  8
_0-0_
  6
CONTINUOUS
 62
    7
 10
1966.7327692333797
 20
2041.7018921310837
 40
4.882352821039877
 50
180
 51
270
  0
ARC
  8
_0-0_
  6
CONTINUOUS
 62
    7
 10
2039.9680107440727
 20
2114.9372575089737
 40
4.882352821039877
 50
0
 51
90
  0
ARC
  8
_0-0_
  6
CONTINUOUS
 62
    7
 10
2039.9680107440727
 20
2041.7018921310837
 40
4.882352821039877
 50
270
 51
0
  0
ARC
  8
_0-0_
  6
CONTINUOUS
 62
    7
 10
2139.9682284322025
 20
2011.9371001784864
 40
4.882352821039877
 50
0
 51
90
  0
ARC
  8
_0-0_
  6
CONTINUOUS
 62
    7
 10
2066.7327391871154
 20
2011.9371001784864
 40
4.882352821039877
 50
90
 51
180
  0
ARC
  8
_0-0_
  6
CONTINUOUS
 62
    7
 10
2139.9682284322025
 20
1938.7018586677934
 40
4.882352821039877
 50
270
 51
0
  0
ARC
  8
_0-0_
  6
CONTINUOUS
 62
    7
 10
2066.7327391871154
 20
1938.7018586677934
 40
4.882352821039877
 50
180
 51
270
  0
ARC
  8
_0-0_
  6
CONTINUOUS
 62
    7
 10
2239.9679506515445
 20
1838.7018887140575
 40
4.882352821039877
 50
270
 51
0
  0
ARC
  8
_0-0_
  6
CONTINUOUS
 62
    7
 10
2239.9679506515445
 20
1911.9370063575539
 40
4.882352821039877
 50
0
 51
90
  0
ARC
  8
_0-0_
  6
CONTINUOUS
 62
    7
 10
2166.7327091408511
 20
1838.7018887140575
 40
4.882352821039877
 50
180
 51
270
  0
ARC
  8
_0-0_
  6
CONTINUOUS
 62
    7
 10
2166.7327091408511
 20
1911.9370063575539
 40
4.882352821039877
 50
90
 51
180
  0
ARC
  8
_0-0_
  6
CONTINUOUS
 62
    7
 10
2139.9682284322025
 20
2041.7018921310837
 40
4.882352821039877
 50
270
 51
0
  0
ARC
  8
_0-0_
  6
CONTINUOUS
 62
    7
 10
2139.9682284322025
 20
2114.9372575089737
 40
4.882352821039877
 50
0
 51
90
  0
ARC
  8
_0-0_
  6
CONTINUOUS
 62
    7
 10
2066.7327391871154
 20
2114.9372575089737
 40
4.882352821039877
 50
90
 51
180
  0
ARC
  8
_0-0_
  6
CONTINUOUS
 62
    7
 10
2066.7327391871154
 20
2041.7018921310837
 40
4.882352821039877
 50
180
 51
270
  0
ARC
  8
_0-0_
  6
CONTINUOUS
 62
    7
 10
2166.7327091408511
 20
1938.7018586677934
 40
4.882352821039877
 50
180
 51
270
  0
ARC
  8
_0-0_
  6
CONTINUOUS
 62
    7
 10
2239.9679506515445
 20
1938.7018586677934
 40
4.882352821039877
 50
270
 51
0
  0
ARC
  8
_0-0_
  6
CONTINUOUS
 62
    7
 10
2239.9679506515445
 20
2011.9371001784864
 40
4.882352821039877
 50
0
 51
90
  0
ARC
  8
_0-0_
  6
CONTINUOUS
 62
    7
 10
2166.7327091408511
 20
2011.9371001784864
 40
4.882352821039877
 50
90
 51
180
  0
ARC
  8
_0-0_
  6
CONTINUOUS
 62
    7
 10
2266.7329268289809
 20
1911.9370063575539
 40
4.882352821039877
 50
90
 51
180
  0
ARC
  8
_0-0_
  6
CONTINUOUS
 62
    7
 10
2266.7329268289809
 20
1838.7018887140575
 40
4.882352821039877
 50
180
 51
270
  0
ARC
  8
_0-0_
  6
CONTINUOUS
 62
    7
 10
2339.9681683396743
 20
1838.7018887140575
 40
4.882352821039877
 50
270
 51
0
  0
ARC
  8
_0-0_
  6
CONTINUOUS
 62
    7
 10
2339.9681683396743
 20
1911.9370063575539
 40
4.882352821039877
 50
0
 51
90
  0
ARC
  8
_0-0_
  6
CONTINUOUS
 62
    7
 10
2239.9679506515445
 20
2041.7018921310837
 40
4.882352821039877
 50
270
 51
0
  0
ARC
  8
_0-0_
  6
CONTINUOUS
 62
    7
 10
2166.7327091408511
 20
2041.7018921310837
 40
4.882352821039877
 50
180
 51
270
  0
ARC
  8
_0-0_
  6
CONTINUOUS
 62
    7
 10
2166.7327091408511
 20
2114.9372575089737
 40
4.882352821039877
 50
90
 51
180
  0
ARC
  8
_0-0_
  6
CONTINUOUS
 62
    7
 10
2239.9679506515445
 20
2114.9372575089737
 40
4.882352821039877
 50
0
 51
90
  0
ARC
  8
_0-0_
  6
CONTINUOUS
 62
    7
 10
2266.7329268289809
 20
1938.7018586677934
 40
4.882352821039877
 50
180
 51
270
  0
ARC
  8
_0-0_
  6
CONTINUOUS
 62
    7
 10
2266.7329268289809
 20
2011.9371001784864
 40
4.882352821039877
 50
90
 51
180
  0
ARC
  8
_0-0_
  6
CONTINUOUS
 62
    7
 10
2339.9681683396743
 20
2011.9371001784864
 40
4.882352821039877
 50
0
 51
90
  0
ARC
  8
_0-0_
  6
CONTINUOUS
 62
    7
 10
2339.9681683396743
 20
1938.7018586677934
 40
4.882352821039877
 50
270
 51
0
  0
ARC
  8
_0-0_
  6
CONTINUOUS
 62
    7
 10
2366.7326490483229
 20
1911.9370063575539
 40
4.882352821039877
 50
90
 51
180
  0
ARC
  8
_0-0_
  6
CONTINUOUS
 62
    7
 10
2439.96813829341
 20
1911.9370063575539
 40
4.882352821039877
 50
0
 51
90
  0
ARC
  8
_0-0_
  6
CONTINUOUS
 62
    7
 10
2439.96813829341
 20
1838.7018887140575
 40
4.882352821039877
 50
270
 51
0
  0
ARC
  8
_0-0_
  6
CONTINUOUS
 62
    7
 10
2366.7326490483229
 20
1838.7018887140575
 40
4.882352821039877
 50
180
 51
270
  0
ARC
  8
_0-0_
  6
CONTINUOUS
 62
    7
 10
2266.7329268289809
 20
2114.9372575089737
 40
4.882352821039877
 50
90
 51
180
  0
ARC
  8
_0-0_
  6
CONTINUOUS
 62
    7
 10
2266.7329268289809
 20
2041.7018921310837
 40
4.882352821039877
 50
180
 51
270
  0
ARC
  8
_0-0_
  6
CONTINUOUS
 62
    7
 10
2339.9681683396743
 20
2114.9372575089737
 40
4.882352821039877
 50
0
 51
90
  0
ARC
  8
_0-0_
  6
CONTINUOUS
 62
    7
 10
2339.9681683396743
 20
2041.7018921310837
 40
4.882352821039877
 50
270
 51
0
  0
ARC
  8
_0-0_
  6
CONTINUOUS
 62
    7
 10
2439.96813829341
 20
2011.9371001784864
 40
4.882352821039877
 50
0
 51
90
  0
ARC
  8
_0-0_
  6
CONTINUOUS
 62
    7
 10
2366.7326490483229
 20
2011.9371001784864
 40
4.882352821039877
 50
90
 51
180
  0
ARC
  8
_0-0_
  6
CONTINUOUS
 62
    7
 10
2439.96813829341
 20
1938.7018586677934
 40
4.882352821039877
 50
270
 51
0
  0
ARC
  8
_0-0_
  6
CONTINUOUS
 62
    7
 10
2366.7326490483229
 20
1938.7018586677934
 40
4.882352821039877
 50
180
 51
270
  0
ARC
  8
_0-0_
  6
CONTINUOUS
 62
    7
 10
2539.9681082471457
 20
1838.7018887140575
 40
4.882352821039877
 50
270
 51
0
  0
ARC
  8
_0-0_
  6
CONTINUOUS
 62
    7
 10
2539.9681082471457
 20
1911.9370063575539
 40
4.882352821039877
 50
0
 51
90
  0
ARC
  8
_0-0_
  6
CONTINUOUS
 62
    7
 10
2466.7328667364527
 20
1838.7018887140575
 40
4.882352821039877
 50
180
 51
270
  0
ARC
  8
_0-0_
  6
CONTINUOUS
 62
    7
 10
2466.7328667364527
 20
1911.9370063575539
 40
4.882352821039877
 50
90
 51
180
  0
ARC
  8
_0-0_
  6
CONTINUOUS
 62
    7
 10
2266.7329268289809
 20
2141.7017382176227
 40
4.882352821039877
 50
180
 51
270
  0
ARC
  8
_0-0_
  6
CONTINUOUS
 62
    7
 10
2339.9681683396743
 20
2141.7017382176227
 40
4.882352821039877
 50
270
 51
0
  0
ARC
  8
_0-0_
  6
CONTINUOUS
 62
    7
 10
2266.7329268289809
 20
2214.9372274627094
 40
4.882352821039877
 50
90
 51
180
  0
ARC
  8
_0-0_
  6
CONTINUOUS
 62
    7
 10
2339.9681683396743
 20
2214.9372274627094
 40
4.882352821039877
 50
0
 51
90
  0
ARC
  8
_0-0_
  6
CONTINUOUS
 62
    7
 10
2539.9681082471457
 20
2214.9372274627094
 40
4.882352821039877
 50
0
 51
90
  0
ARC
  8
_0-0_
  6
CONTINUOUS
 62
    7
 10
2539.9681082471457
 20
2141.7017382176227
 40
4.882352821039877
 50
270
 51
0
  0
ARC
  8
_0-0_
  6
CONTINUOUS
 62
    7
 10
2466.7328667364527
 20
2141.7017382176227
 40
4.882352821039877
 50
180
 51
270
  0
ARC
  8
_0-0_
  6
CONTINUOUS
 62
    7
 10
2466.7328667364527
 20
2214.9372274627094
 40
4.882352821039877
 50
90
 51
180
  0
ARC
  8
_0-0_
  6
CONTINUOUS
 62
    7
 10
2566.7328366901884
 20
2141.7017382176227
 40
4.882352821039877
 50
180
 51
270
  0
ARC
  8
_0-0_
  6
CONTINUOUS
 62
    7
 10
2639.9680782008813
 20
2141.7017382176227
 40
4.882352821039877
 50
270
 51
0
  0
ARC
  8
_0-0_
  6
CONTINUOUS
 62
    7
 10
2566.7328366901884
 20
2214.9372274627094
 40
4.882352821039877
 50
90
 51
180
  0
ARC
  8
_0-0_
  6
CONTINUOUS
 62
    7
 10
2639.9680782008813
 20
2214.9372274627094
 40
4.882352821039877
 50
0
 51
90
  0
ARC
  8
_0-0_
  6
CONTINUOUS
 62
    7
 10
2439.96813829341
 20
2214.9372274627094
 40
4.882352821039877
 50
0
 51
90
  0
ARC
  8
_0-0_
  6
CONTINUOUS
 62
    7
 10
2366.7326490483229
 20
2214.9372274627094
 40
4.882352821039877
 50
90
 51
180
  0
ARC
  8
_0-0_
  6
CONTINUOUS
 62
    7
 10
2366.7326490483229
 20
2141.7017382176227
 40
4.882352821039877
 50
180
 51
270
  0
ARC
  8
_0-0_
  6
CONTINUOUS
 62
    7
 10
2439.96813829341
 20
2141.7017382176227
 40
4.882352821039877
 50
270
 51
0
  0
ARC
  8
_0-0_
  6
CONTINUOUS
 62
    7
 10
2366.7326490483229
 20
2114.9372575089737
 40
4.882352821039877
 50
90
 51
180
  0
ARC
  8
_0-0_
  6
CONTINUOUS
 62
    7
 10
2366.7326490483229
 20
2041.7018921310837
 40
4.882352821039877
 50
180
 51
270
  0
ARC
  8
_0-0_
  6
CONTINUOUS
 62
    7
 10
2439.96813829341
 20
2114.9372575089737
 40
4.882352821039877
 50
0
 51
90
  0
ARC
  8
_0-0_
  6
CONTINUOUS
 62
    7
 10
2439.96813829341
 20
2041.7018921310837
 40
4.882352821039877
 50
270
 51
0
  0
ARC
  8
_0-0_
  6
CONTINUOUS
 62
    7
 10
2539.9681082471457
 20
2011.9371001784864
 40
4.882352821039877
 50
0
 51
90
  0
ARC
  8
_0-0_
  6
CONTINUOUS
 62
    7
 10
2466.7328667364527
 20
2011.9371001784864
 40
4.882352821039877
 50
90
 51
180
  0
ARC
  8
_0-0_
  6
CONTINUOUS
 62
    7
 10
2539.9681082471457
 20
1938.7018586677934
 40
4.882352821039877
 50
270
 51
0
  0
ARC
  8
_0-0_
  6
CONTINUOUS
 62
    7
 10
2466.7328667364527
 20
1938.7018586677934
 40
4.882352821039877
 50
180
 51
270
  0
ARC
  8
_0-0_
  6
CONTINUOUS
 62
    7
 10
2639.9680782008813
 20
1838.7018887140575
 40
4.882352821039877
 50
270
 51
0
  0
ARC
  8
_0-0_
  6
CONTINUOUS
 62
    7
 10
2639.9680782008813
 20
1911.9370063575539
 40
4.882352821039877
 50
0
 51
90
  0
ARC
  8
_0-0_
  6
CONTINUOUS
 62
    7
 10
2566.7328366901884
 20
1838.7018887140575
 40
4.882352821039877
 50
180
 51
270
  0
ARC
  8
_0-0_
  6
CONTINUOUS
 62
    7
 10
2566.7328366901884
 20
1911.9370063575539
 40
4.882352821039877
 50
90
 51
180
  0
ARC
  8
_0-0_
  6
CONTINUOUS
 62
    7
 10
2539.9681082471457
 20
2041.7018921310837
 40
4.882352821039877
 50
270
 51
0
  0
ARC
  8
_0-0_
  6
CONTINUOUS
 62
    7
 10
2539.9681082471457
 20
2114.9372575089737
 40
4.882352821039877
 50
0
 51
90
  0
ARC
  8
_0-0_
  6
CONTINUOUS
 62
    7
 10
2466.7328667364527
 20
2114.9372575089737
 40
4.882352821039877
 50
90
 51
180
  0
ARC
  8
_0-0_
  6
CONTINUOUS
 62
    7
 10
2466.7328667364527
 20
2041.7018921310837
 40
4.882352821039877
 50
180
 51
270
  0
ARC
  8
_0-0_
  6
CONTINUOUS
 62
    7
 10
2566.7328366901884
 20
1938.7018586677934
 40
4.882352821039877
 50
180
 51
270
  0
ARC
  8
_0-0_
  6
CONTINUOUS
 62
    7
 10
2639.9680782008813
 20
1938.7018586677934
 40
4.882352821039877
 50
270
 51
0
  0
ARC
  8
_0-0_
  6
CONTINUOUS
 62
    7
 10
2639.9680782008813
 20
2011.9371001784864
 40
4.882352821039877
 50
0
 51
90
  0
ARC
  8
_0-0_
  6
CONTINUOUS
 62
    7
 10
2566.7328366901884
 20
2011.9371001784864
 40
4.882352821039877
 50
90
 51
180
  0
ARC
  8
_0-0_
  6
CONTINUOUS
 62
    7
 10
2666.7330543783182
 20
1911.9370063575539
 40
4.882352821039877
 50
90
 51
180
  0
ARC
  8
_0-0_
  6
CONTINUOUS
 62
    7
 10
2666.7330543783182
 20
1838.7018887140575
 40
4.882352821039877
 50
180
 51
270
  0
ARC
  8
_0-0_
  6
CONTINUOUS
 62
    7
 10
2739.9682958890112
 20
1838.7018887140575
 40
4.882352821039877
 50
270
 51
0
  0
ARC
  8
_0-0_
  6
CONTINUOUS
 62
    7
 10
2739.9682958890112
 20
1911.9370063575539
 40
4.882352821039877
 50
0
 51
90
  0
ARC
  8
_0-0_
  6
CONTINUOUS
 62
    7
 10
2639.9680782008813
 20
2041.7018921310837
 40
4.882352821039877
 50
270
 51
0
  0
ARC
  8
_0-0_
  6
CONTINUOUS
 62
    7
 10
2566.7328366901884
 20
2041.7018921310837
 40
4.882352821039877
 50
180
 51
270
  0
ARC
  8
_0-0_
  6
CONTINUOUS
 62
    7
 10
2566.7328366901884
 20
2114.9372575089737
 40
4.882352821039877
 50
90
 51
180
  0
ARC
  8
_0-0_
  6
CONTINUOUS
 62
    7
 10
2639.9680782008813
 20
2114.9372575089737
 40
4.882352821039877
 50
0
 51
90
  0
ARC
  8
_0-0_
  6
CONTINUOUS
 62
    7
 10
2666.7330543783182
 20
1938.7018586677934
 40
4.882352821039877
 50
180
 51
270
  0
ARC
  8
_0-0_
  6
CONTINUOUS
 62
    7
 10
2666.7330543783182
 20
2011.9371001784864
 40
4.882352821039877
 50
90
 51
180
  0
ARC
  8
_0-0_
  6
CONTINUOUS
 62
    7
 10
2739.9682958890112
 20
2011.9371001784864
 40
4.882352821039877
 50
0
 51
90
  0
ARC
  8
_0-0_
  6
CONTINUOUS
 62
    7
 10
2739.9682958890112
 20
1938.7018586677934
 40
4.882352821039877
 50
270
 51
0
  0
ARC
  8
_0-0_
  6
CONTINUOUS
 62
    7
 10
2766.7327765976597
 20
1911.9370063575539
 40
4.882352821039877
 50
90
 51
180
  0
ARC
  8
_0-0_
  6
CONTINUOUS
 62
    7
 10
2839.9680181083531
 20
1911.9370063575539
 40
4.882352821039877
 50
0
 51
90
  0
ARC
  8
_0-0_
  6
CONTINUOUS
 62
    7
 10
2839.9680181083531
 20
1838.7018887140575
 40
4.882352821039877
 50
270
 51
0
  0
ARC
  8
_0-0_
  6
CONTINUOUS
 62
    7
 10
2766.7327765976597
 20
1838.7018887140575
 40
4.882352821039877
 50
180
 51
270
  0
ARC
  8
_0-0_
  6
CONTINUOUS
 62
    7
 10
2666.7330543783182
 20
2114.9372575089737
 40
4.882352821039877
 50
90
 51
180
  0
ARC
  8
_0-0_
  6
CONTINUOUS
 62
    7
 10
2666.7330543783182
 20
2041.7018921310837
 40
4.882352821039877
 50
180
 51
270
  0
ARC
  8
_0-0_
  6
CONTINUOUS
 62
    7
 10
2739.9682958890112
 20
2114.9372575089737
 40
4.882352821039877
 50
0
 51
90
  0
ARC
  8
_0-0_
  6
CONTINUOUS
 62
    7
 10
2739.9682958890112
 20
2041.7018921310837
 40
4.882352821039877
 50
270
 51
0
  0
ARC
  8
_0-0_
  6
CONTINUOUS
 62
    7
 10
2839.9680181083531
 20
2011.9371001784864
 40
4.882352821039877
 50
0
 51
90
  0
ARC
  8
_0-0_
  6
CONTINUOUS
 62
    7
 10
2766.7327765976597
 20
2011.9371001784864
 40
4.882352821039877
 50
90
 51
180
  0
ARC
  8
_0-0_
  6
CONTINUOUS
 62
    7
 10
2839.9680181083531
 20
1938.7018586677934
 40
4.882352821039877
 50
270
 51
0
  0
ARC
  8
_0-0_
  6
CONTINUOUS
 62
    7
 10
2766.7327765976597
 20
1938.7018586677934
 40
4.882352821039877
 50
180
 51
270
  0
ARC
  8
_0-0_
  6
CONTINUOUS
 62
    7
 10
2666.7330543783182
 20
2141.7017382176227
 40
4.882352821039877
 50
180
 51
270
  0
ARC
  8
_0-0_
  6
CONTINUOUS
 62
    7
 10
2739.9682958890112
 20
2141.7017382176227
 40
4.882352821039877
 50
270
 51
0
  0
ARC
  8
_0-0_
  6
CONTINUOUS
 62
    7
 10
2666.7330543783182
 20
2214.9372274627094
 40
4.882352821039877
 50
90
 51
180
  0
ARC
  8
_0-0_
  6
CONTINUOUS
 62
    7
 10
2739.9682958890112
 20
2214.9372274627094
 40
4.882352821039877
 50
0
 51
90
  0
ARC
  8
_0-0_
  6
CONTINUOUS
 62
    7
 10
2839.9680181083531
 20
2214.9372274627094
 40
4.882352821039877
 50
0
 51
90
  0
ARC
  8
_0-0_
  6
CONTINUOUS
 62
    7
 10
2766.7327765976597
 20
2214.9372274627094
 40
4.882352821039877
 50
90
 51
180
  0
ARC
  8
_0-0_
  6
CONTINUOUS
 62
    7
 10
2766.7327765976597
 20
2141.7017382176227
 40
4.882352821039877
 50
180
 51
270
  0
ARC
  8
_0-0_
  6
CONTINUOUS
 62
    7
 10
2839.9680181083531
 20
2141.7017382176227
 40
4.882352821039877
 50
270
 51
0
  0
ARC
  8
_0-0_
  6
CONTINUOUS
 62
    7
 10
2766.7327765976597
 20
2114.9372575089737
 40
4.882352821039877
 50
90
 51
180
  0
ARC
  8
_0-0_
  6
CONTINUOUS
 62
    7
 10
2766.7327765976597
 20
2041.7018921310837
 40
4.882352821039877
 50
180
 51
270
  0
ARC
  8
_0-0_
  6
CONTINUOUS
 62
    7
 10
2839.9680181083531
 20
2114.9372575089737
 40
4.882352821039877
 50
0
 51
90
  0
ARC
  8
_0-0_
  6
CONTINUOUS
 62
    7
 10
2839.9680181083531
 20
2041.7018921310837
 40
4.882352821039877
 50
270
 51
0
  0
ARC
  8
_0-0_
  6
CONTINUOUS
 62
    7
 10
1866.7327992796438
 20
1911.9370063575539
 40
4.882352821039877
 50
90
 51
180
  0
ARC
  8
_0-0_
  6
CONTINUOUS
 62
    7
 10
1866.7327992796438
 20
1838.7018887140575
 40
4.882352821039877
 50
180
 51
270
  0
ARC
  8
_0-0_
  6
CONTINUOUS
 62
    7
 10
1939.968040790337
 20
1838.7018887140575
 40
4.882352821039877
 50
270
 51
0
  0
ARC
  8
_0-0_
  6
CONTINUOUS
 62
    7
 10
1939.968040790337
 20
1911.9370063575539
 40
4.882352821039877
 50
0
 51
90
  0
ARC
  8
_0-0_
  6
CONTINUOUS
 62
    7
 10
1866.7327992796438
 20
1938.7018586677934
 40
4.882352821039877
 50
180
 51
270
  0
ARC
  8
_0-0_
  6
CONTINUOUS
 62
    7
 10
1866.7327992796438
 20
2011.9371001784864
 40
4.882352821039877
 50
90
 51
180
  0
ARC
  8
_0-0_
  6
CONTINUOUS
 62
    7
 10
1939.968040790337
 20
2011.9371001784864
 40
4.882352821039877
 50
0
 51
90
  0
ARC
  8
_0-0_
  6
CONTINUOUS
 62
    7
 10
1939.968040790337
 20
1938.7018586677934
 40
4.882352821039877
 50
270
 51
0
  0
ARC
  8
_0-0_
  6
CONTINUOUS
 62
    7
 10
1966.7327692333797
 20
1911.9370063575539
 40
4.882352821039877
 50
90
 51
180
  0
ARC
  8
_0-0_
  6
CONTINUOUS
 62
    7
 10
2039.9680107440727
 20
1911.9370063575539
 40
4.882352821039877
 50
0
 51
90
  0
ARC
  8
_0-0_
  6
CONTINUOUS
 62
    7
 10
2039.9680107440727
 20
1838.7018887140575
 40
4.882352821039877
 50
270
 51
0
  0
ARC
  8
_0-0_
  6
CONTINUOUS
 62
    7
 10
1866.7327992796438
 20
2114.9372575089737
 40
4.882352821039877
 50
90
 51
180
  0
ARC
  8
_0-0_
  6
CONTINUOUS
 62
    7
 10
1866.7327992796438
 20
2041.7018921310837
 40
4.882352821039877
 50
180
 51
270
  0
ARC
  8
_0-0_
  6
CONTINUOUS
 62
    7
 10
1939.968040790337
 20
2114.9372575089737
 40
4.882352821039877
 50
0
 51
90
  0
ARC
  8
_0-0_
  6
CONTINUOUS
 62
    7
 10
1939.968040790337
 20
2041.7018921310837
 40
4.882352821039877
 50
270
 51
0
  0
ARC
  8
_0-0_
  6
CONTINUOUS
 62
    7
 10
2039.9680107440727
 20
2011.9371001784864
 40
4.882352821039877
 50
0
 51
90
  0
ARC
  8
_0-0_
  6
CONTINUOUS
 62
    7
 10
1966.7327692333797
 20
2011.9371001784864
 40
4.882352821039877
 50
90
 51
180
  0
ARC
  8
_0-0_
  6
CONTINUOUS
 62
    7
 10
2039.9680107440727
 20
1938.7018586677934
 40
4.882352821039877
 50
270
 51
0
  0
ARC
  8
_0-0_
  6
CONTINUOUS
 62
    7
 10
1966.7327692333797
 20
1938.7018586677934
 40
4.882352821039877
 50
180
 51
270
  0
ARC
  8
_0-0_
  6
CONTINUOUS
 62
    7
 10
2139.9682284322025
 20
1838.7018887140575
 40
4.882352821039877
 50
270
 51
0
  0
ARC
  8
_0-0_
  6
CONTINUOUS
 62
    7
 10
2139.9682284322025
 20
1911.9370063575539
 40
4.882352821039877
 50
0
 51
90
  0
ARC
  8
_0-0_
  6
CONTINUOUS
 62
    7
 10
2066.7327391871154
 20
1838.7018887140575
 40
4.882352821039877
 50
180
 51
270
  0
ARC
  8
_0-0_
  6
CONTINUOUS
 62
    7
 10
2066.7327391871154
 20
1911.9370063575539
 40
4.882352821039877
 50
90
 51
180
  0
ARC
  8
_0-0_
  6
CONTINUOUS
 62
    7
 10
2108.350383213588
 20
2026.8194961547852
 40
5.0000000460267522
 50
89.68133544921875
 51
269.68133544921875
  0
ARC
  8
_0-0_
  6
CONTINUOUS
 62
    7
 10
2198.3505543594656
 20
2026.8194961547852
 40
5.0000000460267522
 50
270.31864929199219
 51
89.681335449218693
  0
ARC
  8
_0-0_
  6
CONTINUOUS
 62
    7
 10
2508.3505107629253
 20
2026.8194961547852
 40
5.0000000460267522
 50
90.318649291992188
 51
270.31864929199219
  0
ARC
  8
_0-0_
  6
CONTINUOUS
 62
    7
 10
2598.3504341744087
 20
2026.8194961547852
 40
5.0000000460267522
 50
270.31864929199219
 51
90.318649291992173
  0
CIRCLE
  8
_0-0_
  6
CONTINUOUS
 62
    7
 10
1893.3503734927378
 20
1591.7909639866657
 40
5.9999997649183605
  0
CIRCLE
  8
_0-0_
  6
CONTINUOUS
 62
    7
 10
2813.3504438952586
 20
1591.7909639866657
 40
5.9999997649183605
  0
ARC
  8
_0-0_
  6
CONTINUOUS
 62
    7
 10
864.1398161074369
 20
932.9145262876533
 40
50.000000460267529
 50
182.6891784667969
 51
270
  0
ARC
  8
_0-0_
  6
CONTINUOUS
 62
    7
 10
1019.3325936011825
 20
932.9145262876533
 40
50.000000460267529
 50
270
 51
357.31080627441406
  0
POINT
  8
_0-0_
 62
    7
 10
731.73618743778661
 20
2275.7832719368362
  0
POINT
  8
_0-0_
 62
    7
 10
1151.7361603372344
 20
2275.7832719368362
  0
POINT
  8
_0-0_
 62
    7
 10
622.13192663597795
 20
2187.8051089135838
  0
POINT
  8
_0-0_
 62
    7
 10
622.13192663597795
 20
2049.8052841540007
  0
POINT
  8
_0-0_
 62
    7
 10
622.13192663597795
 20
2037.8052778501769
  0
POINT
  8
_0-0_
 62
    7
 10
731.73618743778661
 20
1943.272558234373
  0
POINT
  8
_0-0_
 62
    7
 10
796.73618029443446
 20
1943.272558234373
  0
POINT
  8
_0-0_
 62
    7
 10
1086.7362294141849
 20
1943.272558234373
  0
POINT
  8
_0-0_
 62
    7
 10
1151.7361603372344
 20
1943.272558234373
  0
POINT
  8
_0-0_
 62
    7
 10
1730.238456431503
 20
2236.8196064717058
  0
POINT
  8
_0-0_
 62
    7
 10
1730.238456431503
 20
1816.8195097050611
  0
POINT
  8
_0-0_
 62
    7
 10
2103.3503599424621
 20
2324.7977694949586
  0
POINT
  8
_0-0_
 62
    7
 10
2203.3505776305915
 20
2324.7977694949586
  0
POINT
  8
_0-0_
 62
    7
 10
2503.350487491799
 20
2324.7977694949586
  0
POINT
  8
_0-0_
 62
    7
 10
2603.3504574455351
 20
2324.7977694949586
  0
POINT
  8
_0-0_
 62
    7
 10
1853.3504350581225
 20
2405.0339849759253
  0
POINT
  8
_0-0_
 62
    7
 10
2853.3506300642684
 20
2405.0339849759253
  0
POINT
  8
_0-0_
 62
    7
 10
726.73622610025882
 20
1455.7704131667676
  0
POINT
  8
_0-0_
 62
    7
 10
791.73621895690701
 20
1455.7704131667676
  0
POINT
  8
_0-0_
 62
    7
 10
1091.7362526853112
 20
1455.7704131667676
  0
POINT
  8
_0-0_
 62
    7
 10
1156.7361836083608
 20
1455.7704131667676
  0
POINT
  8
_0-0_
 62
    7
 10
636.86599164395716
 20
1382.9144530130629
  0
POINT
  8
_0-0_
 62
    7
 10
636.86599164395716
 20
882.91454131078535
  0
POINT
  8
_0-0_
 62
    7
 10
636.86599164395716
 20
882.91454131078535
  0
POINT
  8
_0-0_
 62
    7
 10
636.86599164395716
 20
802.91454057435726
  0
LINE
  8
_0-0_
  6
CONTINUOUS
 62
    7
 10
1440.3599829655357
 20
1455.7704131667676
 11
3440.3600013762366
 21
1455.7704131667676
  0
POINT
  8
_0-0_
 62
    7
 10
1440.3599829655357
 20
1455.7704131667676
  0
POINT
  8
_0-0_
 62
    7
 10
3440.3600013762366
 20
1455.7704131667676
  0
LINE
  8
_0-0_
  6
CONTINUOUS
 62
    7
 10
1440.3599829655357
 20
1455.7704131667676
 11
1440.3599829655357
 21
1394.1885975428988
  0
LINE
  8
_0-0_
  6
CONTINUOUS
 62
    7
 10
3440.3600013762366
 20
1455.7704131667676
 11
3440.3600013762366
 21
1394.1885975428988
  0
TEXT
  8
_0-0_
 62
    7
 10
2408.8599921708865
 20
1455.7704131667676
 40
30
 41
1
 50
0
  1
2000
  0
TEXT
  8
_0-0_
 62
    7
 10
2584.8095495166344
 20
603.28807230934092
 40
35
 41
1
 50
0
  1
481Kg
  0
TEXT
  8
_0-0_
 62
    7
 10
746.51563151002392
 20
606.91303378366592
 40
35
 41
1
 50
0
  1
クリーン側溝可変対応型 300×500
  0
ENDSEC
  0
EOF
