  0
SECTION
  2
HEADER
  9
$ACADVER
  1
AC1009
  9
$INSBASE
 10
0
 20
0
 30
0
  9
$EXTMIN
 10
0
 20
0
  9
$EXTMAX
 10
5940
 20
4200
  9
$LIMMIN
 10
0
 20
0
  9
$LIMMAX
 10
5940
 20
4200
  9
$LTSCALE
 40
10
  0
ENDSEC
  0
SECTION
  2
TABLES
  0
TABLE
  2
LTYPE
 70
     9
  0
LTYPE
  2
CONTINUOUS
 70
    64
  3
実線
 72
    65
 73
     0
 40
0.0
  0
LTYPE
  2
DASHED1
 70
    64
  3
--  --  --  --  --  --  --  --  
 72
    65
 73
     2
 40
2.5
 49
1.25
 49
-1.25
  0
LTYPE
  2
DASHED2
 70
    64
  3
----    ----    ----    ----    
 72
    65
 73
     2
 40
5.0
 49
2.5
 49
-2.5
  0
LTYPE
  2
DASHED3
 70
    64
  3
------  ------  ------  ------  
 72
    65
 73
     2
 40
5.0
 49
3.75
 49
-1.25
  0
LTYPE
  2
CENTER1
 70
    64
  3
----- - ----- - ----- - ----- - 
 72
    65
 73
     4
 40
10.0
 49
6.25
 49
-1.25
 49
1.25
 49
-1.25
  0
LTYPE
  2
CENTER2
 70
    64
  3
----------  --  ----------  --  
 72
    65
 73
     4
 40
20.0
 49
12.5
 49
-2.5
 49
2.5
 49
-2.5
  0
LTYPE
  2
PHANTOM1
 70
    64
  3
--- - - --- - - --- - - --- - - 
 72
    65
 73
     6
 40
10.0
 49
3.25
 49
-1.25
 49
1.25
 49
-1.25
 49
1.25
 49
-1.25
  0
LTYPE
  2
PHANTOM2
 70
    64
  3
--------  -  -  --------  -  -  
 72
    65
 73
     6
 40
20.0
 49
10.0
 49
-2.5
 49
1.25
 49
-2.5
 49
1.25
 49
-2.5
  0
LTYPE
  2
DOT
 70
    64
  3
-   -   -   -   -   -   -   -   
 72
    65
 73
     2
 40
2.5
 49
0.625
 49
-1.875
  0
LTYPE
  2
DUMMY
 70
    64
  3
ダミー
 72
    65
 73
     0
 40
0.0
  0
LTYPE
  2
RAND1
 70
    64
  3
ランダム線1
 72
    65
 73
     4
 40
10.0
 49
1.0
 49
-2.0
 49
3.0
 49
-4.0
  0
LTYPE
  2
RAND2
 70
    64
  3
ランダム線2
 72
    65
 73
     4
 40
14.0
 49
2.0
 49
-3.0
 49
4.0
 49
-5.0
  0
LTYPE
  2
RAND3
 70
    64
  3
ランダム線3
 72
    65
 73
     4
 40
18.0
 49
3.0
 49
-4.0
 49
5.0
 49
-6.0
  0
LTYPE
  2
RAND4
 70
    64
  3
ランダム線4
 72
    65
 73
     4
 40
22.0
 49
4.0
 49
-5.0
 49
6.0
 49
-7.0
  0
LTYPE
  2
RAND5
 70
    64
  3
ランダム線5
 72
    65
 73
     4
 40
26.0
 49
5.0
 49
-6.0
 49
7.0
 49
-8.0
  0
LTYPE
  2
LONG1
 70
    64
  3
----------  --  ----------  --  
 72
    65
 73
     4
 40
40.0
 49
32.5
 49
-2.5
 49
2.5
 49
-2.5
  0
LTYPE
  2
LONG2
 70
    64
  3
--------  -  -  --------  -  -  
 72
    65
 73
     6
 40
40.0
 49
30.0
 49
-2.5
 49
1.25
 49
-2.5
 49
1.25
 49
-2.5
  0
LTYPE
  2
LONG3
 70
    64
  3
+++++++++++++++..+++++++++++++++
 72
    65
 73
     2
 40
40.0
 49
37.5
 49
-2.5
  0
LTYPE
  2
LONG4
 70
    64
  3
+++++++++++++++..+++++++++++++++
 72
    65
 73
     2
 40
80.0
 49
75.0
 49
-5.0
  0
LTYPE
  2
LONG5
 70
    64
  3
----------  --  ----------  --  
 72
    65
 73
     4
 40
60.0
 49
37.5
 49
-7.5
 49
7.5
 49
-7.5
  0
LTYPE
  2
dashed
 70
   64
  3
-------   -------------   ------
 72
   65
 73
    2
 40
7.5
 49
6
 49
-1.5
  0
LTYPE
  2
dashed_spaced
 70
   64
  3
----        --------        ----
 72
   65
 73
    2
 40
12
 49
6
 49
-6
  0
LTYPE
  2
long_dashed_dotted
 70
   64
  3
------------- --- --------------
 72
   65
 73
    4
 40
15.25
 49
12
 49
-1.5
 49
0.25
 49
-1.5
  0
LTYPE
  2
long_dashed_double-dotted
 70
   64
  3
----------- --- --- ------------
 72
   65
 73
    6
 40
17
 49
12
 49
-1.5
 49
0.25
 49
-1.5
 49
0.25
 49
-1.5
  0
LTYPE
  2
long_dashed_triplicate-dotted
 70
   64
  3
--------- --- --- --- ----------
 72
   65
 73
    8
 40
18.75
 49
12
 49
-1.5
 49
0.25
 49
-1.5
 49
0.25
 49
-1.5
 49
0.25
 49
-1.5
  0
LTYPE
  2
dotted
 70
   64
  3
   -       -       -       -    
 72
   65
 73
    2
 40
1.75
 49
0.25
 49
-1.5
  0
LTYPE
  2
chain
 70
   64
  3
-------------- -- --------------
 72
   65
 73
    4
 40
18.5
 49
12
 49
-1.5
 49
3.5
 49
-1.5
  0
LTYPE
  2
chain_double_dash
 70
   64
  3
------------ -- -- -------------
 72
   65
 73
    6
 40
23.5
 49
12
 49
-1.5
 49
3.5
 49
-1.5
 49
3.5
 49
-1.5
  0
LTYPE
  2
dashed_dotted
 70
   64
  3
-----------     -     ----------
 72
   65
 73
    4
 40
9.25
 49
6
 49
-1.5
 49
0.25
 49
-1.5
  0
LTYPE
  2
double-dashed_dotted
 70
   64
  3
------   -----------   -   -----
 72
   65
 73
    6
 40
16.75
 49
6
 49
-1.5
 49
6
 49
-1.5
 49
0.25
 49
-1.5
  0
LTYPE
  2
dashed_double-dotted
 70
   64
  3
---------    -    -    ---------
 72
   65
 73
    6
 40
11
 49
6
 49
-1.5
 49
0.25
 49
-1.5
 49
0.25
 49
-1.5
  0
LTYPE
  2
double-dashed_double-dotted
 70
   64
  3
-----   ---------   -   -   ----
 72
   65
 73
    8
 40
18.5
 49
6
 49
-1.5
 49
6
 49
-1.5
 49
0.25
 49
-1.5
 49
0.25
 49
-1.5
  0
LTYPE
  2
dashed_triplicate-dotted
 70
   64
  3
-------    -    -    -    ------
 72
   65
 73
    8
 40
12.75
 49
6
 49
-1.5
 49
0.25
 49
-1.5
 49
0.25
 49
-1.5
 49
0.25
 49
-1.5
  0
LTYPE
  2
double-dashed_triplicate-dotted
 70
   64
  3
-----  ---------  -  -  -  -----
 72
   65
 73
   10
 40
20.25
 49
6
 49
-1.5
 49
6
 49
-1.5
 49
0.25
 49
-1.5
 49
0.25
 49
-1.5
 49
0.25
 49
-1.5
  0
LTYPE
  2
undefined
 70
   64
  3
--------------------------------
 72
   65
 73
    0
 40
0
  0
LTYPE
  2
_
 70
   64
  3
                                
 72
   65
 73
    0
 40
0
  0
LTYPE
  2
__18
 70
   64
  3
                                
 72
   65
 73
    0
 40
0
  0
LTYPE
  2
__19
 70
   64
  3
                                
 72
   65
 73
    0
 40
0
  0
LTYPE
  2
__20
 70
   64
  3
                                
 72
   65
 73
    0
 40
0
  0
LTYPE
  2
__21
 70
   64
  3
                                
 72
   65
 73
    0
 40
0
  0
LTYPE
  2
__22
 70
   64
  3
                                
 72
   65
 73
    0
 40
0
  0
LTYPE
  2
__23
 70
   64
  3
                                
 72
   65
 73
    0
 40
0
  0
LTYPE
  2
__24
 70
   64
  3
                                
 72
   65
 73
    0
 40
0
  0
LTYPE
  2
__25
 70
   64
  3
                                
 72
   65
 73
    0
 40
0
  0
LTYPE
  2
__26
 70
   64
  3
                                
 72
   65
 73
    0
 40
0
  0
LTYPE
  2
__27
 70
   64
  3
                                
 72
   65
 73
    0
 40
0
  0
LTYPE
  2
__28
 70
   64
  3
                                
 72
   65
 73
    0
 40
0
  0
LTYPE
  2
__29
 70
   64
  3
                                
 72
   65
 73
    0
 40
0
  0
LTYPE
  2
__30
 70
   64
  3
                                
 72
   65
 73
    0
 40
0
  0
LTYPE
  2
__31
 70
   64
  3
                                
 72
   65
 73
    0
 40
0
  0
LTYPE
  2
__32
 70
   64
  3
                                
 72
   65
 73
    0
 40
0
  0
ENDTAB
  0
TABLE
  2
STYLE
  5
3
100
AcDbSymbolTable
 70
     1
  0
STYLE
  5
10
100
AcDbSymbolTableRecord
100
AcDbTextStyleTableRecord
  2
STANDARD
 70
     0
 40
0.0
 41
1.0
 50
0.0
 71
     0
 42
0.2
  3
txt
  4
bigfont.shx
  0
STYLE
  5
26
100
AcDbSymbolTableRecord
100
AcDbTextStyleTableRecord
  2
TATEGAKI
 70
    68
 40
0.0
 41
1.0
 50
0.0
 71
     0
 42
1.0
  3
txt
  4
bigfont.shx
  0
ENDTAB
  0
TABLE
  2
LAYER
 70
    2
  0
LAYER
  2
_0-0_通り芯
 70
   64
 62
    7
  6
CONTINUOUS
  0
LAYER
  2
ADD_LINE
 70
   64
 62
    7
  6
CONTINUOUS
  0
ENDTAB
  0
ENDSEC
  0
SECTION
  2
BLOCKS
  0
ENDSEC
  0
SECTION
  2
ENTITIES
  0
TEXT
  8
_0-0_通り芯
 62
    7
 10
1798.3116665944576
 20
2670.6530068979446
 40
50
 41
1
 50
-0.0000638000000131
  1
側 面 図
  0
TEXT
  8
_0-0_通り芯
 62
    7
 10
2624.4463665944577
 20
2676.5852068979443
 40
50
 41
1
 50
-0.0000637999999723
  1
断 面 図
  0
TEXT
  8
_0-0_通り芯
 62
    7
 10
3478.8955360101045
 20
2364.4256383976699
 40
30
 41
1
 50
0
  1
2000
  0
LINE
  8
_0-0_通り芯
  6
CONTINUOUS
 62
    7
 10
1516.5372499999999
 20
966.70720000000006
 11
1516.5372499999999
 21
3116.7069000000001
  0
LINE
  8
_0-0_通り芯
  6
CONTINUOUS
 62
    7
 10
1516.5372499999999
 20
3116.7069000000001
 11
4716.5367999999999
 21
3116.7069000000001
  0
LINE
  8
_0-0_通り芯
  6
CONTINUOUS
 62
    7
 10
4716.5367999999999
 20
3116.7069000000001
 11
4716.5367999999999
 21
966.70720000000006
  0
LINE
  8
_0-0_通り芯
  6
CONTINUOUS
 62
    7
 10
4716.5367999999999
 20
966.70720000000006
 11
1516.5372499999999
 21
966.70720000000006
  0
LINE
  8
_0-0_通り芯
  6
CONTINUOUS
 62
    7
 10
4716.5367999999999
 20
1066.7071599999999
 11
1516.5372499999999
 21
1066.7071599999999
  0
LINE
  8
_0-0_通り芯
  6
CONTINUOUS
 62
    7
 10
3816.5365000000002
 20
966.70720000000006
 11
3816.5365000000002
 21
1066.7071599999999
  0
LINE
  8
_0-0_通り芯
  6
CONTINUOUS
 62
    7
 10
2636.5369000000001
 20
966.70720000000006
 11
2636.5369000000001
 21
1066.7071599999999
  0
LINE
  8
_0-0_通り芯
  6
CONTINUOUS
 62
    7
 10
3586.5365000000002
 20
966.70720000000006
 11
3586.5365000000002
 21
1066.7071599999999
  0
LINE
  8
_0-0_通り芯
  6
CONTINUOUS
 62
    7
 10
3356.5365000000002
 20
966.70720000000006
 11
3356.5365000000002
 21
1066.7071599999999
  0
LINE
  8
_0-0_通り芯
  6
CONTINUOUS
 62
    7
 10
3186.5364
 20
966.70720000000006
 11
3186.5364
 21
1066.7071599999999
  0
LINE
  8
_0-0_通り芯
  6
CONTINUOUS
 62
    7
 10
3016.5365000000002
 20
966.70720000000006
 11
3016.5365000000002
 21
1066.7071599999999
  0
LINE
  8
_0-0_通り芯
  6
CONTINUOUS
 62
    7
 10
1686.5370699999999
 20
966.70720000000006
 11
1686.5370699999999
 21
1066.7071599999999
  0
LINE
  8
_0-0_通り芯
  6
CONTINUOUS
 62
    7
 10
2528.8006
 20
1910.5501999999999
 11
4528.8006000000005
 21
1910.5501999999999
  0
LINE
  8
_0-0_通り芯
  6
CONTINUOUS
 62
    7
 10
2139.4784999999997
 20
2210.5501999999997
 11
1999.4786999999999
 21
2210.5501999999997
  0
LINE
  8
_0-0_通り芯
  6
CONTINUOUS
 62
    7
 10
1919.4786999999999
 20
2130.5501999999997
 11
1919.4786999999999
 21
2103.1992
  0
LINE
  8
_0-0_通り芯
  6
CONTINUOUS
 62
    7
 10
2219.4784999999997
 20
2130.5501999999997
 11
2219.4784999999997
 21
2103.1992
  0
ARC
  8
_0-0_通り芯
  6
CONTINUOUS
 62
    7
 10
1999.4786999999999
 20
2130.5501999999997
 40
80
 50
90
 51
180
  0
ARC
  8
_0-0_通り芯
  6
CONTINUOUS
 62
    7
 10
2139.4784999999997
 20
2130.5501999999997
 40
80
 50
0
 51
90
  0
ARC
  8
_0-0_通り芯
  6
CONTINUOUS
 62
    7
 10
2117.3779999999997
 20
2102.2837999999997
 40
197.28898000000001
 50
179.84607000000003
 51
255.85775000000001
  0
ARC
  8
_0-0_通り芯
  6
CONTINUOUS
 62
    7
 10
2021.5793000000003
 20
2102.2837999999997
 40
197.28898000000001
 50
284.14224000000002
 51
0.1539250000000399
  0
LINE
  8
_0-0_通り芯
  6
CONTINUOUS
 62
    7
 10
1829.4786899999999
 20
2365.6998000000003
 11
1919.4785999999999
 21
2365.6998000000003
  0
POINT
  8
_0-0_通り芯
 62
    7
 10
1829.4786899999999
 20
2365.6998000000003
  0
POINT
  8
_0-0_通り芯
 62
    7
 10
1919.4785999999999
 20
2365.6998000000003
  0
LINE
  8
_0-0_通り芯
  6
CONTINUOUS
 62
    7
 10
1829.4786899999999
 20
2365.6998000000003
 11
1829.4786899999999
 21
2312.8946000000001
  0
LINE
  8
_0-0_通り芯
  6
CONTINUOUS
 62
    7
 10
1919.4785999999999
 20
2365.6998000000003
 11
1919.4785999999999
 21
2312.8946000000001
  0
LINE
  8
_0-0_通り芯
  6
CONTINUOUS
 62
    7
 10
1919.4785999999999
 20
2365.6998000000003
 11
2219.4785999999999
 21
2365.6998000000003
  0
POINT
  8
_0-0_通り芯
 62
    7
 10
2219.4785999999999
 20
2365.6998000000003
  0
LINE
  8
_0-0_通り芯
  6
CONTINUOUS
 62
    7
 10
2219.4785999999999
 20
2365.6998000000003
 11
2219.4785999999999
 21
2312.8946000000001
  0
LINE
  8
_0-0_通り芯
  6
CONTINUOUS
 62
    7
 10
2219.4785999999999
 20
2365.6998000000003
 11
2309.4785999999999
 21
2365.6998000000003
  0
POINT
  8
_0-0_通り芯
 62
    7
 10
2309.4785999999999
 20
2365.6998000000003
  0
LINE
  8
_0-0_通り芯
  6
CONTINUOUS
 62
    7
 10
2309.4785999999999
 20
2365.6998000000003
 11
2309.4785999999999
 21
2312.8946000000001
  0
LINE
  8
_0-0_通り芯
  6
CONTINUOUS
 62
    7
 10
1829.4786899999999
 20
1754.6242999999999
 11
2309.4785999999999
 21
1754.6242999999999
  0
POINT
  8
_0-0_通り芯
 62
    7
 10
1829.4786899999999
 20
1754.6242999999999
  0
POINT
  8
_0-0_通り芯
 62
    7
 10
2309.4785999999999
 20
1754.6242999999999
  0
LINE
  8
_0-0_通り芯
  6
CONTINUOUS
 62
    7
 10
1829.4786899999999
 20
1754.6242999999999
 11
1829.4786899999999
 21
1802.6766
  0
LINE
  8
_0-0_通り芯
  6
CONTINUOUS
 62
    7
 10
2309.4785999999999
 20
1754.6242999999999
 11
2309.4785999999999
 21
1802.6766
  0
LINE
  8
_0-0_通り芯
  6
CONTINUOUS
 62
    7
 10
1839.4786899999999
 20
2300.5501999999997
 11
1829.4786899999999
 21
2290.5501999999997
  0
LINE
  8
_0-0_通り芯
  6
CONTINUOUS
 62
    7
 10
2299.4785999999999
 20
2300.5501999999997
 11
1839.4786899999999
 21
2300.5501999999997
  0
LINE
  8
_0-0_通り芯
  6
CONTINUOUS
 62
    7
 10
2299.4785999999999
 20
2300.5501999999997
 11
2309.4785999999999
 21
2290.5501999999997
  0
LINE
  8
_0-0_通り芯
  6
CONTINUOUS
 62
    7
 10
2309.4785999999999
 20
1830.5501999999999
 11
2309.4785999999999
 21
2290.5501999999997
  0
LINE
  8
_0-0_通り芯
  6
CONTINUOUS
 62
    7
 10
2309.4785999999999
 20
1830.5501999999999
 11
2299.4785999999999
 21
1820.5501999999999
  0
LINE
  8
_0-0_通り芯
  6
CONTINUOUS
 62
    7
 10
1829.4786899999999
 20
1830.5501999999999
 11
1829.4786899999999
 21
2290.5501999999997
  0
LINE
  8
_0-0_通り芯
  6
CONTINUOUS
 62
    7
 10
1839.4786899999999
 20
1820.5501999999999
 11
2299.4785999999999
 21
1820.5501999999999
  0
LINE
  8
_0-0_通り芯
  6
CONTINUOUS
 62
    7
 10
1829.4786899999999
 20
1830.5501999999999
 11
1839.4786899999999
 21
1820.5501999999999
  0
LINE
  8
_0-0_通り芯
  6
CONTINUOUS
 62
    7
 10
1829.4786899999999
 20
2080.5501999999997
 11
1869.4786899999999
 21
2080.5501999999997
  0
LINE
  8
_0-0_通り芯
  6
CONTINUOUS
 62
    7
 10
1869.4786899999999
 20
2040.5501999999999
 11
1869.4786899999999
 21
2080.5501999999997
  0
LINE
  8
_0-0_通り芯
  6
CONTINUOUS
 62
    7
 10
1829.4786899999999
 20
2040.5501999999999
 11
1869.4786899999999
 21
2040.5501999999999
  0
LINE
  8
_0-0_通り芯
  6
CONTINUOUS
 62
    7
 10
2269.4785999999999
 20
2080.5501999999997
 11
2309.4785999999999
 21
2080.5501999999997
  0
LINE
  8
_0-0_通り芯
  6
CONTINUOUS
 62
    7
 10
2269.4785999999999
 20
2040.5501999999999
 11
2269.4785999999999
 21
2080.5501999999997
  0
LINE
  8
_0-0_通り芯
  6
CONTINUOUS
 62
    7
 10
2269.4785999999999
 20
2040.5501999999999
 11
2309.4785999999999
 21
2040.5501999999999
  0
LINE
  8
_0-0_通り芯
  6
CONTINUOUS
 62
    7
 10
2281.9928
 20
2054.0248000000001
 11
2282.5479999999998
 21
2053.3489
  0
LINE
  8
_0-0_通り芯
  6
CONTINUOUS
 62
    7
 10
2282.5479999999998
 20
2053.3489
 11
2283.3137999999999
 21
2052.8918000000003
  0
LINE
  8
_0-0_通り芯
  6
CONTINUOUS
 62
    7
 10
2283.3137999999999
 20
2052.8918000000003
 11
2284.2669000000001
 21
2052.6675
  0
LINE
  8
_0-0_通り芯
  6
CONTINUOUS
 62
    7
 10
2284.2669000000001
 20
2052.6675
 11
2285.3784000000001
 21
2052.6826000000001
  0
LINE
  8
_0-0_通り芯
  6
CONTINUOUS
 62
    7
 10
2285.3784000000001
 20
2052.6826000000001
 11
2286.6143999999999
 21
2052.9367999999999
  0
LINE
  8
_0-0_通り芯
  6
CONTINUOUS
 62
    7
 10
2286.6143999999999
 20
2052.9367999999999
 11
2287.9375
 21
2053.4223000000002
  0
LINE
  8
_0-0_通り芯
  6
CONTINUOUS
 62
    7
 10
2287.9375
 20
2053.4223000000002
 11
2289.3073999999997
 21
2054.1244000000002
  0
LINE
  8
_0-0_通り芯
  6
CONTINUOUS
 62
    7
 10
2289.3073999999997
 20
2054.1244000000002
 11
2290.6824999999999
 21
2055.0217000000002
  0
LINE
  8
_0-0_通り芯
  6
CONTINUOUS
 62
    7
 10
2290.6824999999999
 20
2055.0217000000002
 11
2292.0210000000002
 21
2056.087
  0
LINE
  8
_0-0_通り芯
  6
CONTINUOUS
 62
    7
 10
2292.0210000000002
 20
2056.087
 11
2293.2822000000001
 21
2057.2879000000003
  0
LINE
  8
_0-0_通り芯
  6
CONTINUOUS
 62
    7
 10
2293.2822000000001
 20
2057.2879000000003
 11
2294.4279000000001
 21
2058.5880000000002
  0
LINE
  8
_0-0_通り芯
  6
CONTINUOUS
 62
    7
 10
2294.4279000000001
 20
2058.5880000000002
 11
2295.4231999999997
 21
2059.9476
  0
LINE
  8
_0-0_通り芯
  6
CONTINUOUS
 62
    7
 10
2295.4231999999997
 20
2059.9476
 11
2296.2379000000001
 21
2061.3255999999997
  0
LINE
  8
_0-0_通り芯
  6
CONTINUOUS
 62
    7
 10
2296.2379000000001
 20
2061.3255999999997
 11
2296.8472000000002
 21
2062.6799999999998
  0
LINE
  8
_0-0_通り芯
  6
CONTINUOUS
 62
    7
 10
2296.8472000000002
 20
2062.6799999999998
 11
2297.2326000000003
 21
2063.9697000000001
  0
LINE
  8
_0-0_通り芯
  6
CONTINUOUS
 62
    7
 10
2297.2326000000003
 20
2063.9697000000001
 11
2297.3824
 21
2065.1555000000003
  0
LINE
  8
_0-0_通り芯
  6
CONTINUOUS
 62
    7
 10
2297.3824
 20
2065.1555000000003
 11
2297.2921000000001
 21
2066.2013999999999
  0
LINE
  8
_0-0_通り芯
  6
CONTINUOUS
 62
    7
 10
2297.2921000000001
 20
2066.2013999999999
 11
2296.9643000000001
 21
2067.0754999999999
  0
LINE
  8
_0-0_通り芯
  6
CONTINUOUS
 62
    7
 10
2296.9643000000001
 20
2067.0754999999999
 11
2296.4091000000003
 21
2067.7514000000001
  0
LINE
  8
_0-0_通り芯
  6
CONTINUOUS
 62
    7
 10
2296.4091000000003
 20
2067.7514000000001
 11
2295.6432999999997
 21
2068.2085000000002
  0
LINE
  8
_0-0_通り芯
  6
CONTINUOUS
 62
    7
 10
2295.6432999999997
 20
2068.2085000000002
 11
2294.6902
 21
2068.4328999999998
  0
LINE
  8
_0-0_通り芯
  6
CONTINUOUS
 62
    7
 10
2294.6902
 20
2068.4328999999998
 11
2293.5787
 21
2068.4177
  0
LINE
  8
_0-0_通り芯
  6
CONTINUOUS
 62
    7
 10
2293.5787
 20
2068.4177
 11
2292.3426999999997
 21
2068.1635999999999
  0
LINE
  8
_0-0_通り芯
  6
CONTINUOUS
 62
    7
 10
2292.3426999999997
 20
2068.1635999999999
 11
2291.0196000000001
 21
2067.6780000000003
  0
LINE
  8
_0-0_通り芯
  6
CONTINUOUS
 62
    7
 10
2291.0196000000001
 20
2067.6780000000003
 11
2289.6498000000001
 21
2066.9760000000001
  0
LINE
  8
_0-0_通り芯
  6
CONTINUOUS
 62
    7
 10
2289.6498000000001
 20
2066.9760000000001
 11
2288.2746999999999
 21
2066.0786000000003
  0
LINE
  8
_0-0_通り芯
  6
CONTINUOUS
 62
    7
 10
2288.2746999999999
 20
2066.0786000000003
 11
2286.9362000000001
 21
2065.0133000000001
  0
LINE
  8
_0-0_通り芯
  6
CONTINUOUS
 62
    7
 10
2286.9362000000001
 20
2065.0133000000001
 11
2285.6749
 21
2063.8123999999998
  0
LINE
  8
_0-0_通り芯
  6
CONTINUOUS
 62
    7
 10
2285.6749
 20
2063.8123999999998
 11
2284.5291999999999
 21
2062.5123000000003
  0
LINE
  8
_0-0_通り芯
  6
CONTINUOUS
 62
    7
 10
2284.5291999999999
 20
2062.5123000000003
 11
2283.5338999999999
 21
2061.1527000000001
  0
LINE
  8
_0-0_通り芯
  6
CONTINUOUS
 62
    7
 10
2283.5338999999999
 20
2061.1527000000001
 11
2282.7192
 21
2059.7746999999999
  0
LINE
  8
_0-0_通り芯
  6
CONTINUOUS
 62
    7
 10
2282.7192
 20
2059.7746999999999
 11
2282.1098999999999
 21
2058.4202999999998
  0
LINE
  8
_0-0_通り芯
  6
CONTINUOUS
 62
    7
 10
2282.1098999999999
 20
2058.4202999999998
 11
2281.7244999999998
 21
2057.1306
  0
LINE
  8
_0-0_通り芯
  6
CONTINUOUS
 62
    7
 10
2281.7244999999998
 20
2057.1306
 11
2281.5747000000001
 21
2055.9448000000002
  0
LINE
  8
_0-0_通り芯
  6
CONTINUOUS
 62
    7
 10
2281.5747000000001
 20
2055.9448000000002
 11
2281.6650999999997
 21
2054.8989999999999
  0
LINE
  8
_0-0_通り芯
  6
CONTINUOUS
 62
    7
 10
2281.6650999999997
 20
2054.8989999999999
 11
2281.9928
 21
2054.0248000000001
  0
LINE
  8
_0-0_通り芯
  6
CONTINUOUS
 62
    7
 10
1856.5497599999999
 20
2053.4791
 11
1857.0562799999998
 21
2054.2004999999999
  0
LINE
  8
_0-0_通り芯
  6
CONTINUOUS
 62
    7
 10
1857.0562799999998
 20
2054.2004999999999
 11
1857.3325500000001
 21
2055.1148000000003
  0
LINE
  8
_0-0_通り芯
  6
CONTINUOUS
 62
    7
 10
1857.3325500000001
 20
2055.1148000000003
 11
1857.3701900000001
 21
2056.1941999999999
  0
LINE
  8
_0-0_通り芯
  6
CONTINUOUS
 62
    7
 10
1857.3701900000001
 20
2056.1941999999999
 11
1857.16804
 21
2057.4059999999999
  0
LINE
  8
_0-0_通り芯
  6
CONTINUOUS
 62
    7
 10
1857.16804
 20
2057.4059999999999
 11
1856.73227
 21
2058.7132999999999
  0
LINE
  8
_0-0_通り芯
  6
CONTINUOUS
 62
    7
 10
1856.73227
 20
2058.7132999999999
 11
1856.07609
 21
2060.0764999999997
  0
LINE
  8
_0-0_通り芯
  6
CONTINUOUS
 62
    7
 10
1856.07609
 20
2060.0764999999997
 11
1855.2194600000003
 21
2061.4539999999997
  0
LINE
  8
_0-0_通り芯
  6
CONTINUOUS
 62
    7
 10
1855.2194600000003
 20
2061.4539999999997
 11
1854.1883899999998
 21
2062.8041000000003
  0
LINE
  8
_0-0_通り芯
  6
CONTINUOUS
 62
    7
 10
1854.1883899999998
 20
2062.8041000000003
 11
1853.01423
 21
2064.0857000000001
  0
LINE
  8
_0-0_通り芯
  6
CONTINUOUS
 62
    7
 10
1853.01423
 20
2064.0857000000001
 11
1851.7326399999999
 21
2065.2599
  0
LINE
  8
_0-0_通り芯
  6
CONTINUOUS
 62
    7
 10
1851.7326399999999
 20
2065.2599
 11
1850.38256
 21
2066.2909
  0
LINE
  8
_0-0_通り芯
  6
CONTINUOUS
 62
    7
 10
1850.38256
 20
2066.2909
 11
1849.0050200000001
 21
2067.1476000000002
  0
LINE
  8
_0-0_通り芯
  6
CONTINUOUS
 62
    7
 10
1849.0050200000001
 20
2067.1476000000002
 11
1847.6418800000001
 21
2067.8036999999999
  0
LINE
  8
_0-0_通り芯
  6
CONTINUOUS
 62
    7
 10
1847.6418800000001
 20
2067.8036999999999
 11
1846.3345399999998
 21
2068.2395000000001
  0
LINE
  8
_0-0_通り芯
  6
CONTINUOUS
 62
    7
 10
1846.3345399999998
 20
2068.2395000000001
 11
1845.1227399999998
 21
2068.4417000000003
  0
LINE
  8
_0-0_通り芯
  6
CONTINUOUS
 62
    7
 10
1845.1227399999998
 20
2068.4417000000003
 11
1844.0432900000001
 21
2068.404
  0
LINE
  8
_0-0_通り芯
  6
CONTINUOUS
 62
    7
 10
1844.0432900000001
 20
2068.404
 11
1843.1289900000002
 21
2068.1277
  0
LINE
  8
_0-0_通り芯
  6
CONTINUOUS
 62
    7
 10
1843.1289900000002
 20
2068.1277
 11
1842.4076300000002
 21
2067.6212
  0
LINE
  8
_0-0_通り芯
  6
CONTINUOUS
 62
    7
 10
1842.4076300000002
 20
2067.6212
 11
1841.90111
 21
2066.8998999999999
  0
LINE
  8
_0-0_通り芯
  6
CONTINUOUS
 62
    7
 10
1841.90111
 20
2066.8998999999999
 11
1841.6248399999999
 21
2065.9856
  0
LINE
  8
_0-0_通り芯
  6
CONTINUOUS
 62
    7
 10
1841.6248399999999
 20
2065.9856
 11
1841.5871999999999
 21
2064.9061000000002
  0
LINE
  8
_0-0_通り芯
  6
CONTINUOUS
 62
    7
 10
1841.5871999999999
 20
2064.9061000000002
 11
1841.78934
 21
2063.6943000000001
  0
LINE
  8
_0-0_通り芯
  6
CONTINUOUS
 62
    7
 10
1841.78934
 20
2063.6943000000001
 11
1842.2251200000001
 21
2062.3869999999997
  0
LINE
  8
_0-0_通り芯
  6
CONTINUOUS
 62
    7
 10
1842.2251200000001
 20
2062.3869999999997
 11
1842.8813
 21
2061.0237999999999
  0
LINE
  8
_0-0_通り芯
  6
CONTINUOUS
 62
    7
 10
1842.8813
 20
2061.0237999999999
 11
1843.73793
 21
2059.6462999999999
  0
LINE
  8
_0-0_通り芯
  6
CONTINUOUS
 62
    7
 10
1843.73793
 20
2059.6462999999999
 11
1844.769
 21
2058.2962000000002
  0
LINE
  8
_0-0_通り芯
  6
CONTINUOUS
 62
    7
 10
1844.769
 20
2058.2962000000002
 11
1845.9431599999998
 21
2057.0146
  0
LINE
  8
_0-0_通り芯
  6
CONTINUOUS
 62
    7
 10
1845.9431599999998
 20
2057.0146
 11
1847.2247499999999
 21
2055.8404999999998
  0
LINE
  8
_0-0_通り芯
  6
CONTINUOUS
 62
    7
 10
1847.2247499999999
 20
2055.8404999999998
 11
1848.57483
 21
2054.8094000000001
  0
LINE
  8
_0-0_通り芯
  6
CONTINUOUS
 62
    7
 10
1848.57483
 20
2054.8094000000001
 11
1849.95237
 21
2053.9528
  0
LINE
  8
_0-0_通り芯
  6
CONTINUOUS
 62
    7
 10
1849.95237
 20
2053.9528
 11
1851.3155099999999
 21
2053.2965999999997
  0
LINE
  8
_0-0_通り芯
  6
CONTINUOUS
 62
    7
 10
1851.3155099999999
 20
2053.2965999999997
 11
1852.62285
 21
2052.8607999999999
  0
LINE
  8
_0-0_通り芯
  6
CONTINUOUS
 62
    7
 10
1852.62285
 20
2052.8607999999999
 11
1853.83465
 21
2052.6587
  0
LINE
  8
_0-0_通り芯
  6
CONTINUOUS
 62
    7
 10
1853.83465
 20
2052.6587
 11
1854.9141
 21
2052.6963000000001
  0
LINE
  8
_0-0_通り芯
  6
CONTINUOUS
 62
    7
 10
1854.9141
 20
2052.6963000000001
 11
1855.8283999999999
 21
2052.9726000000001
  0
LINE
  8
_0-0_通り芯
  6
CONTINUOUS
 62
    7
 10
1855.8283999999999
 20
2052.9726000000001
 11
1856.5497599999999
 21
2053.4791
  0
LINE
  8
_0-0_通り芯
  6
CONTINUOUS
 62
    7
 10
2528.8006
 20
2210.5501999999997
 11
4528.8006000000005
 21
2210.5501999999997
  0
LINE
  8
_0-0_通り芯
  6
CONTINUOUS
 62
    7
 10
2538.8006
 20
2300.5501999999997
 11
2528.8006
 21
2290.5501999999997
  0
LINE
  8
_0-0_通り芯
  6
CONTINUOUS
 62
    7
 10
2528.8006
 20
1830.5501999999999
 11
2528.8006
 21
2290.5501999999997
  0
LINE
  8
_0-0_通り芯
  6
CONTINUOUS
 62
    7
 10
2528.8006
 20
1830.5501999999999
 11
2538.8006
 21
1820.5501999999999
  0
LINE
  8
_0-0_通り芯
  6
CONTINUOUS
 62
    7
 10
4518.8006000000005
 20
2300.5501999999997
 11
2538.8006
 21
2300.5501999999997
  0
LINE
  8
_0-0_通り芯
  6
CONTINUOUS
 62
    7
 10
4518.8006000000005
 20
2300.5501999999997
 11
4528.8006000000005
 21
2290.5501999999997
  0
LINE
  8
_0-0_通り芯
  6
CONTINUOUS
 62
    7
 10
4528.8006000000005
 20
1830.5501999999999
 11
4528.8006000000005
 21
2290.5501999999997
  0
LINE
  8
_0-0_通り芯
  6
CONTINUOUS
 62
    7
 10
4518.8006000000005
 20
1820.5501999999999
 11
2538.8006
 21
1820.5501999999999
  0
LINE
  8
_0-0_通り芯
  6
CONTINUOUS
 62
    7
 10
4528.8006000000005
 20
1830.5501999999999
 11
4518.8006000000005
 21
1820.5501999999999
  0
LINE
  8
_0-0_通り芯
  6
CONTINUOUS
 62
    7
 10
2533.8006
 20
2045.5501999999999
 11
2533.8006
 21
2075.5501999999997
  0
LINE
  8
_0-0_通り芯
  6
CONTINUOUS
 62
    7
 10
2553.8006
 20
2040.5501999999999
 11
2553.8006
 21
2045.5501999999999
  0
LINE
  8
_0-0_通り芯
  6
CONTINUOUS
 62
    7
 10
2553.8006
 20
2075.5501999999997
 11
2553.8006
 21
2080.5501999999997
  0
LINE
  8
_0-0_通り芯
  6
CONTINUOUS
 62
    7
 10
2528.8006
 20
2080.5501999999997
 11
2553.8006
 21
2080.5501999999997
  0
LINE
  8
_0-0_通り芯
  6
CONTINUOUS
 62
    7
 10
2533.8006
 20
2075.5501999999997
 11
2553.8006
 21
2075.5501999999997
  0
LINE
  8
_0-0_通り芯
  6
CONTINUOUS
 62
    7
 10
2533.8006
 20
2045.5501999999999
 11
2553.8006
 21
2045.5501999999999
  0
LINE
  8
_0-0_通り芯
  6
CONTINUOUS
 62
    7
 10
2528.8006
 20
2040.5501999999999
 11
2553.8006
 21
2040.5501999999999
  0
ARC
  8
_0-0_通り芯
  6
CONTINUOUS
 62
    7
 10
2548.8006
 20
2060.5501999999997
 40
16.621789
 50
287.50625000000008
 51
71.565051000000025
  0
LINE
  8
_0-0_通り芯
  6
CONTINUOUS
 62
    7
 10
4523.8006000000005
 20
2075.5501999999997
 11
4523.8006000000005
 21
2045.5501999999999
  0
LINE
  8
_0-0_通り芯
  6
CONTINUOUS
 62
    7
 10
4503.8006000000005
 20
2080.5501999999997
 11
4503.8006000000005
 21
2075.5501999999997
  0
LINE
  8
_0-0_通り芯
  6
CONTINUOUS
 62
    7
 10
4503.8006000000005
 20
2045.5501999999999
 11
4503.8006000000005
 21
2040.5501999999999
  0
LINE
  8
_0-0_通り芯
  6
CONTINUOUS
 62
    7
 10
4528.8006000000005
 20
2040.5501999999999
 11
4503.8006000000005
 21
2040.5501999999999
  0
LINE
  8
_0-0_通り芯
  6
CONTINUOUS
 62
    7
 10
4523.8006000000005
 20
2045.5501999999999
 11
4503.8006000000005
 21
2045.5501999999999
  0
LINE
  8
_0-0_通り芯
  6
CONTINUOUS
 62
    7
 10
4523.8006000000005
 20
2075.5501999999997
 11
4503.8006000000005
 21
2075.5501999999997
  0
LINE
  8
_0-0_通り芯
  6
CONTINUOUS
 62
    7
 10
4528.8006000000005
 20
2080.5501999999997
 11
4503.8006000000005
 21
2080.5501999999997
  0
ARC
  8
_0-0_通り芯
  6
CONTINUOUS
 62
    7
 10
4508.8006000000005
 20
2060.5501999999997
 40
16.621789
 50
107.50624999999999
 51
251.56504999999999
  0
LINE
  8
_0-0_通り芯
  6
CONTINUOUS
 62
    7
 10
2528.8006
 20
2365.6998000000003
 11
4528.8006000000005
 21
2365.6998000000003
  0
POINT
  8
_0-0_通り芯
 62
    7
 10
2528.8006
 20
2365.6998000000003
  0
POINT
  8
_0-0_通り芯
 62
    7
 10
4528.8006000000005
 20
2365.6998000000003
  0
LINE
  8
_0-0_通り芯
  6
CONTINUOUS
 62
    7
 10
2528.8006
 20
2365.6998000000003
 11
2528.8006
 21
2312.8946000000001
  0
LINE
  8
_0-0_通り芯
  6
CONTINUOUS
 62
    7
 10
4528.8006000000005
 20
2365.6998000000003
 11
4528.8006000000005
 21
2312.8946000000001
  0
LINE
  8
_0-0_通り芯
  6
CONTINUOUS
 62
    7
 10
2486.5367999999999
 20
966.70720000000006
 11
2486.5367999999999
 21
1066.7071599999999
  0
CIRCLE
  8
_0-0_通り芯
  6
CONTINUOUS
 62
    7
 10
3528.8006
 20
2060.5501999999997
 40
10
  0
LINE
  8
_0-0_通り芯
  6
CONTINUOUS
 62
    7
 10
2385.5081738531435
 20
2300.5501999999997
 11
2385.5081738531435
 21
2210.5501999999997
  0
POINT
  8
_0-0_通り芯
 62
    7
 10
2385.5081738531435
 20
2300.5501999999997
  0
POINT
  8
_0-0_通り芯
 62
    7
 10
2385.5081738531435
 20
2210.5501999999997
  0
LINE
  8
_0-0_通り芯
  6
CONTINUOUS
 62
    7
 10
2385.5081738531435
 20
2300.5501999999997
 11
2313.184532325432
 21
2300.5501999999997
  0
LINE
  8
_0-0_通り芯
  6
CONTINUOUS
 62
    7
 10
2385.5081738531435
 20
2210.5501999999997
 11
2313.184532325432
 21
2210.5501999999997
  0
LINE
  8
_0-0_通り芯
  6
CONTINUOUS
 62
    7
 10
2385.5081738531435
 20
2210.5501999999997
 11
2385.5081738531435
 21
1910.9742243875987
  0
POINT
  8
_0-0_通り芯
 62
    7
 10
2385.5081738531435
 20
1910.9742243875987
  0
LINE
  8
_0-0_通り芯
  6
CONTINUOUS
 62
    7
 10
2385.5081738531435
 20
1910.9742243875987
 11
2313.184532325432
 21
1910.9742243875987
  0
LINE
  8
_0-0_通り芯
  6
CONTINUOUS
 62
    7
 10
2385.5081738531435
 20
1910.9742243875987
 11
2385.5081738531435
 21
1820.5501999999999
  0
POINT
  8
_0-0_通り芯
 62
    7
 10
2385.5081738531435
 20
1820.5501999999999
  0
LINE
  8
_0-0_通り芯
  6
CONTINUOUS
 62
    7
 10
2385.5081738531435
 20
1820.5501999999999
 11
2313.184532325432
 21
1820.5501999999999
  0
LINE
  8
_0-0_通り芯
  6
CONTINUOUS
 62
    7
 10
4591.2888819221798
 20
2300.5501999999997
 11
4591.2888819221798
 21
1820.5501999999999
  0
POINT
  8
_0-0_通り芯
 62
    7
 10
4591.2888819221798
 20
2300.5501999999997
  0
POINT
  8
_0-0_通り芯
 62
    7
 10
4591.2888819221798
 20
1820.5501999999999
  0
LINE
  8
_0-0_通り芯
  6
CONTINUOUS
 62
    7
 10
4591.2888819221798
 20
2300.5501999999997
 11
4549.6055461421402
 21
2300.5501999999997
  0
LINE
  8
_0-0_通り芯
  6
CONTINUOUS
 62
    7
 10
4591.2888819221798
 20
1820.5501999999999
 11
4549.6055461421402
 21
1820.5501999999999
  0
LINE
  8
_0-0_通り芯
  6
CONTINUOUS
 62
    7
 10
1829.4786899999999
 20
1830.5501999999999
 11
2309.4785999999999
 21
1830.5501999999999
  0
LINE
  8
_0-0_通り芯
  6
CONTINUOUS
 62
    7
 10
2528.8006
 20
1830.5501999999999
 11
4528.8006000000005
 21
1830.5501999999999
  0
TEXT
  8
_0-0_通り芯
 62
    7
 10
1857.2628641059407
 20
2367.0836667519216
 40
30
 41
1
 50
0
  1
100
  0
TEXT
  8
_0-0_通り芯
 62
    7
 10
2248.4517450838753
 20
2367.0836667519216
 40
30
 41
1
 50
0
  1
100
  0
TEXT
  8
_0-0_通り芯
 62
    7
 10
2417.4826117436887
 20
2235.7231790251053
 40
30
 41
1
 50
90
  1
100
  0
TEXT
  8
_0-0_通り芯
 62
    7
 10
2420.1013219807287
 20
1843.7895468814695
 40
30
 41
1
 50
90
  1
100
  0
TEXT
  8
_0-0_通り芯
 62
    7
 10
2044.1973980694422
 20
2366.4864318191308
 40
30
 41
1
 50
0
  1
400
  0
TEXT
  8
_0-0_通り芯
 62
    7
 10
2414.8639015066487
 20
2046.3031385458874
 40
30
 41
1
 50
90
  1
400
  0
TEXT
  8
_0-0_通り芯
 62
    7
 10
2046.5114378604317
 20
1724.1248990079857
 40
30
 41
1
 50
0
  1
600
  0
TEXT
  8
_0-0_通り芯
 62
    7
 10
4632.4515048563298
 20
2042.7221651721766
 40
30
 41
1
 50
90
  1
600
  0
TEXT
  8
_0-0_通り芯
 62
    7
 10
1534.7874440685005
 20
993.11890871589276
 40
40
 41
1
 50
0
  1
名　称
  0
TEXT
  8
_0-0_通り芯
 62
    7
 10
1792.8759811682671
 20
989.66456883119213
 40
40
 41
1
 50
0
  1
掃流ボックスカルバート　400
  0
TEXT
  8
_0-0_通り芯
 62
    7
 10
2495.2581669691472
 20
989.57395644283122
 40
40
 41
1
 50
0
  1
分　類
  0
TEXT
  8
_0-0_通り芯
 62
    7
 10
2664.2914587114337
 20
990.82605490018159
 40
40
 41
1
 50
0
  1
横断用暗渠側溝
  0
TEXT
  8
_0-0_通り芯
 62
    7
 10
3035.9207204418926
 20
986.82431018092075
 40
40
 41
1
 50
0
  1
図　番
  0
TEXT
  8
_0-0_通り芯
 62
    7
 10
3381.2964275616723
 20
993.46615070245502
 40
40
 41
1
 50
0
  1
参考重量
  0
TEXT
  8
_0-0_通り芯
 62
    7
 10
3632.0259072495896
 20
991.80569057207151
 40
40
 41
1
 50
0
  1
1135㎏
  0
TEXT
  8
_0-0_通り芯
 62
    7
 10
3920.9459699363288
 20
991.80569057207151
 40
40
 41
1
 50
0
  1
岩城ブロック工業株式会社
  0
ENDSEC
  0
EOF
