  0
SECTION
  2
HEADER
  9
$ACADVER
  1
AC1009
  9
$INSBASE
 10
0
 20
0
 30
0
  9
$EXTMIN
 10
0
 20
0
  9
$EXTMAX
 10
8400
 20
5940
  9
$LIMMIN
 10
0
 20
0
  9
$LIMMAX
 10
8400
 20
5940
  9
$LTSCALE
 40
20
  0
ENDSEC
  0
SECTION
  2
TABLES
  0
TABLE
  2
LTYPE
 70
     9
  0
LTYPE
  2
CONTINUOUS
 70
    64
  3
実線
 72
    65
 73
     0
 40
0.0
  0
LTYPE
  2
DASHED1
 70
    64
  3
--  --  --  --  --  --  --  --  
 72
    65
 73
     2
 40
2.5
 49
1.25
 49
-1.25
  0
LTYPE
  2
DASHED2
 70
    64
  3
----    ----    ----    ----    
 72
    65
 73
     2
 40
5.0
 49
2.5
 49
-2.5
  0
LTYPE
  2
DASHED3
 70
    64
  3
------  ------  ------  ------  
 72
    65
 73
     2
 40
5.0
 49
3.75
 49
-1.25
  0
LTYPE
  2
CENTER1
 70
    64
  3
----- - ----- - ----- - ----- - 
 72
    65
 73
     4
 40
10.0
 49
6.25
 49
-1.25
 49
1.25
 49
-1.25
  0
LTYPE
  2
CENTER2
 70
    64
  3
----------  --  ----------  --  
 72
    65
 73
     4
 40
20.0
 49
12.5
 49
-2.5
 49
2.5
 49
-2.5
  0
LTYPE
  2
PHANTOM1
 70
    64
  3
--- - - --- - - --- - - --- - - 
 72
    65
 73
     6
 40
10.0
 49
3.25
 49
-1.25
 49
1.25
 49
-1.25
 49
1.25
 49
-1.25
  0
LTYPE
  2
PHANTOM2
 70
    64
  3
--------  -  -  --------  -  -  
 72
    65
 73
     6
 40
20.0
 49
10.0
 49
-2.5
 49
1.25
 49
-2.5
 49
1.25
 49
-2.5
  0
LTYPE
  2
DOT
 70
    64
  3
-   -   -   -   -   -   -   -   
 72
    65
 73
     2
 40
2.5
 49
0.625
 49
-1.875
  0
LTYPE
  2
DUMMY
 70
    64
  3
ダミー
 72
    65
 73
     0
 40
0.0
  0
LTYPE
  2
RAND1
 70
    64
  3
ランダム線1
 72
    65
 73
     4
 40
10.0
 49
1.0
 49
-2.0
 49
3.0
 49
-4.0
  0
LTYPE
  2
RAND2
 70
    64
  3
ランダム線2
 72
    65
 73
     4
 40
14.0
 49
2.0
 49
-3.0
 49
4.0
 49
-5.0
  0
LTYPE
  2
RAND3
 70
    64
  3
ランダム線3
 72
    65
 73
     4
 40
18.0
 49
3.0
 49
-4.0
 49
5.0
 49
-6.0
  0
LTYPE
  2
RAND4
 70
    64
  3
ランダム線4
 72
    65
 73
     4
 40
22.0
 49
4.0
 49
-5.0
 49
6.0
 49
-7.0
  0
LTYPE
  2
RAND5
 70
    64
  3
ランダム線5
 72
    65
 73
     4
 40
26.0
 49
5.0
 49
-6.0
 49
7.0
 49
-8.0
  0
LTYPE
  2
LONG1
 70
    64
  3
----------  --  ----------  --  
 72
    65
 73
     4
 40
40.0
 49
32.5
 49
-2.5
 49
2.5
 49
-2.5
  0
LTYPE
  2
LONG2
 70
    64
  3
--------  -  -  --------  -  -  
 72
    65
 73
     6
 40
40.0
 49
30.0
 49
-2.5
 49
1.25
 49
-2.5
 49
1.25
 49
-2.5
  0
LTYPE
  2
LONG3
 70
    64
  3
+++++++++++++++..+++++++++++++++
 72
    65
 73
     2
 40
40.0
 49
37.5
 49
-2.5
  0
LTYPE
  2
LONG4
 70
    64
  3
+++++++++++++++..+++++++++++++++
 72
    65
 73
     2
 40
80.0
 49
75.0
 49
-5.0
  0
LTYPE
  2
LONG5
 70
    64
  3
----------  --  ----------  --  
 72
    65
 73
     4
 40
60.0
 49
37.5
 49
-7.5
 49
7.5
 49
-7.5
  0
LTYPE
  2
dashed
 70
   64
  3
-------   -------------   ------
 72
   65
 73
    2
 40
7.5
 49
6
 49
-1.5
  0
LTYPE
  2
dashed_spaced
 70
   64
  3
----        --------        ----
 72
   65
 73
    2
 40
12
 49
6
 49
-6
  0
LTYPE
  2
long_dashed_dotted
 70
   64
  3
------------- --- --------------
 72
   65
 73
    4
 40
15.25
 49
12
 49
-1.5
 49
0.25
 49
-1.5
  0
LTYPE
  2
long_dashed_double-dotted
 70
   64
  3
----------- --- --- ------------
 72
   65
 73
    6
 40
17
 49
12
 49
-1.5
 49
0.25
 49
-1.5
 49
0.25
 49
-1.5
  0
LTYPE
  2
long_dashed_triplicate-dotted
 70
   64
  3
--------- --- --- --- ----------
 72
   65
 73
    8
 40
18.75
 49
12
 49
-1.5
 49
0.25
 49
-1.5
 49
0.25
 49
-1.5
 49
0.25
 49
-1.5
  0
LTYPE
  2
dotted
 70
   64
  3
   -       -       -       -    
 72
   65
 73
    2
 40
1.75
 49
0.25
 49
-1.5
  0
LTYPE
  2
chain
 70
   64
  3
-------------- -- --------------
 72
   65
 73
    4
 40
18.5
 49
12
 49
-1.5
 49
3.5
 49
-1.5
  0
LTYPE
  2
chain_double_dash
 70
   64
  3
------------ -- -- -------------
 72
   65
 73
    6
 40
23.5
 49
12
 49
-1.5
 49
3.5
 49
-1.5
 49
3.5
 49
-1.5
  0
LTYPE
  2
dashed_dotted
 70
   64
  3
-----------     -     ----------
 72
   65
 73
    4
 40
9.25
 49
6
 49
-1.5
 49
0.25
 49
-1.5
  0
LTYPE
  2
double-dashed_dotted
 70
   64
  3
------   -----------   -   -----
 72
   65
 73
    6
 40
16.75
 49
6
 49
-1.5
 49
6
 49
-1.5
 49
0.25
 49
-1.5
  0
LTYPE
  2
dashed_double-dotted
 70
   64
  3
---------    -    -    ---------
 72
   65
 73
    6
 40
11
 49
6
 49
-1.5
 49
0.25
 49
-1.5
 49
0.25
 49
-1.5
  0
LTYPE
  2
double-dashed_double-dotted
 70
   64
  3
-----   ---------   -   -   ----
 72
   65
 73
    8
 40
18.5
 49
6
 49
-1.5
 49
6
 49
-1.5
 49
0.25
 49
-1.5
 49
0.25
 49
-1.5
  0
LTYPE
  2
dashed_triplicate-dotted
 70
   64
  3
-------    -    -    -    ------
 72
   65
 73
    8
 40
12.75
 49
6
 49
-1.5
 49
0.25
 49
-1.5
 49
0.25
 49
-1.5
 49
0.25
 49
-1.5
  0
LTYPE
  2
double-dashed_triplicate-dotted
 70
   64
  3
-----  ---------  -  -  -  -----
 72
   65
 73
   10
 40
20.25
 49
6
 49
-1.5
 49
6
 49
-1.5
 49
0.25
 49
-1.5
 49
0.25
 49
-1.5
 49
0.25
 49
-1.5
  0
LTYPE
  2
undefined
 70
   64
  3
--------------------------------
 72
   65
 73
    0
 40
0
  0
ENDTAB
  0
TABLE
  2
STYLE
  5
3
100
AcDbSymbolTable
 70
     1
  0
STYLE
  5
10
100
AcDbSymbolTableRecord
100
AcDbTextStyleTableRecord
  2
STANDARD
 70
     0
 40
0.0
 41
1.0
 50
0.0
 71
     0
 42
0.2
  3
txt
  4
bigfont.shx
  0
STYLE
  5
26
100
AcDbSymbolTableRecord
100
AcDbTextStyleTableRecord
  2
TATEGAKI
 70
    68
 40
0.0
 41
1.0
 50
0.0
 71
     0
 42
1.0
  3
txt
  4
bigfont.shx
  0
ENDTAB
  0
TABLE
  2
LAYER
 70
    2
  0
LAYER
  2
_0-0_通り芯
 70
   64
 62
    7
  6
CONTINUOUS
  0
LAYER
  2
ADD_LINE
 70
   64
 62
    7
  6
CONTINUOUS
  0
ENDTAB
  0
ENDSEC
  0
SECTION
  2
BLOCKS
  0
ENDSEC
  0
SECTION
  2
ENTITIES
  0
TEXT
  8
_0-0_通り芯
 62
    7
 10
5796.1894409937886
 20
3301.8423938122187
 40
42.857142857142854
 41
0.7999999999999999
 50
90
  1
360
  0
TEXT
  8
_0-0_通り芯
 62
    7
 10
3495.7405505226939
 20
3458.0566252701683
 40
30
 41
1
 50
90
  1
80
  0
TEXT
  8
_0-0_通り芯
 62
    7
 10
3495.7405505226939
 20
3309.4933519492611
 40
30
 41
1
 50
90
  1
200
  0
TEXT
  8
_0-0_通り芯
 62
    7
 10
3495.7405505226939
 20
3177.9934062055968
 40
30
 41
1
 50
90
  1
80
  0
TEXT
  8
_0-0_通り芯
 62
    7
 10
3229.9648233605626
 20
3082.4091777494464
 40
30
 41
1
 50
0
  1
360
  0
TEXT
  8
_0-0_通り芯
 62
    7
 10
3097.8135831962636
 20
3604.6217755450562
 40
30
 41
1
 50
0
  1
80
  0
TEXT
  8
_0-0_通り芯
 62
    7
 10
3232.6391820160998
 20
3604.6217755450562
 40
30
 41
1
 50
0
  1
200
  0
TEXT
  8
_0-0_通り芯
 62
    7
 10
3381.1391277597636
 20
3604.6217755450562
 40
30
 41
1
 50
0
  1
80
  0
TEXT
  8
_0-0_通り芯
 62
    7
 10
4625.1308285822106
 20
3604.6217755450562
 40
30
 41
1
 50
0
  1
2000
  0
TEXT
  8
_0-0_通り芯
 62
    7
 10
2870.4376708539717
 20
3867.714966191902
 40
50
 41
1
 50
0
  1
断  面  図
  0
TEXT
  8
_0-0_通り芯
 62
    7
 10
3648.816080162328
 20
3867.714966191902
 40
50
 41
1
 50
0
  1
側  面  図
  0
LINE
  8
_0-0_通り芯
  6
CONTINUOUS
 62
    7
 10
2723.4233959301105
 20
2199.18927166913
 11
2723.4233959301105
 21
4349.1889417493667
  0
LINE
  8
_0-0_通り芯
  6
CONTINUOUS
 62
    7
 10
2723.4233959301105
 20
4349.1889417493667
 11
5923.4230660103458
 21
4349.1889417493667
  0
LINE
  8
_0-0_通り芯
  6
CONTINUOUS
 62
    7
 10
5923.4230660103458
 20
4349.1889417493667
 11
5923.4230660103458
 21
2199.18927166913
  0
LINE
  8
_0-0_通り芯
  6
CONTINUOUS
 62
    7
 10
5923.4230660103458
 20
2199.18927166913
 11
2723.4233959301105
 21
2199.18927166913
  0
LINE
  8
_0-0_通り芯
  6
CONTINUOUS
 62
    7
 10
5923.4230660103458
 20
2299.1891067092483
 11
2723.4233959301105
 21
2299.1891067092483
  0
LINE
  8
_0-0_通り芯
  6
CONTINUOUS
 62
    7
 10
5023.4225711307008
 20
2199.18927166913
 11
5023.4225711307008
 21
2299.1891067092483
  0
LINE
  8
_0-0_通り芯
  6
CONTINUOUS
 62
    7
 10
3673.4229422904355
 20
2199.18927166913
 11
3673.4229422904355
 21
2299.1891067092483
  0
LINE
  8
_0-0_通り芯
  6
CONTINUOUS
 62
    7
 10
3843.4231319942992
 20
2199.18927166913
 11
3843.4231319942992
 21
2299.1891067092483
  0
LINE
  8
_0-0_通り芯
  6
CONTINUOUS
 62
    7
 10
4793.4228020745359
 20
2199.18927166913
 11
4793.4228020745359
 21
2299.1891067092483
  0
LINE
  8
_0-0_通り芯
  6
CONTINUOUS
 62
    7
 10
4563.42303301837
 20
2199.18927166913
 11
4563.42303301837
 21
2299.1891067092483
  0
LINE
  8
_0-0_通り芯
  6
CONTINUOUS
 62
    7
 10
4393.4229670344175
 20
2199.18927166913
 11
4393.4229670344175
 21
2299.1891067092483
  0
LINE
  8
_0-0_通り芯
  6
CONTINUOUS
 62
    7
 10
4223.4229010504641
 20
2199.18927166913
 11
4223.4229010504641
 21
2299.1891067092483
  0
LINE
  8
_0-0_通り芯
  6
CONTINUOUS
 62
    7
 10
2893.4229670344171
 20
2199.18927166913
 11
2893.4229670344171
 21
2299.1891067092483
  0
LINE
  8
_0-0_通り芯
  6
CONTINUOUS
 62
    7
 10
3155.6391613961141
 20
3382.5566589065193
 11
3155.6391613961141
 21
3355.2056506717213
  0
LINE
  8
_0-0_通り芯
  6
CONTINUOUS
 62
    7
 10
3355.6392026360845
 20
3382.5566589065193
 11
3355.6392026360845
 21
3355.2056506717213
  0
LINE
  8
_0-0_通り芯
  6
CONTINUOUS
 62
    7
 10
3075.8761303902556
 20
3362.2816872796188
 11
3115.7139418345114
 21
3352.5780871951588
  0
LINE
  8
_0-0_通り芯
  6
CONTINUOUS
 62
    7
 10
3075.6207724932956
 20
3302.5252175530563
 11
3115.7139418345114
 21
3312.4849178539434
  0
LINE
  8
_0-0_通り芯
  6
CONTINUOUS
 62
    7
 10
3115.7527898866656
 20
3312.494320567203
 11
3115.7527898866656
 21
3352.5686844818988
  0
LINE
  8
_0-0_通り芯
  6
CONTINUOUS
 62
    7
 10
3435.4022955018995
 20
3362.2816872796188
 11
3395.5644840576429
 21
3352.5780871951588
  0
LINE
  8
_0-0_通り芯
  6
CONTINUOUS
 62
    7
 10
3435.6576533988596
 20
3302.5252175530563
 11
3395.5644840576429
 21
3312.4849178539434
  0
LINE
  8
_0-0_通り芯
  6
CONTINUOUS
 62
    7
 10
3395.5256360054891
 20
3312.494320567203
 11
3395.5256360054891
 21
3352.5686844818988
  0
LINE
  8
_0-0_通り芯
  6
CONTINUOUS
 62
    7
 10
3075.6392067600818
 20
3192.5567743784359
 11
3075.6392067600818
 21
3512.5565929225659
  0
LINE
  8
_0-0_通り芯
  6
CONTINUOUS
 62
    7
 10
3075.6392067600818
 20
3192.5567743784359
 11
3115.6392150080765
 21
3152.5567661304422
  0
LINE
  8
_0-0_通り芯
  6
CONTINUOUS
 62
    7
 10
3395.6390871641679
 20
3152.5567661304422
 11
3115.6392150080765
 21
3152.5567661304422
  0
LINE
  8
_0-0_通り芯
  6
CONTINUOUS
 62
    7
 10
3395.6390871641679
 20
3152.5567661304422
 11
3435.6390954121616
 21
3192.5567743784359
  0
LINE
  8
_0-0_通り芯
  6
CONTINUOUS
 62
    7
 10
3435.6390954121616
 20
3192.5567743784359
 11
3435.6390954121616
 21
3512.5565929225659
  0
ARC
  8
_0-0_通り芯
  6
CONTINUOUS
 62
    7
 10
3205.6392026360845
 20
3382.5566589065193
 40
49.999998711250917
 50
90
 51
180
  0
ARC
  8
_0-0_通り芯
  6
CONTINUOUS
 62
    7
 10
3305.6391613961141
 20
3382.5566589065193
 40
49.999998711250917
 50
0
 51
90
  0
ARC
  8
_0-0_通り芯
  6
CONTINUOUS
 62
    7
 10
3274.8178096488596
 20
3349.7736042454126
 40
118.94354175876927
 50
177.46107482910156
 51
260.59165954589844
  0
ARC
  8
_0-0_通り芯
  6
CONTINUOUS
 62
    7
 10
3236.4605543833395
 20
3349.7736042454126
 40
118.94354175876927
 50
279.40830993652344
 51
2.5388946533203942
  0
CIRCLE
  8
_0-0_通り芯
  6
CONTINUOUS
 62
    7
 10
3095.7950361123835
 20
3332.4038235760713
 40
10.011774784809832
  0
CIRCLE
  8
_0-0_通り芯
  6
CONTINUOUS
 62
    7
 10
3415.4833897797716
 20
3332.4038235760713
 40
10.011774784809832
  0
LINE
  8
_0-0_通り芯
  6
CONTINUOUS
 62
    7
 10
3435.6390954121616
 20
3512.5565929225659
 11
3075.6392067600818
 21
3512.5565929225659
  0
LINE
  8
_0-0_通り芯
  6
CONTINUOUS
 62
    7
 10
3665.130869822181
 20
3512.5565929225659
 11
5665.1307873422411
 21
3512.5565929225659
  0
LINE
  8
_0-0_通り芯
  6
CONTINUOUS
 62
    7
 10
5665.1307873422411
 20
3432.5568238664005
 11
3665.130869822181
 21
3432.5568238664005
  0
LINE
  8
_0-0_通り芯
  6
CONTINUOUS
 62
    7
 10
3665.130869822181
 20
3192.5567743784359
 11
3705.1308780701756
 21
3152.5567661304422
  0
LINE
  8
_0-0_通り芯
  6
CONTINUOUS
 62
    7
 10
5625.1309028141577
 20
3152.5567661304422
 11
3705.1308780701756
 21
3152.5567661304422
  0
LINE
  8
_0-0_通り芯
  6
CONTINUOUS
 62
    7
 10
5625.1309028141577
 20
3152.5567661304422
 11
5665.1307873422411
 21
3192.5567743784359
  0
LINE
  8
_0-0_通り芯
  6
CONTINUOUS
 62
    7
 10
5665.1307873422411
 20
3192.5567743784359
 11
5665.1307873422411
 21
3512.5565929225659
  0
LINE
  8
_0-0_通り芯
  6
CONTINUOUS
 62
    7
 10
5665.1307873422411
 20
3192.5567743784359
 11
3665.130869822181
 21
3192.5567743784359
  0
LINE
  8
_0-0_通り芯
  6
CONTINUOUS
 62
    7
 10
5665.1307873422411
 20
3232.5566589065193
 11
3665.130869822181
 21
3232.5566589065193
  0
LINE
  8
_0-0_通り芯
  6
CONTINUOUS
 62
    7
 10
3766.0149310684865
 20
3345.3788255555901
 11
3766.0149310684865
 21
3365.4984049738755
  0
LINE
  8
_0-0_通り芯
  6
CONTINUOUS
 62
    7
 10
3766.0149310684865
 20
3305.5400243520426
 11
3805.8781050945627
 21
3315.3223103001001
  0
LINE
  8
_0-0_通り芯
  6
CONTINUOUS
 62
    7
 10
3766.0149310684865
 20
3305.5400243520426
 11
3766.0149310684865
 21
3325.4265154574059
  0
LINE
  8
_0-0_通り芯
  6
CONTINUOUS
 62
    7
 10
3667.3010407866032
 20
3345.3788255555901
 11
3766.0149310684865
 21
3345.3788255555901
  0
LINE
  8
_0-0_通り芯
  6
CONTINUOUS
 62
    7
 10
3667.3010407866032
 20
3325.4265154574059
 11
3766.0149310684865
 21
3325.4265154574059
  0
LINE
  8
_0-0_通り芯
  6
CONTINUOUS
 62
    7
 10
3805.9189326652977
 20
3315.332455332828
 11
3805.9189326652977
 21
3355.2788928592213
  0
LINE
  8
_0-0_通り芯
  6
CONTINUOUS
 62
    7
 10
3765.9737323380177
 20
3365.5087974464259
 11
3805.9189326652977
 21
3355.2788928592213
  0
LINE
  8
_0-0_通り芯
  6
CONTINUOUS
 62
    7
 10
5564.2468498158469
 20
3345.3788255555901
 11
5564.2468498158469
 21
3365.4984049738755
  0
LINE
  8
_0-0_通り芯
  6
CONTINUOUS
 62
    7
 10
5564.2468498158469
 20
3305.5400243520426
 11
5524.3837995096801
 21
3315.3223103001001
  0
LINE
  8
_0-0_通り芯
  6
CONTINUOUS
 62
    7
 10
5564.2468498158469
 20
3305.5400243520426
 11
5564.2468498158469
 21
3325.4265154574059
  0
LINE
  8
_0-0_通り芯
  6
CONTINUOUS
 62
    7
 10
5662.9607400977311
 20
3345.3788255555901
 11
5564.2468498158469
 21
3345.3788255555901
  0
LINE
  8
_0-0_通り芯
  6
CONTINUOUS
 62
    7
 10
5662.9607400977311
 20
3325.4265154574059
 11
5564.2468498158469
 21
3325.4265154574059
  0
LINE
  8
_0-0_通り芯
  6
CONTINUOUS
 62
    7
 10
5524.3429719389478
 20
3315.332455332828
 11
5524.3429719389478
 21
3355.2788928592213
  0
LINE
  8
_0-0_通り芯
  6
CONTINUOUS
 62
    7
 10
5564.288172266226
 20
3365.5087974464259
 11
5524.3429719389478
 21
3355.2788928592213
  0
LINE
  8
_0-0_通り芯
  6
CONTINUOUS
 62
    7
 10
4539.5950801262352
 20
3382.706359999213
 11
4539.5950801262352
 21
3422.6104853159359
  0
LINE
  8
_0-0_通り芯
  6
CONTINUOUS
 62
    7
 10
4539.5950801262352
 20
3382.706359999213
 11
4788.995121036286
 21
3382.706359999213
  0
LINE
  8
_0-0_通り芯
  6
CONTINUOUS
 62
    7
 10
4788.995121036286
 20
3382.706359999213
 11
4788.995121036286
 21
3422.6104853159359
  0
LINE
  8
_0-0_通り芯
  6
CONTINUOUS
 62
    7
 10
4539.6064623580769
 20
3422.5832669354463
 11
4554.4988755231943
 21
3412.6547440522113
  0
LINE
  8
_0-0_通り芯
  6
CONTINUOUS
 62
    7
 10
4554.4988755231943
 20
3412.6547440522113
 11
4564.2895744252219
 21
3402.7264686087992
  0
LINE
  8
_0-0_通り芯
  6
CONTINUOUS
 62
    7
 10
4564.2895744252219
 20
3402.7264686087992
 11
4539.6064623580769
 21
3382.7315988611226
  0
LINE
  8
_0-0_通り芯
  6
CONTINUOUS
 62
    7
 10
4774.0566840641577
 20
3412.7707933290276
 11
4763.9363953183802
 21
3403.0605123693567
  0
LINE
  8
_0-0_通り芯
  6
CONTINUOUS
 62
    7
 10
4763.9363953183802
 20
3403.0605123693567
 11
4788.5254802529244
 21
3382.706359999213
  0
LINE
  8
_0-0_通り芯
  6
CONTINUOUS
 62
    7
 10
4788.7489184127644
 20
3422.6104853159359
 11
4774.0566840641577
 21
3412.7707933290276
  0
LINE
  8
_0-0_通り芯
  6
CONTINUOUS
 62
    7
 10
4554.5295580612019
 20
3412.6344539867559
 11
4773.8532885299519
 21
3412.6344539867559
  0
LINE
  8
_0-0_通り芯
  6
CONTINUOUS
 62
    7
 10
4564.3568780569785
 20
3402.6584226575742
 11
4763.5174796986594
 21
3402.6584226575742
  0
LINE
  8
_0-0_通り芯
  6
CONTINUOUS
 62
    7
 10
4539.5950801262352
 20
3422.6104853159359
 11
4788.995121036286
 21
3422.6104853159359
  0
LINE
  8
_0-0_通り芯
  6
CONTINUOUS
 62
    7
 10
3665.130869822181
 20
3192.5567743784359
 11
3665.130869822181
 21
3512.5565929225659
  0
LINE
  8
_0-0_通り芯
  6
CONTINUOUS
 62
    7
 10
5794.760869565217
 20
3512.5565929225659
 11
5794.760869565217
 21
3152.5567661304422
  0
POINT
  8
_0-0_通り芯
 62
    7
 10
5794.760869565217
 20
3512.5565929225659
  0
POINT
  8
_0-0_通り芯
 62
    7
 10
5794.760869565217
 20
3152.5567661304422
  0
LINE
  8
_0-0_通り芯
  6
CONTINUOUS
 62
    7
 10
5794.760869565217
 20
3512.5565929225659
 11
5685
 21
3512.5565929225659
  0
LINE
  8
_0-0_通り芯
  6
CONTINUOUS
 62
    7
 10
5794.760869565217
 20
3152.5567661304422
 11
5685
 21
3152.5567661304422
  0
LINE
  8
_0-0_通り芯
  6
CONTINUOUS
 62
    7
 10
3205.6392026360845
 20
3432.5568238664005
 11
3305.6391613961141
 21
3432.5568238664005
  0
LINE
  8
_0-0_通り芯
  6
CONTINUOUS
 62
    7
 10
3068.9879624676942
 20
3599.6217755450562
 11
3155.639203924834
 21
3599.6217755450562
  0
POINT
  8
_0-0_通り芯
 62
    7
 10
3068.9879624676942
 20
3599.6217755450562
  0
POINT
  8
_0-0_通り芯
 62
    7
 10
3155.639203924834
 20
3599.6217755450562
  0
LINE
  8
_0-0_通り芯
  6
CONTINUOUS
 62
    7
 10
3068.9879624676942
 20
3599.6217755450562
 11
3068.9879624676942
 21
3538.2285530226404
  0
LINE
  8
_0-0_通り芯
  6
CONTINUOUS
 62
    7
 10
3155.639203924834
 20
3599.6217755450562
 11
3155.639203924834
 21
3538.2285530226404
  0
LINE
  8
_0-0_通り芯
  6
CONTINUOUS
 62
    7
 10
3155.639203924834
 20
3599.6217755450562
 11
3355.6391601073656
 21
3599.6217755450562
  0
POINT
  8
_0-0_通り芯
 62
    7
 10
3355.6391601073656
 20
3599.6217755450562
  0
LINE
  8
_0-0_通り芯
  6
CONTINUOUS
 62
    7
 10
3355.6391601073656
 20
3599.6217755450562
 11
3355.6391601073656
 21
3538.2285530226404
  0
LINE
  8
_0-0_通り芯
  6
CONTINUOUS
 62
    7
 10
3355.6391601073656
 20
3599.6217755450562
 11
3435.6390954121616
 21
3599.6217755450562
  0
POINT
  8
_0-0_通り芯
 62
    7
 10
3435.6390954121616
 20
3599.6217755450562
  0
LINE
  8
_0-0_通り芯
  6
CONTINUOUS
 62
    7
 10
3435.6390954121616
 20
3599.6217755450562
 11
3435.6390954121616
 21
3538.2285530226404
  0
LINE
  8
_0-0_通り芯
  6
CONTINUOUS
 62
    7
 10
3075.6392067600818
 20
3111.4603881272365
 11
3435.6390954121616
 21
3111.4603881272365
  0
POINT
  8
_0-0_通り芯
 62
    7
 10
3075.6392067600818
 20
3111.4603881272365
  0
POINT
  8
_0-0_通り芯
 62
    7
 10
3435.6390954121616
 20
3111.4603881272365
  0
LINE
  8
_0-0_通り芯
  6
CONTINUOUS
 62
    7
 10
3075.6392067600818
 20
3111.4603881272365
 11
3075.6392067600818
 21
3134.198618691094
  0
LINE
  8
_0-0_通り芯
  6
CONTINUOUS
 62
    7
 10
3435.6390954121616
 20
3111.4603881272365
 11
3435.6390954121616
 21
3134.198618691094
  0
LINE
  8
_0-0_通り芯
  6
CONTINUOUS
 62
    7
 10
3500.7405505226939
 20
3512.5565929225659
 11
3500.7405505226939
 21
3432.5566576177698
  0
POINT
  8
_0-0_通り芯
 62
    7
 10
3500.7405505226939
 20
3512.5565929225659
  0
POINT
  8
_0-0_通り芯
 62
    7
 10
3500.7405505226939
 20
3432.5566576177698
  0
LINE
  8
_0-0_通り芯
  6
CONTINUOUS
 62
    7
 10
3500.7405505226939
 20
3512.5565929225659
 11
3470.0439392614862
 21
3512.5565929225659
  0
LINE
  8
_0-0_通り芯
  6
CONTINUOUS
 62
    7
 10
3500.7405505226939
 20
3432.5566576177698
 11
3470.0439392614862
 21
3432.5566576177698
  0
LINE
  8
_0-0_通り芯
  6
CONTINUOUS
 62
    7
 10
3500.7405505226939
 20
3432.5566576177698
 11
3500.7405505226939
 21
3232.4300462807519
  0
POINT
  8
_0-0_通り芯
 62
    7
 10
3500.7405505226939
 20
3232.4300462807519
  0
LINE
  8
_0-0_通り芯
  6
CONTINUOUS
 62
    7
 10
3500.7405505226939
 20
3232.4300462807519
 11
3470.0439392614862
 21
3232.4300462807519
  0
LINE
  8
_0-0_通り芯
  6
CONTINUOUS
 62
    7
 10
3500.7405505226939
 20
3232.4300462807519
 11
3500.7405505226939
 21
3152.5567661304422
  0
POINT
  8
_0-0_通り芯
 62
    7
 10
3500.7405505226939
 20
3152.5567661304422
  0
LINE
  8
_0-0_通り芯
  6
CONTINUOUS
 62
    7
 10
3500.7405505226939
 20
3152.5567661304422
 11
3470.0439392614862
 21
3152.5567661304422
  0
LINE
  8
_0-0_通り芯
  6
CONTINUOUS
 62
    7
 10
3665.130869822181
 20
3599.6217755450562
 11
5665.1307873422411
 21
3599.6217755450562
  0
POINT
  8
_0-0_通り芯
 62
    7
 10
3665.130869822181
 20
3599.6217755450562
  0
POINT
  8
_0-0_通り芯
 62
    7
 10
5665.1307873422411
 20
3599.6217755450562
  0
LINE
  8
_0-0_通り芯
  6
CONTINUOUS
 62
    7
 10
3665.130869822181
 20
3599.6217755450562
 11
3665.130869822181
 21
3538.2285530226404
  0
LINE
  8
_0-0_通り芯
  6
CONTINUOUS
 62
    7
 10
5665.1307873422411
 20
3599.6217755450562
 11
5665.1307873422411
 21
3538.2285530226404
  0
TEXT
  8
_0-0_通り芯
 62
    7
 10
2732.6964448317594
 20
2221.5403977324145
 40
40
 41
1
 50
0
  1
名　称
  0
TEXT
  8
_0-0_通り芯
 62
    7
 10
2974.9216585872573
 20
2220.7154605263158
 40
40
 41
1
 50
0
  1
掃流ボックスカルバート　200
  0
TEXT
  8
_0-0_通り芯
 62
    7
 10
3679.2213174827311
 20
2221.5403977324145
 40
40
 41
1
 50
0
  1
分　類
  0
TEXT
  8
_0-0_通り芯
 62
    7
 10
3879.6698584951741
 20
2225.7152594597928
 40
40
 41
1
 50
0
  1
横断用暗渠側溝
  0
TEXT
  8
_0-0_通り芯
 62
    7
 10
4231.3603935094416
 20
2221.5403977324145
 40
40
 41
1
 50
0
  1
図　番
  0
TEXT
  8
_0-0_通り芯
 62
    7
 10
5070.5310176422236
 20
2214.1921490407822
 40
40
 41
1
 50
0
  1
岩城ブロック工業株式会社
  0
TEXT
  8
_0-0_通り芯
 62
    7
 10
4605.9916031855955
 20
2220.7154605263158
 40
40
 41
1
 50
0.0000897294919411
  1
参考重量
  0
TEXT
  8
_0-0_通り芯
 62
    7
 10
4880.2154195011335
 20
2218.9067055393589
 40
40
 41
1
 50
0.0000897294919411
  1
447
  0
ENDSEC
  0
EOF
