  0
SECTION
  2
HEADER
  9
$ACADVER
  1
AC1009
  9
$INSBASE
 10
0
 20
0
 30
0
  9
$EXTMIN
 10
0
 20
0
  9
$EXTMAX
 10
4200
 20
2970
  9
$LIMMIN
 10
0
 20
0
  9
$LIMMAX
 10
4200
 20
2970
  9
$LTSCALE
 40
10
  0
ENDSEC
  0
SECTION
  2
TABLES
  0
TABLE
  2
LTYPE
 70
     9
  0
LTYPE
  2
CONTINUOUS
 70
    64
  3
実線
 72
    65
 73
     0
 40
0.0
  0
LTYPE
  2
DASHED1
 70
    64
  3
--  --  --  --  --  --  --  --  
 72
    65
 73
     2
 40
2.5
 49
1.25
 49
-1.25
  0
LTYPE
  2
DASHED2
 70
    64
  3
----    ----    ----    ----    
 72
    65
 73
     2
 40
5.0
 49
2.5
 49
-2.5
  0
LTYPE
  2
DASHED3
 70
    64
  3
------  ------  ------  ------  
 72
    65
 73
     2
 40
5.0
 49
3.75
 49
-1.25
  0
LTYPE
  2
CENTER1
 70
    64
  3
----- - ----- - ----- - ----- - 
 72
    65
 73
     4
 40
10.0
 49
6.25
 49
-1.25
 49
1.25
 49
-1.25
  0
LTYPE
  2
CENTER2
 70
    64
  3
----------  --  ----------  --  
 72
    65
 73
     4
 40
20.0
 49
12.5
 49
-2.5
 49
2.5
 49
-2.5
  0
LTYPE
  2
PHANTOM1
 70
    64
  3
--- - - --- - - --- - - --- - - 
 72
    65
 73
     6
 40
10.0
 49
3.25
 49
-1.25
 49
1.25
 49
-1.25
 49
1.25
 49
-1.25
  0
LTYPE
  2
PHANTOM2
 70
    64
  3
--------  -  -  --------  -  -  
 72
    65
 73
     6
 40
20.0
 49
10.0
 49
-2.5
 49
1.25
 49
-2.5
 49
1.25
 49
-2.5
  0
LTYPE
  2
DOT
 70
    64
  3
-   -   -   -   -   -   -   -   
 72
    65
 73
     2
 40
2.5
 49
0.625
 49
-1.875
  0
LTYPE
  2
DUMMY
 70
    64
  3
ダミー
 72
    65
 73
     0
 40
0.0
  0
LTYPE
  2
RAND1
 70
    64
  3
ランダム線1
 72
    65
 73
     4
 40
10.0
 49
1.0
 49
-2.0
 49
3.0
 49
-4.0
  0
LTYPE
  2
RAND2
 70
    64
  3
ランダム線2
 72
    65
 73
     4
 40
14.0
 49
2.0
 49
-3.0
 49
4.0
 49
-5.0
  0
LTYPE
  2
RAND3
 70
    64
  3
ランダム線3
 72
    65
 73
     4
 40
18.0
 49
3.0
 49
-4.0
 49
5.0
 49
-6.0
  0
LTYPE
  2
RAND4
 70
    64
  3
ランダム線4
 72
    65
 73
     4
 40
22.0
 49
4.0
 49
-5.0
 49
6.0
 49
-7.0
  0
LTYPE
  2
RAND5
 70
    64
  3
ランダム線5
 72
    65
 73
     4
 40
26.0
 49
5.0
 49
-6.0
 49
7.0
 49
-8.0
  0
LTYPE
  2
LONG1
 70
    64
  3
----------  --  ----------  --  
 72
    65
 73
     4
 40
40.0
 49
32.5
 49
-2.5
 49
2.5
 49
-2.5
  0
LTYPE
  2
LONG2
 70
    64
  3
--------  -  -  --------  -  -  
 72
    65
 73
     6
 40
40.0
 49
30.0
 49
-2.5
 49
1.25
 49
-2.5
 49
1.25
 49
-2.5
  0
LTYPE
  2
LONG3
 70
    64
  3
+++++++++++++++..+++++++++++++++
 72
    65
 73
     2
 40
40.0
 49
37.5
 49
-2.5
  0
LTYPE
  2
LONG4
 70
    64
  3
+++++++++++++++..+++++++++++++++
 72
    65
 73
     2
 40
80.0
 49
75.0
 49
-5.0
  0
LTYPE
  2
LONG5
 70
    64
  3
----------  --  ----------  --  
 72
    65
 73
     4
 40
60.0
 49
37.5
 49
-7.5
 49
7.5
 49
-7.5
  0
LTYPE
  2
dashed
 70
   64
  3
-------   -------------   ------
 72
   65
 73
    2
 40
7.5
 49
6
 49
-1.5
  0
LTYPE
  2
dashed_spaced
 70
   64
  3
----        --------        ----
 72
   65
 73
    2
 40
12
 49
6
 49
-6
  0
LTYPE
  2
long_dashed_dotted
 70
   64
  3
------------- --- --------------
 72
   65
 73
    4
 40
15.25
 49
12
 49
-1.5
 49
0.25
 49
-1.5
  0
LTYPE
  2
long_dashed_double-dotted
 70
   64
  3
----------- --- --- ------------
 72
   65
 73
    6
 40
17
 49
12
 49
-1.5
 49
0.25
 49
-1.5
 49
0.25
 49
-1.5
  0
LTYPE
  2
long_dashed_triplicate-dotted
 70
   64
  3
--------- --- --- --- ----------
 72
   65
 73
    8
 40
18.75
 49
12
 49
-1.5
 49
0.25
 49
-1.5
 49
0.25
 49
-1.5
 49
0.25
 49
-1.5
  0
LTYPE
  2
dotted
 70
   64
  3
   -       -       -       -    
 72
   65
 73
    2
 40
1.75
 49
0.25
 49
-1.5
  0
LTYPE
  2
chain
 70
   64
  3
-------------- -- --------------
 72
   65
 73
    4
 40
18.5
 49
12
 49
-1.5
 49
3.5
 49
-1.5
  0
LTYPE
  2
chain_double_dash
 70
   64
  3
------------ -- -- -------------
 72
   65
 73
    6
 40
23.5
 49
12
 49
-1.5
 49
3.5
 49
-1.5
 49
3.5
 49
-1.5
  0
LTYPE
  2
dashed_dotted
 70
   64
  3
-----------     -     ----------
 72
   65
 73
    4
 40
9.25
 49
6
 49
-1.5
 49
0.25
 49
-1.5
  0
LTYPE
  2
double-dashed_dotted
 70
   64
  3
------   -----------   -   -----
 72
   65
 73
    6
 40
16.75
 49
6
 49
-1.5
 49
6
 49
-1.5
 49
0.25
 49
-1.5
  0
LTYPE
  2
dashed_double-dotted
 70
   64
  3
---------    -    -    ---------
 72
   65
 73
    6
 40
11
 49
6
 49
-1.5
 49
0.25
 49
-1.5
 49
0.25
 49
-1.5
  0
LTYPE
  2
double-dashed_double-dotted
 70
   64
  3
-----   ---------   -   -   ----
 72
   65
 73
    8
 40
18.5
 49
6
 49
-1.5
 49
6
 49
-1.5
 49
0.25
 49
-1.5
 49
0.25
 49
-1.5
  0
LTYPE
  2
dashed_triplicate-dotted
 70
   64
  3
-------    -    -    -    ------
 72
   65
 73
    8
 40
12.75
 49
6
 49
-1.5
 49
0.25
 49
-1.5
 49
0.25
 49
-1.5
 49
0.25
 49
-1.5
  0
LTYPE
  2
double-dashed_triplicate-dotted
 70
   64
  3
-----  ---------  -  -  -  -----
 72
   65
 73
   10
 40
20.25
 49
6
 49
-1.5
 49
6
 49
-1.5
 49
0.25
 49
-1.5
 49
0.25
 49
-1.5
 49
0.25
 49
-1.5
  0
LTYPE
  2
undefined
 70
   64
  3
--------------------------------
 72
   65
 73
    0
 40
0
  0
LTYPE
  2
_
 70
   64
  3
                                
 72
   65
 73
    0
 40
0
  0
LTYPE
  2
__18
 70
   64
  3
                                
 72
   65
 73
    0
 40
0
  0
LTYPE
  2
__19
 70
   64
  3
                                
 72
   65
 73
    0
 40
0
  0
LTYPE
  2
__20
 70
   64
  3
                                
 72
   65
 73
    0
 40
0
  0
LTYPE
  2
__21
 70
   64
  3
                                
 72
   65
 73
    0
 40
0
  0
LTYPE
  2
__22
 70
   64
  3
                                
 72
   65
 73
    0
 40
0
  0
LTYPE
  2
__23
 70
   64
  3
                                
 72
   65
 73
    0
 40
0
  0
LTYPE
  2
__24
 70
   64
  3
                                
 72
   65
 73
    0
 40
0
  0
LTYPE
  2
__25
 70
   64
  3
                                
 72
   65
 73
    0
 40
0
  0
LTYPE
  2
__26
 70
   64
  3
                                
 72
   65
 73
    0
 40
0
  0
LTYPE
  2
__27
 70
   64
  3
                                
 72
   65
 73
    0
 40
0
  0
LTYPE
  2
__28
 70
   64
  3
                                
 72
   65
 73
    0
 40
0
  0
LTYPE
  2
__29
 70
   64
  3
                                
 72
   65
 73
    0
 40
0
  0
LTYPE
  2
__30
 70
   64
  3
                                
 72
   65
 73
    0
 40
0
  0
LTYPE
  2
__31
 70
   64
  3
                                
 72
   65
 73
    0
 40
0
  0
LTYPE
  2
__32
 70
   64
  3
                                
 72
   65
 73
    0
 40
0
  0
ENDTAB
  0
TABLE
  2
STYLE
  5
3
100
AcDbSymbolTable
 70
     1
  0
STYLE
  5
10
100
AcDbSymbolTableRecord
100
AcDbTextStyleTableRecord
  2
STANDARD
 70
     0
 40
0.0
 41
1.0
 50
0.0
 71
     0
 42
0.2
  3
txt
  4
bigfont.shx
  0
STYLE
  5
26
100
AcDbSymbolTableRecord
100
AcDbTextStyleTableRecord
  2
TATEGAKI
 70
    68
 40
0.0
 41
1.0
 50
0.0
 71
     0
 42
1.0
  3
txt
  4
bigfont.shx
  0
ENDTAB
  0
TABLE
  2
LAYER
 70
    3
  0
LAYER
  2
_0-0_通り芯
 70
   64
 62
    7
  6
CONTINUOUS
  0
LAYER
  2
_0-1_ADD_LINE
 70
   64
 62
    7
  6
CONTINUOUS
  0
LAYER
  2
ADD_LINE
 70
   64
 62
    7
  6
CONTINUOUS
  0
ENDTAB
  0
ENDSEC
  0
SECTION
  2
BLOCKS
  0
ENDSEC
  0
SECTION
  2
ENTITIES
  0
TEXT
  8
_0-0_通り芯
 62
    7
 10
979.8427420951225
 20
1693.1590724635769
 40
30
 41
0.7999999999999999
 50
0
  1
50
  0
TEXT
  8
_0-0_通り芯
 62
    7
 10
995.84707889041374
 20
1615.8048062711148
 40
30
 41
0.7999999999999999
 50
0
  1
130
  0
TEXT
  8
_0-0_通り芯
 62
    7
 10
712.08028120621725
 20
1555.6842552391258
 40
30
 41
0.7999999999999999
 50
90.000002504478118
  1
530
  0
TEXT
  8
_0-0_通り芯
 62
    7
 10
892.4197435273436
 20
1834.2272107923354
 40
30
 41
0.7999999999999999
 50
90.000002504478005
  1
10
  0
TEXT
  8
_0-0_通り芯
 62
    7
 10
712.08028083467048
 20
1841.184228845545
 40
30
 41
0.7999999999999999
 50
90.000002504478346
  1
24
  0
TEXT
  8
_0-0_通り芯
 62
    7
 10
970.13155509330136
 20
2008.2629229571371
 40
30
 41
0.7999999999999999
 50
0
  1
360
  0
TEXT
  8
_0-0_通り芯
 62
    7
 10
880.13156746529239
 20
1956.5082859348606
 40
30
 41
0.7999999999999999
 50
0
  1
180
  0
TEXT
  8
_0-0_通り芯
 62
    7
 10
1035.1316148912586
 20
1956.5082859348606
 40
30
 41
0.7999999999999999
 50
0
  1
130
  0
TEXT
  8
_0-0_通り芯
 62
    7
 10
1133.8815786000846
 20
1956.5082859348606
 40
30
 41
0.7999999999999999
 50
0
  1
50
  0
TEXT
  8
_0-0_通り芯
 62
    7
 10
1058.8438885663008
 20
1850.1555571684967
 40
30
 41
0.7999999999999999
 50
0
  1
2％
  0
TEXT
  8
_0-0_通り芯
 62
    7
 10
1253.5563707246092
 20
1787.434237093539
 40
30
 41
0.7999999999999999
 50
90.000002504478005
  1
80
  0
TEXT
  8
_0-0_通り芯
 62
    7
 10
1252.9519993293698
 20
1639.1196643726246
 40
30
 41
0.7999999999999999
 50
90.000002504478118
  1
200
  0
TEXT
  8
_0-0_通り芯
 62
    7
 10
1251.5508713336981
 20
1420.5499449033996
 40
30
 41
0.7999999999999999
 50
90.000002504478118
  1
250
  0
TEXT
  8
_0-0_通り芯
 62
    7
 10
1123.8815456081081
 20
1228.4435787716429
 40
30
 41
0.7999999999999999
 50
0
  1
70
  0
TEXT
  8
_0-0_通り芯
 62
    7
 10
970.13155509330136
 20
1228.4435787716429
 40
30
 41
0.7999999999999999
 50
0
  1
220
  0
TEXT
  8
_0-0_通り芯
 62
    7
 10
833.88160953006241
 20
1228.4435787716429
 40
30
 41
0.7999999999999999
 50
0
  1
70
  0
TEXT
  8
_0-0_通り芯
 62
    7
 10
1327.8140516282506
 20
1553.684199152766
 40
30
 41
0.7999999999999999
 50
90.000002504478118
  1
530
  0
TEXT
  8
_0-0_通り芯
 62
    7
 10
1739.8684378959038
 20
1956.5082859348606
 40
30
 41
0.7999999999999999
 50
0
  1
120
  0
TEXT
  8
_0-0_通り芯
 62
    7
 10
2162.3684527422934
 20
2008.2629229571371
 40
30
 41
0.7999999999999999
 50
0
  1
1,000
  0
TEXT
  8
_0-0_通り芯
 62
    7
 10
2619.8683719119517
 20
1956.5082859348606
 40
30
 41
0.7999999999999999
 50
0
  1
120
  0
TEXT
  8
_0-0_通り芯
 62
    7
 10
2770.5883960360543
 20
1787.434237093539
 40
30
 41
0.7999999999999999
 50
90.000002504478005
  1
80
  0
TEXT
  8
_0-0_通り芯
 62
    7
 10
2770.5883964076011
 20
1638.6842321447425
 40
30
 41
0.7999999999999999
 50
90.000002504478118
  1
200
  0
TEXT
  8
_0-0_通り芯
 62
    7
 10
2770.5883964076011
 20
1413.6842321447425
 40
30
 41
0.7999999999999999
 50
90.000002504478118
  1
250
  0
TEXT
  8
_0-0_通り芯
 62
    7
 10
2868.9224665617394
 20
1553.684199152766
 40
30
 41
0.7999999999999999
 50
90.000002504478118
  1
530
  0
TEXT
  8
_0-0_通り芯
 62
    7
 10
1576.3776222178831
 20
1792.6842205975508
 40
30
 41
0.7999999999999999
 50
90.000002504478232
  1
104
  0
TEXT
  8
_0-0_通り芯
 62
    7
 10
1576.3776222178831
 20
1640.6842263711469
 40
30
 41
0.7999999999999999
 50
90.000002504478232
  1
200
  0
TEXT
  8
_0-0_通り芯
 62
    7
 10
1576.3776222178831
 20
1415.6842263711469
 40
30
 41
0.7999999999999999
 50
90.000002504478232
  1
250
  0
TEXT
  8
_0-0_通り芯
 62
    7
 10
1523.2568699348383
 20
1567.6842205975508
 40
30
 41
0.7999999999999999
 50
90.000002504478232
  1
554
  0
LINE
  8
_0-0_通り芯
  6
CONTINUOUS
 62
    7
 10
1824.868444494299
 20
1763.6842469911317
 11
1775.5218918259081
 21
1313.6842469911317
  0
LINE
  8
_0-0_通り芯
  6
CONTINUOUS
 62
    7
 10
2654.8684609902875
 20
1843.68426348712
 11
2654.8684609902875
 21
1802.4131568702492
  0
LINE
  8
_0-0_通り芯
  6
CONTINUOUS
 62
    7
 10
1005.131551381704
 20
1810.2781553526183
 11
1115.1355640308277
 21
1812.4782665355788
  0
LINE
  8
_0-0_通り芯
  6
CONTINUOUS
 62
    7
 10
815.13160499366563
 20
1313.6842469911317
 11
1175.131555505701
 21
1313.6842469911317
  0
LINE
  8
_0-0_通り芯
  6
CONTINUOUS
 62
    7
 10
815.13160499366563
 20
1843.68426348712
 11
815.13160499366563
 21
1313.6842469911317
  0
LINE
  8
_0-0_通り芯
  6
CONTINUOUS
 62
    7
 10
1175.131555505701
 20
1843.68426348712
 11
1175.131555505701
 21
1313.6842469911317
  0
LINE
  8
_0-0_通り芯
  6
CONTINUOUS
 62
    7
 10
1045.1314977697425
 20
1763.6842469911317
 11
1015.1315225137248
 21
1763.6842469911317
  0
LINE
  8
_0-0_通り芯
  6
CONTINUOUS
 62
    7
 10
975.13157612568648
 20
1763.6842469911317
 11
1015.1315225137248
 21
1763.6842469911317
  0
LINE
  8
_0-0_通り芯
  6
CONTINUOUS
 62
    7
 10
975.13157612568648
 20
1763.6842469911317
 11
945.13160086966855
 21
1763.6842469911317
  0
LINE
  8
_0-0_通り芯
  6
CONTINUOUS
 62
    7
 10
1095.1315390097129
 20
1713.6842057511615
 11
1095.1315390097129
 21
1686.3331975163642
  0
LINE
  8
_0-0_通り芯
  6
CONTINUOUS
 62
    7
 10
895.13155962969813
 20
1713.6842057511615
 11
895.13155962969813
 21
1686.3331975163642
  0
LINE
  8
_0-0_通り芯
  6
CONTINUOUS
 62
    7
 10
1332.8139433989654
 20
1843.68426348712
 11
1332.8139433989654
 21
1313.6842469911317
  0
LINE
  8
_0-0_通り芯
  6
CONTINUOUS
 62
    7
 10
1332.8139433989654
 20
1843.68426348712
 11
1184.2987060546875
 21
1843.68426348712
  0
LINE
  8
_0-0_通り芯
  6
CONTINUOUS
 62
    7
 10
1332.8139433989654
 20
1313.6842469911317
 11
1184.2987060546875
 21
1313.6842469911317
  0
LINE
  8
_0-0_通り芯
  6
CONTINUOUS
 62
    7
 10
1258.5563865867821
 20
1843.68426348712
 11
1258.5563865867821
 21
1763.6842469911317
  0
LINE
  8
_0-0_通り芯
  6
CONTINUOUS
 62
    7
 10
1258.5563865867821
 20
1843.68426348712
 11
1184.2987060546875
 21
1843.68426348712
  0
LINE
  8
_0-0_通り芯
  6
CONTINUOUS
 62
    7
 10
1258.5563865867821
 20
1763.6842469911317
 11
1184.2987060546875
 21
1763.6842469911317
  0
LINE
  8
_0-0_通り芯
  6
CONTINUOUS
 62
    7
 10
1258.5563865867821
 20
1763.6842469911317
 11
1258.5563865867821
 21
1563.5575165619721
  0
LINE
  8
_0-0_通り芯
  6
CONTINUOUS
 62
    7
 10
1258.5563865867821
 20
1563.5575165619721
 11
1184.2987060546875
 21
1563.5575165619721
  0
LINE
  8
_0-0_通り芯
  6
CONTINUOUS
 62
    7
 10
1258.5563865867821
 20
1563.5575165619721
 11
1258.5563865867821
 21
1313.6842469911317
  0
LINE
  8
_0-0_通り芯
  6
CONTINUOUS
 62
    7
 10
1258.5563865867821
 20
1313.6842469911317
 11
1184.2987060546875
 21
1313.6842469911317
  0
LINE
  8
_0-0_通り芯
  6
CONTINUOUS
 62
    7
 10
815.13160499366563
 20
1223.4435622756546
 11
885.13158849767751
 21
1223.4435622756546
  0
LINE
  8
_0-0_通り芯
  6
CONTINUOUS
 62
    7
 10
815.13160499366563
 20
1223.4435622756546
 11
815.13160499366563
 21
1305.9339368665542
  0
LINE
  8
_0-0_通り芯
  6
CONTINUOUS
 62
    7
 10
885.13158849767751
 20
1223.4435622756546
 11
885.13158849767751
 21
1305.9339368665542
  0
LINE
  8
_0-0_通り芯
  6
CONTINUOUS
 62
    7
 10
885.13158849767751
 20
1223.4435622756546
 11
1105.1315720016892
 21
1223.4435622756546
  0
LINE
  8
_0-0_通り芯
  6
CONTINUOUS
 62
    7
 10
1105.1315720016892
 20
1223.4435622756546
 11
1105.1315720016892
 21
1305.9339368665542
  0
LINE
  8
_0-0_通り芯
  6
CONTINUOUS
 62
    7
 10
1105.1315720016892
 20
1223.4435622756546
 11
1175.131555505701
 21
1223.4435622756546
  0
LINE
  8
_0-0_通り芯
  6
CONTINUOUS
 62
    7
 10
1175.131555505701
 20
1223.4435622756546
 11
1175.131555505701
 21
1305.9339368665542
  0
LINE
  8
_0-0_通り芯
  6
CONTINUOUS
 62
    7
 10
895.13162148965375
 20
1713.6842057511615
 11
885.13158849767751
 21
1313.6842469911317
  0
LINE
  8
_0-0_通り芯
  6
CONTINUOUS
 62
    7
 10
1095.1315390097129
 20
1713.6842057511615
 11
1105.1315720016892
 21
1313.6842469911317
  0
LINE
  8
_0-0_通り芯
  6
CONTINUOUS
 62
    7
 10
995.13158024968334
 20
1840.0842615076017
 11
995.13158024968334
 21
1800.0762114653717
  0
LINE
  8
_0-0_通り芯
  6
CONTINUOUS
 62
    7
 10
1007.1061830262879
 20
1800.3157332136825
 11
995.13158024968334
 21
1800.0762114653717
  0
LINE
  8
_0-0_通り芯
  6
CONTINUOUS
 62
    7
 10
1007.1061830262879
 20
1800.3157332136825
 11
998.31650192673146
 21
1763.6842469911317
  0
LINE
  8
_0-0_通り芯
  6
CONTINUOUS
 62
    7
 10
1095.1315390097129
 20
1802.0762675517315
 11
1095.1315390097129
 21
1717.5581236143371
  0
LINE
  8
_0-0_通り芯
  6
CONTINUOUS
 62
    7
 10
1007.0062173379436
 20
1805.3147599503802
 11
1000.1315967456715
 21
1805.177183408995
  0
LINE
  8
_0-0_通り芯
  6
CONTINUOUS
 62
    7
 10
1007.0062173379436
 20
1805.3147599503802
 11
1095.0315733213683
 21
1807.0751705685177
  0
LINE
  8
_0-0_通り芯
  6
CONTINUOUS
 62
    7
 10
1000.1315967456715
 20
1841.0844132706927
 11
1000.1315967456715
 21
1805.177183408995
  0
LINE
  8
_0-0_通り芯
  6
CONTINUOUS
 62
    7
 10
1005.131551381704
 20
1836.1833727037586
 11
1005.131551381704
 21
1810.2781553526183
  0
LINE
  8
_0-0_通り芯
  6
CONTINUOUS
 62
    7
 10
907.08086168443833
 20
1746.1208446605788
 11
975.84166655669355
 21
1706.4959551836996
  0
LINE
  8
_0-0_通り芯
  6
CONTINUOUS
 62
    7
 10
935.14400172877959
 20
1592.1301352011192
 11
988.37195731498105
 21
1627.0036852037586
  0
LINE
  8
_0-0_通り芯
  6
CONTINUOUS
 62
    7
 10
1704.8684197503169
 20
1313.6842469911317
 11
2704.8683785103462
 21
1313.6842469911317
  0
LINE
  8
_0-0_通り芯
  6
CONTINUOUS
 62
    7
 10
1704.8684197503169
 20
1843.68426348712
 11
1704.8684197503169
 21
1313.6842469911317
  0
LINE
  8
_0-0_通り芯
  6
CONTINUOUS
 62
    7
 10
2704.8683785103462
 20
1843.68426348712
 11
2704.8683785103462
 21
1313.6842469911317
  0
LINE
  8
_0-1_ADD_LINE
  6
CONTINUOUS
 62
    7
 10
1704.8684197503169
 20
1563.6842057511615
 11
2704.8683785103462
 21
1563.6842057511615
  0
LINE
  8
_0-1_ADD_LINE
  6
CONTINUOUS
 62
    7
 10
1704.8684197503169
 20
1763.6842469911317
 11
2704.8683785103462
 21
1763.6842469911317
  0
LINE
  8
_0-0_通り芯
  6
CONTINUOUS
 62
    7
 10
1175.131555505701
 20
1843.68426348712
 11
1125.1316379856419
 21
1843.68426348712
  0
LINE
  8
_0-0_通り芯
  6
CONTINUOUS
 62
    7
 10
1115.1316049936656
 20
1838.5834152634081
 11
1115.1316049936656
 21
1812.6781979122677
  0
LINE
  8
_0-0_通り芯
  6
CONTINUOUS
 62
    7
 10
1115.1316049936656
 20
1838.3833601668075
 11
1005.131551381704
 21
1836.1833727037586
  0
LINE
  8
_0-0_通り芯
  6
CONTINUOUS
 62
    7
 10
1120.0336353198902
 20
1843.4824763117613
 11
1000.0136298102302
 21
1841.0820625923775
  0
LINE
  8
_0-0_通り芯
  6
CONTINUOUS
 62
    7
 10
1120.2335666965794
 20
1807.5792054872254
 11
1095.0315733213683
 21
1807.0751705685177
  0
LINE
  8
_0-0_通り芯
  6
CONTINUOUS
 62
    7
 10
1120.1316214896538
 20
1843.4843321104308
 11
1120.1316214896538
 21
1807.5772259686446
  0
LINE
  8
_0-0_通り芯
  6
CONTINUOUS
 62
    7
 10
1125.1316379856419
 20
1802.6761854017104
 11
1095.1315390097129
 21
1802.0762675517315
  0
LINE
  8
_0-0_通り芯
  6
CONTINUOUS
 62
    7
 10
1125.1316379856419
 20
1843.68426348712
 11
1125.1316379856419
 21
1802.6761854017104
  0
LINE
  8
_0-0_通り芯
  6
CONTINUOUS
 62
    7
 10
1104.3021537162163
 20
1848.1688628325592
 11
1017.685163343275
 21
1846.4364129143794
  0
LINE
  8
_0-0_通り芯
  6
CONTINUOUS
 62
    7
 10
1017.685163343275
 20
1846.4364129143794
 11
1055.2358266469596
 21
1855.2069174276817
  0
LINE
  8
_0-0_通り芯
  6
CONTINUOUS
 62
    7
 10
1023.4649245803421
 20
1836.550078520904
 11
1023.4649245803421
 21
1810.6448611697635
  0
LINE
  8
_0-0_通り芯
  6
CONTINUOUS
 62
    7
 10
1041.7982359190246
 20
1836.916784338049
 11
1041.7982359190246
 21
1811.0115669869087
  0
LINE
  8
_0-0_通り芯
  6
CONTINUOUS
 62
    7
 10
1060.1315472577071
 20
1837.2833664352831
 11
1060.1315472577071
 21
1811.3782728040542
  0
LINE
  8
_0-0_通り芯
  6
CONTINUOUS
 62
    7
 10
1078.4648585963894
 20
1837.6500722524283
 11
1078.4648585963894
 21
1811.7448549012879
  0
LINE
  8
_0-0_通り芯
  6
CONTINUOUS
 62
    7
 10
1096.7982936549831
 20
1838.0167780695738
 11
1096.7982936549831
 21
1812.1115607184333
  0
LINE
  8
_0-0_通り芯
  6
CONTINUOUS
 62
    7
 10
2654.8684609902875
 20
1843.68426348712
 11
2704.8683785103462
 21
1843.68426348712
  0
LINE
  8
_0-0_通り芯
  6
CONTINUOUS
 62
    7
 10
2644.8684279983108
 20
1812.3414323136615
 11
2204.8684609902871
 21
1809.1734602644638
  0
LINE
  8
_0-0_通り芯
  6
CONTINUOUS
 62
    7
 10
2654.8526248416383
 20
1802.4130331503379
 11
2204.8684609902871
 21
1799.1731798326648
  0
LINE
  8
_0-0_通り芯
  6
CONTINUOUS
 62
    7
 10
2649.8684444942992
 20
1807.3772945919552
 11
2204.8684609902871
 21
1804.1733200485644
  0
LINE
  8
_0-0_通り芯
  6
CONTINUOUS
 62
    7
 10
2260.0190858583192
 20
1809.5704774598817
 11
2260.0190858583192
 21
1835.48113848712
  0
LINE
  8
_0-0_通り芯
  6
CONTINUOUS
 62
    7
 10
2315.0190198743667
 20
1809.9665048960094
 11
2315.0190198743667
 21
1835.8771659232477
  0
LINE
  8
_0-0_通り芯
  6
CONTINUOUS
 62
    7
 10
2370.0189538904142
 20
1810.3625323321371
 11
2370.0189538904142
 21
1836.273193359375
  0
LINE
  8
_0-0_通り芯
  6
CONTINUOUS
 62
    7
 10
2425.0188879064613
 20
1810.7584360483531
 11
2425.0188879064613
 21
1836.6692207955025
  0
LINE
  8
_0-0_通り芯
  6
CONTINUOUS
 62
    7
 10
2480.0190693623313
 20
1811.1544634844809
 11
2480.0190693623313
 21
1837.0651245117188
  0
LINE
  8
_0-0_通り芯
  6
CONTINUOUS
 62
    7
 10
2535.0190033783783
 20
1811.5504909206081
 11
2535.0190033783783
 21
1837.4611519478462
  0
LINE
  8
_0-0_通り芯
  6
CONTINUOUS
 62
    7
 10
2590.0189373944258
 20
1811.9465183567356
 11
2590.0189373944258
 21
1837.857179383974
  0
LINE
  8
_0-0_通り芯
  6
CONTINUOUS
 62
    7
 10
2644.8684279983108
 20
1838.2520933408996
 11
2644.8684279983108
 21
1812.3414323136615
  0
LINE
  8
_0-0_通り芯
  6
CONTINUOUS
 62
    7
 10
2644.8684279983108
 20
1838.2520933408996
 11
2204.8684609902871
 21
1835.0841212917019
  0
LINE
  8
_0-0_通り芯
  6
CONTINUOUS
 62
    7
 10
2649.8684444942992
 20
1843.2782147381758
 11
2649.8684444942992
 21
1807.3772945919552
  0
LINE
  8
_0-0_通り芯
  6
CONTINUOUS
 62
    7
 10
2649.8684444942992
 20
1843.2782147381758
 11
2204.6098863756338
 21
1840.0723843961148
  0
LINE
  8
_0-0_通り芯
  6
CONTINUOUS
 62
    7
 10
1704.8684197503169
 20
1763.6842469911317
 11
1824.868444494299
 21
1763.6842469911317
  0
LINE
  8
_0-0_通り芯
  6
CONTINUOUS
 62
    7
 10
2704.8683785103462
 20
1763.6842469911317
 11
2584.8684774862754
 21
1763.6842469911317
  0
LINE
  8
_0-0_通り芯
  6
CONTINUOUS
 62
    7
 10
2584.8684774862754
 20
1763.6842469911317
 11
2634.2183705922716
 21
1313.6842469911317
  0
LINE
  8
_0-0_通り芯
  6
CONTINUOUS
 62
    7
 10
1704.8684197503169
 20
2003.2630301810602
 11
2704.8683785103462
 21
2003.2630301810602
  0
LINE
  8
_0-0_通り芯
  6
CONTINUOUS
 62
    7
 10
1704.8684197503169
 20
2003.2630301810602
 11
1704.8684197503169
 21
1892.8530306429477
  0
LINE
  8
_0-0_通り芯
  6
CONTINUOUS
 62
    7
 10
2704.8683785103462
 20
2003.2630301810602
 11
2704.8683785103462
 21
1892.8530306429477
  0
LINE
  8
_0-0_通り芯
  6
CONTINUOUS
 62
    7
 10
1704.8684197503169
 20
1951.5082694388727
 11
1824.868444494299
 21
1951.5082694388727
  0
LINE
  8
_0-0_通り芯
  6
CONTINUOUS
 62
    7
 10
1704.8684197503169
 20
1951.5082694388727
 11
1704.8684197503169
 21
1892.8530306429477
  0
LINE
  8
_0-0_通り芯
  6
CONTINUOUS
 62
    7
 10
1824.868444494299
 20
1951.5082694388727
 11
1824.868444494299
 21
1892.8530306429477
  0
LINE
  8
_0-0_通り芯
  6
CONTINUOUS
 62
    7
 10
2584.8684774862754
 20
1951.5082694388727
 11
2704.8683785103462
 21
1951.5082694388727
  0
LINE
  8
_0-0_通り芯
  6
CONTINUOUS
 62
    7
 10
2584.8684774862754
 20
1951.5082694388727
 11
2584.8684774862754
 21
1892.8530306429477
  0
LINE
  8
_0-0_通り芯
  6
CONTINUOUS
 62
    7
 10
2704.8683785103462
 20
1951.5082694388727
 11
2704.8683785103462
 21
1892.8530306429477
  0
LINE
  8
_0-0_通り芯
  6
CONTINUOUS
 62
    7
 10
2873.9222346125421
 20
1843.68426348712
 11
2873.9222346125421
 21
1313.6842469911317
  0
LINE
  8
_0-0_通り芯
  6
CONTINUOUS
 62
    7
 10
2873.9222346125421
 20
1843.68426348712
 11
2716.93304938239
 21
1843.68426348712
  0
LINE
  8
_0-0_通り芯
  6
CONTINUOUS
 62
    7
 10
2873.9222346125421
 20
1313.6842469911317
 11
2716.93304938239
 21
1313.6842469911317
  0
LINE
  8
_0-0_通り芯
  6
CONTINUOUS
 62
    7
 10
2775.5884118982267
 20
1843.68426348712
 11
2775.5884118982267
 21
1763.6842469911317
  0
LINE
  8
_0-0_通り芯
  6
CONTINUOUS
 62
    7
 10
2775.5884118982267
 20
1843.68426348712
 11
2716.93304938239
 21
1843.68426348712
  0
LINE
  8
_0-0_通り芯
  6
CONTINUOUS
 62
    7
 10
2775.5884118982267
 20
1763.6842469911317
 11
2716.93304938239
 21
1763.6842469911317
  0
LINE
  8
_0-0_通り芯
  6
CONTINUOUS
 62
    7
 10
2775.5884118982267
 20
1763.6842469911317
 11
2775.5884118982267
 21
1563.6842057511615
  0
LINE
  8
_0-0_通り芯
  6
CONTINUOUS
 62
    7
 10
2775.5884118982267
 20
1563.6842057511615
 11
2716.93304938239
 21
1563.6842057511615
  0
LINE
  8
_0-0_通り芯
  6
CONTINUOUS
 62
    7
 10
2775.5884118982267
 20
1563.6842057511615
 11
2775.5884118982267
 21
1313.6842469911317
  0
LINE
  8
_0-0_通り芯
  6
CONTINUOUS
 62
    7
 10
2775.5884118982267
 20
1313.6842469911317
 11
2716.93304938239
 21
1313.6842469911317
  0
LINE
  8
_0-0_通り芯
  6
CONTINUOUS
 62
    7
 10
1704.8684197503169
 20
1653.7081331820102
 11
1803.5823100322002
 21
1653.7081331820102
  0
LINE
  8
_0-0_通り芯
  6
CONTINUOUS
 62
    7
 10
1704.8684197503169
 20
1673.6603195602831
 11
1803.5823100322002
 21
1673.6603195602831
  0
LINE
  8
_0-0_通り芯
  6
CONTINUOUS
 62
    7
 10
1803.5411113017315
 20
1693.7904151710304
 11
1843.4863116290121
 21
1683.560510583826
  0
LINE
  8
_0-0_通り芯
  6
CONTINUOUS
 62
    7
 10
1843.4863116290121
 20
1643.6140730574325
 11
1843.4863116290121
 21
1683.560510583826
  0
LINE
  8
_0-0_通り芯
  6
CONTINUOUS
 62
    7
 10
1803.5823100322002
 20
1633.8216420766471
 11
1843.4454840582771
 21
1643.6039280247044
  0
LINE
  8
_0-0_通り芯
  6
CONTINUOUS
 62
    7
 10
1803.5823100322002
 20
1673.6603195602831
 11
1803.5823100322002
 21
1693.7800226984796
  0
LINE
  8
_0-0_通り芯
  6
CONTINUOUS
 62
    7
 10
1803.5823100322002
 20
1633.8216420766471
 11
1803.5823100322002
 21
1653.7081331820102
  0
LINE
  8
_0-0_通り芯
  6
CONTINUOUS
 62
    7
 10
2704.8683785103462
 20
1673.6603195602831
 11
2606.1544882284629
 21
1673.6603195602831
  0
LINE
  8
_0-0_通り芯
  6
CONTINUOUS
 62
    7
 10
2704.8683785103462
 20
1653.7081331820102
 11
2606.1544882284629
 21
1653.7081331820102
  0
LINE
  8
_0-0_通り芯
  6
CONTINUOUS
 62
    7
 10
2606.1544882284629
 20
1633.8216420766471
 11
2606.1544882284629
 21
1653.7081331820102
  0
LINE
  8
_0-0_通り芯
  6
CONTINUOUS
 62
    7
 10
2566.2506103515625
 20
1643.6140730574325
 11
2566.2506103515625
 21
1683.560510583826
  0
LINE
  8
_0-0_通り芯
  6
CONTINUOUS
 62
    7
 10
2606.1958106788434
 20
1693.7904151710304
 11
2566.2506103515625
 21
1683.560510583826
  0
LINE
  8
_0-0_通り芯
  6
CONTINUOUS
 62
    7
 10
2606.1544882284629
 20
1673.6603195602831
 11
2606.1544882284629
 21
1693.7800226984796
  0
LINE
  8
_0-0_通り芯
  6
CONTINUOUS
 62
    7
 10
2606.1544882284629
 20
1633.8216420766471
 11
2566.2914379222975
 21
1643.6039280247044
  0
LINE
  8
_0-0_通り芯
  6
CONTINUOUS
 62
    7
 10
2080.9797957136825
 20
1710.3437681455871
 11
2330.3798366237334
 21
1710.3437681455871
  0
LINE
  8
_0-0_通り芯
  6
CONTINUOUS
 62
    7
 10
2105.7415936444258
 20
1730.2958308039488
 11
2304.9021952861067
 21
1730.2958308039488
  0
LINE
  8
_0-0_通り芯
  6
CONTINUOUS
 62
    7
 10
2080.9911779455238
 20
1750.2207988017315
 11
2095.8835911106421
 21
1740.2921521985854
  0
LINE
  8
_0-0_通り芯
  6
CONTINUOUS
 62
    7
 10
2080.9797957136825
 20
1750.2480171822212
 11
2330.3798366237334
 21
1750.2480171822212
  0
LINE
  8
_0-0_通り芯
  6
CONTINUOUS
 62
    7
 10
2095.9142736486488
 20
1740.2718621331294
 11
2315.2380041173988
 21
1740.2718621331294
  0
LINE
  8
_0-0_通り芯
  6
CONTINUOUS
 62
    7
 10
2105.6742900126692
 20
1730.3640004750846
 11
2080.9911779455238
 21
1710.3691307274073
  0
LINE
  8
_0-0_通り芯
  6
CONTINUOUS
 62
    7
 10
2095.8835911106421
 20
1740.2921521985854
 11
2105.6742900126692
 21
1730.3640004750846
  0
LINE
  8
_0-0_通り芯
  6
CONTINUOUS
 62
    7
 10
2080.9797957136825
 20
1710.3437681455871
 11
2080.9797957136825
 21
1750.2480171822212
  0
LINE
  8
_0-0_通り芯
  6
CONTINUOUS
 62
    7
 10
2315.441399651605
 20
1740.4083251953125
 11
2305.3211109058279
 21
1730.6979205157309
  0
LINE
  8
_0-0_通り芯
  6
CONTINUOUS
 62
    7
 10
2330.1336340002113
 20
1750.2480171822212
 11
2315.441399651605
 21
1740.4083251953125
  0
LINE
  8
_0-0_通り芯
  6
CONTINUOUS
 62
    7
 10
2305.3211109058279
 20
1730.6979205157309
 11
2329.9101958403717
 21
1710.3437681455871
  0
LINE
  8
_0-0_通り芯
  6
CONTINUOUS
 62
    7
 10
2330.3798366237334
 20
1710.3437681455871
 11
2330.3798366237334
 21
1750.2480171822212
  0
LINE
  8
_0-0_通り芯
  6
CONTINUOUS
 62
    7
 10
212.25573565508881
 20
504.52472583667657
 11
212.25573565508881
 21
2654.5242721970021
  0
LINE
  8
_0-0_通り芯
  6
CONTINUOUS
 62
    7
 10
212.25573565508881
 20
2654.5242721970021
 11
3412.2555294552367
 21
2654.5242721970021
  0
LINE
  8
_0-0_通り芯
  6
CONTINUOUS
 62
    7
 10
3412.2555294552367
 20
2654.5242721970021
 11
3412.2555294552367
 21
504.52472583667657
  0
LINE
  8
_0-0_通り芯
  6
CONTINUOUS
 62
    7
 10
3412.2555294552367
 20
504.52472583667657
 11
212.25573565508881
 21
504.52472583667657
  0
LINE
  8
_0-0_通り芯
  6
CONTINUOUS
 62
    7
 10
3412.2555294552367
 20
604.52456087679479
 11
212.25573565508881
 21
604.52456087679479
  0
LINE
  8
_0-0_通り芯
  6
CONTINUOUS
 62
    7
 10
2512.2550345755913
 20
504.52472583667657
 11
2512.2550345755913
 21
604.52456087679479
  0
LINE
  8
_0-0_通り芯
  6
CONTINUOUS
 62
    7
 10
1162.255282015414
 20
504.52472583667657
 11
1162.255282015414
 21
604.52456087679479
  0
LINE
  8
_0-0_通り芯
  6
CONTINUOUS
 62
    7
 10
1332.2554717192779
 20
504.52472583667657
 11
1332.2554717192779
 21
604.52456087679479
  0
LINE
  8
_0-0_通り芯
  6
CONTINUOUS
 62
    7
 10
2282.2552655194258
 20
504.52472583667657
 11
2282.2552655194258
 21
604.52456087679479
  0
LINE
  8
_0-0_通り芯
  6
CONTINUOUS
 62
    7
 10
2052.25549646326
 20
504.52472583667657
 11
2052.25549646326
 21
604.52456087679479
  0
LINE
  8
_0-0_通り芯
  6
CONTINUOUS
 62
    7
 10
1882.2554304793075
 20
504.52472583667657
 11
1882.2554304793075
 21
604.52456087679479
  0
LINE
  8
_0-0_通り芯
  6
CONTINUOUS
 62
    7
 10
1712.2552407754436
 20
504.52472583667657
 11
1712.2552407754436
 21
604.52456087679479
  0
LINE
  8
_0-0_通り芯
  6
CONTINUOUS
 62
    7
 10
382.25527582941822
 20
504.52472583667657
 11
382.25527582941822
 21
604.52456087679479
  0
LINE
  8
_0-0_通り芯
  6
CONTINUOUS
 62
    7
 10
815.13160499366563
 20
2003.2630301810602
 11
1175.131555505701
 21
2003.2630301810602
  0
LINE
  8
_0-0_通り芯
  6
CONTINUOUS
 62
    7
 10
815.13160499366563
 20
2003.2630301810602
 11
815.13160499366563
 21
1892.8530306429477
  0
LINE
  8
_0-0_通り芯
  6
CONTINUOUS
 62
    7
 10
1175.131555505701
 20
2003.2630301810602
 11
1175.131555505701
 21
1892.8530306429477
  0
LINE
  8
_0-0_通り芯
  6
CONTINUOUS
 62
    7
 10
815.13160499366563
 20
1951.5082694388727
 11
995.13158024968334
 21
1951.5082694388727
  0
LINE
  8
_0-0_通り芯
  6
CONTINUOUS
 62
    7
 10
815.13160499366563
 20
1951.5082694388727
 11
815.13160499366563
 21
1892.8530306429477
  0
LINE
  8
_0-0_通り芯
  6
CONTINUOUS
 62
    7
 10
995.13158024968334
 20
1951.5082694388727
 11
995.13158024968334
 21
1892.8530306429477
  0
LINE
  8
_0-0_通り芯
  6
CONTINUOUS
 62
    7
 10
995.13158024968334
 20
1951.5082694388727
 11
1125.1316379856419
 21
1951.5082694388727
  0
LINE
  8
_0-0_通り芯
  6
CONTINUOUS
 62
    7
 10
1125.1316379856419
 20
1951.5082694388727
 11
1125.1316379856419
 21
1892.8530306429477
  0
LINE
  8
_0-0_通り芯
  6
CONTINUOUS
 62
    7
 10
1125.1316379856419
 20
1951.5082694388727
 11
1175.131555505701
 21
1951.5082694388727
  0
LINE
  8
_0-0_通り芯
  6
CONTINUOUS
 62
    7
 10
1175.131555505701
 20
1951.5082694388727
 11
1175.131555505701
 21
1892.8530306429477
  0
LINE
  8
_0-0_通り芯
  6
CONTINUOUS
 62
    7
 10
995.13158024968334
 20
1843.68426348712
 11
995.13158024968334
 21
1840.0842615076017
  0
LINE
  8
_0-0_通り芯
  6
CONTINUOUS
 62
    7
 10
2204.8684609902871
 20
1844.7884636956294
 11
2204.8684609902871
 21
1843.68426348712
  0
LINE
  8
_0-0_通り芯
  6
CONTINUOUS
 62
    7
 10
2204.8684609902871
 20
1957.5000247439823
 11
2204.8684609902871
 21
1224.4473019161742
  0
LINE
  8
_0-0_通り芯
  6
CONTINUOUS
 62
    7
 10
815.13160499366563
 20
1867.6843179238811
 11
815.13160499366563
 21
1843.68426348712
  0
LINE
  8
_0-0_通り芯
  6
CONTINUOUS
 62
    7
 10
815.13160499366563
 20
1867.6843179238811
 11
985.13160911766272
 21
1853.7701580975508
  0
LINE
  8
_0-0_通り芯
  6
CONTINUOUS
 62
    7
 10
985.13160911766272
 20
1853.7701580975508
 11
995.13158024968334
 21
1843.68426348712
  0
LINE
  8
_0-0_通り芯
  6
CONTINUOUS
 62
    7
 10
717.08023483688771
 20
1867.6843179238811
 11
717.08023483688771
 21
1843.68426348712
  0
LINE
  8
_0-0_通り芯
  6
CONTINUOUS
 62
    7
 10
717.08023483688771
 20
1867.6843179238811
 11
804.48686754381356
 21
1867.6843179238811
  0
LINE
  8
_0-0_通り芯
  6
CONTINUOUS
 62
    7
 10
717.08023483688771
 20
1843.68426348712
 11
804.48686754381356
 21
1843.68426348712
  0
LINE
  8
_0-0_通り芯
  6
CONTINUOUS
 62
    7
 10
717.08023483688771
 20
1843.68426348712
 11
717.08023483688771
 21
1313.6842469911317
  0
LINE
  8
_0-0_通り芯
  6
CONTINUOUS
 62
    7
 10
717.08023483688771
 20
1313.6842469911317
 11
804.48686754381356
 21
1313.6842469911317
  0
LINE
  8
_0-0_通り芯
  6
CONTINUOUS
 62
    7
 10
897.41975938951646
 20
1853.7701580975508
 11
897.41975938951646
 21
1843.68426348712
  0
LINE
  8
_0-0_通り芯
  6
CONTINUOUS
 62
    7
 10
897.41975938951646
 20
1853.7701580975508
 11
950.12196721257396
 21
1853.7701580975508
  0
LINE
  8
_0-0_通り芯
  6
CONTINUOUS
 62
    7
 10
897.41975938951646
 20
1843.68426348712
 11
950.12196721257396
 21
1843.68426348712
  0
LINE
  8
_0-0_通り芯
  6
CONTINUOUS
 62
    7
 10
1704.8684197503169
 20
1853.6161268079604
 11
1704.8684197503169
 21
1843.68426348712
  0
LINE
  8
_0-0_通り芯
  6
CONTINUOUS
 62
    7
 10
1704.8684197503169
 20
1867.6841942039698
 11
1704.8684197503169
 21
1853.6161268079604
  0
LINE
  8
_0-0_通り芯
  6
CONTINUOUS
 62
    7
 10
1704.8684197503169
 20
1867.6841942039698
 11
2204.8684609902871
 21
1867.6841942039698
  0
LINE
  8
_0-0_通り芯
  6
CONTINUOUS
 62
    7
 10
1581.3776377085094
 20
1867.6841942039698
 11
1581.3776377085094
 21
1763.6842469911317
  0
LINE
  8
_0-0_通り芯
  6
CONTINUOUS
 62
    7
 10
1581.3776377085094
 20
1867.6841942039698
 11
1696.4725391284842
 21
1867.6841942039698
  0
LINE
  8
_0-0_通り芯
  6
CONTINUOUS
 62
    7
 10
1581.3776377085094
 20
1763.6842469911317
 11
1696.4725391284842
 21
1763.6842469911317
  0
LINE
  8
_0-0_通り芯
  6
CONTINUOUS
 62
    7
 10
1581.3776377085094
 20
1763.6842469911317
 11
1581.3776377085094
 21
1563.6842057511615
  0
LINE
  8
_0-0_通り芯
  6
CONTINUOUS
 62
    7
 10
1581.3776377085094
 20
1563.6842057511615
 11
1696.4725391284842
 21
1563.6842057511615
  0
LINE
  8
_0-0_通り芯
  6
CONTINUOUS
 62
    7
 10
1581.3776377085094
 20
1563.6842057511615
 11
1581.3776377085094
 21
1313.6842469911317
  0
LINE
  8
_0-0_通り芯
  6
CONTINUOUS
 62
    7
 10
1581.3776377085094
 20
1313.6842469911317
 11
1696.4725391284842
 21
1313.6842469911317
  0
LINE
  8
_0-0_通り芯
  6
CONTINUOUS
 62
    7
 10
1528.2568854254646
 20
1867.6841942039698
 11
1528.2568854254646
 21
1313.6842469911317
  0
LINE
  8
_0-0_通り芯
  6
CONTINUOUS
 62
    7
 10
1528.2568854254646
 20
1867.6841942039698
 11
1696.4725391284842
 21
1867.6841942039698
  0
LINE
  8
_0-0_通り芯
  6
CONTINUOUS
 62
    7
 10
1528.2568854254646
 20
1313.6842469911317
 11
1696.4725391284842
 21
1313.6842469911317
  0
LINE
  8
_0-0_通り芯
  6
CONTINUOUS
 62
    7
 10
1704.8684197503169
 20
1843.68426348712
 11
2204.8684609902871
 21
1843.68426348712
  0
ARC
  8
_0-0_通り芯
  6
CONTINUOUS
 62
    7
 10
1045.1314977697425
 20
1713.6842057511615
 40
49.999998711250925
 50
0
 51
90
  0
ARC
  8
_0-0_通り芯
  6
CONTINUOUS
 62
    7
 10
945.13160086966855
 20
1713.6842057511615
 40
49.999998711250925
 50
90
 51
180
  0
ARC
  8
_0-0_通り芯
  6
CONTINUOUS
 62
    7
 10
1014.3101460224875
 20
1680.901151090055
 40
118.94354175876927
 50
177.46107482910156
 51
260.59165954589844
  0
ARC
  8
_0-0_通り芯
  6
CONTINUOUS
 62
    7
 10
975.95295261692354
 20
1680.901151090055
 40
118.94354175876927
 50
279.40830993652344
 51
2.5388946533203942
  0
POINT
  8
_0-0_通り芯
 62
    7
 10
1332.8139433989654
 20
1843.68426348712
  0
POINT
  8
_0-0_通り芯
 62
    7
 10
1332.8139433989654
 20
1313.6842469911317
  0
POINT
  8
_0-0_通り芯
 62
    7
 10
1258.5563865867821
 20
1843.68426348712
  0
POINT
  8
_0-0_通り芯
 62
    7
 10
1258.5563865867821
 20
1763.6842469911317
  0
POINT
  8
_0-0_通り芯
 62
    7
 10
1258.5563865867821
 20
1563.5575165619721
  0
POINT
  8
_0-0_通り芯
 62
    7
 10
1258.5563865867821
 20
1313.6842469911317
  0
POINT
  8
_0-0_通り芯
 62
    7
 10
815.13160499366563
 20
1223.4435622756546
  0
POINT
  8
_0-0_通り芯
 62
    7
 10
885.13158849767751
 20
1223.4435622756546
  0
POINT
  8
_0-0_通り芯
 62
    7
 10
1105.1315720016892
 20
1223.4435622756546
  0
POINT
  8
_0-0_通り芯
 62
    7
 10
1175.131555505701
 20
1223.4435622756546
  0
POINT
  8
_0-0_通り芯
 62
    7
 10
1704.8684197503169
 20
2003.2630301810602
  0
POINT
  8
_0-0_通り芯
 62
    7
 10
2704.8683785103462
 20
2003.2630301810602
  0
POINT
  8
_0-0_通り芯
 62
    7
 10
1704.8684197503169
 20
1951.5082694388727
  0
POINT
  8
_0-0_通り芯
 62
    7
 10
1824.868444494299
 20
1951.5082694388727
  0
POINT
  8
_0-0_通り芯
 62
    7
 10
2584.8684774862754
 20
1951.5082694388727
  0
POINT
  8
_0-0_通り芯
 62
    7
 10
2704.8683785103462
 20
1951.5082694388727
  0
POINT
  8
_0-0_通り芯
 62
    7
 10
2873.9222346125421
 20
1843.68426348712
  0
POINT
  8
_0-0_通り芯
 62
    7
 10
2873.9222346125421
 20
1313.6842469911317
  0
POINT
  8
_0-0_通り芯
 62
    7
 10
2775.5884118982267
 20
1843.68426348712
  0
POINT
  8
_0-0_通り芯
 62
    7
 10
2775.5884118982267
 20
1763.6842469911317
  0
POINT
  8
_0-0_通り芯
 62
    7
 10
2775.5884118982267
 20
1563.6842057511615
  0
POINT
  8
_0-0_通り芯
 62
    7
 10
2775.5884118982267
 20
1313.6842469911317
  0
POINT
  8
_0-0_通り芯
 62
    7
 10
815.13160499366563
 20
2003.2630301810602
  0
POINT
  8
_0-0_通り芯
 62
    7
 10
1175.131555505701
 20
2003.2630301810602
  0
POINT
  8
_0-0_通り芯
 62
    7
 10
815.13160499366563
 20
1951.5082694388727
  0
POINT
  8
_0-0_通り芯
 62
    7
 10
995.13158024968334
 20
1951.5082694388727
  0
POINT
  8
_0-0_通り芯
 62
    7
 10
1125.1316379856419
 20
1951.5082694388727
  0
POINT
  8
_0-0_通り芯
 62
    7
 10
1175.131555505701
 20
1951.5082694388727
  0
POINT
  8
_0-0_通り芯
 62
    7
 10
717.08023483688771
 20
1867.6843179238811
  0
POINT
  8
_0-0_通り芯
 62
    7
 10
717.08023483688771
 20
1843.68426348712
  0
POINT
  8
_0-0_通り芯
 62
    7
 10
717.08023483688771
 20
1313.6842469911317
  0
POINT
  8
_0-0_通り芯
 62
    7
 10
897.41975938951646
 20
1853.7701580975508
  0
POINT
  8
_0-0_通り芯
 62
    7
 10
897.41975938951646
 20
1843.68426348712
  0
POINT
  8
_0-0_通り芯
 62
    7
 10
1581.3776377085094
 20
1867.6841942039698
  0
POINT
  8
_0-0_通り芯
 62
    7
 10
1581.3776377085094
 20
1763.6842469911317
  0
POINT
  8
_0-0_通り芯
 62
    7
 10
1581.3776377085094
 20
1563.6842057511615
  0
POINT
  8
_0-0_通り芯
 62
    7
 10
1581.3776377085094
 20
1313.6842469911317
  0
POINT
  8
_0-0_通り芯
 62
    7
 10
1528.2568854254646
 20
1867.6841942039698
  0
POINT
  8
_0-0_通り芯
 62
    7
 10
1528.2568854254646
 20
1313.6842469911317
  0
TEXT
  8
_0-0_通り芯
 62
    7
 10
256.74198250728864
 20
532.9875283446712
 40
40
 41
1
 50
0
  1
名称
  0
TEXT
  8
_0-0_通り芯
 62
    7
 10
508.95691609977348
 20
535.40492387431163
 40
40
 41
1
 50
0
  1
クリーン深型側溝　200HT
  0
TEXT
  8
_0-0_通り芯
 62
    7
 10
1200.6136559337051
 20
531.55065804261437
 40
40
 41
1
 50
0
  1
分類
  0
TEXT
  8
_0-0_通り芯
 62
    7
 10
1423.2884683878412
 20
533.28353596054535
 40
40
 41
1
 50
0
  1
乗入型桝
  0
TEXT
  8
_0-0_通り芯
 62
    7
 10
1756.0010286305974
 20
534.14997491951101
 40
40
 41
1
 50
0
  1
図番
  0
TEXT
  8
_0-0_通り芯
 62
    7
 10
2079.8532190429801
 20
534.20596927400197
 40
40
 41
1
 50
0
  1
参考重量
  0
TEXT
  8
_0-0_通り芯
 62
    7
 10
2349.7454927037757
 20
534.28157067421125
 40
40
 41
1
 50
0
  1
270㎏
  0
TEXT
  8
_0-0_通り芯
 62
    7
 10
2748.6095362940296
 20
533.98730741167651
 40
40
 41
1
 50
0
  1
岩城ブロック工業株式会社
  0
TEXT
  8
_0-0_通り芯
 62
    7
 10
657.33552631578959
 20
2243.7828947368421
 40
50
 41
1
 50
0
  1
断面図
  0
TEXT
  8
_0-0_通り芯
 62
    7
 10
1500.7894736842104
 20
2243.7828947368421
 40
50
 41
1
 50
0
  1
側面図
  0
ENDSEC
  0
EOF
