  0
SECTION
  2
HEADER
  9
$ACADVER
  1
AC1009
  9
$INSBASE
 10
0
 20
0
 30
0
  9
$EXTMIN
 10
0
 20
0
  9
$EXTMAX
 10
4200
 20
2970
  9
$LIMMIN
 10
0
 20
0
  9
$LIMMAX
 10
4200
 20
2970
  9
$LTSCALE
 40
10
  0
ENDSEC
  0
SECTION
  2
TABLES
  0
TABLE
  2
LTYPE
 70
     9
  0
LTYPE
  2
CONTINUOUS
 70
    64
  3
実線
 72
    65
 73
     0
 40
0.0
  0
LTYPE
  2
DASHED1
 70
    64
  3
--  --  --  --  --  --  --  --  
 72
    65
 73
     2
 40
2.5
 49
1.25
 49
-1.25
  0
LTYPE
  2
DASHED2
 70
    64
  3
----    ----    ----    ----    
 72
    65
 73
     2
 40
5.0
 49
2.5
 49
-2.5
  0
LTYPE
  2
DASHED3
 70
    64
  3
------  ------  ------  ------  
 72
    65
 73
     2
 40
5.0
 49
3.75
 49
-1.25
  0
LTYPE
  2
CENTER1
 70
    64
  3
----- - ----- - ----- - ----- - 
 72
    65
 73
     4
 40
10.0
 49
6.25
 49
-1.25
 49
1.25
 49
-1.25
  0
LTYPE
  2
CENTER2
 70
    64
  3
----------  --  ----------  --  
 72
    65
 73
     4
 40
20.0
 49
12.5
 49
-2.5
 49
2.5
 49
-2.5
  0
LTYPE
  2
PHANTOM1
 70
    64
  3
--- - - --- - - --- - - --- - - 
 72
    65
 73
     6
 40
10.0
 49
3.25
 49
-1.25
 49
1.25
 49
-1.25
 49
1.25
 49
-1.25
  0
LTYPE
  2
PHANTOM2
 70
    64
  3
--------  -  -  --------  -  -  
 72
    65
 73
     6
 40
20.0
 49
10.0
 49
-2.5
 49
1.25
 49
-2.5
 49
1.25
 49
-2.5
  0
LTYPE
  2
DOT
 70
    64
  3
-   -   -   -   -   -   -   -   
 72
    65
 73
     2
 40
2.5
 49
0.625
 49
-1.875
  0
LTYPE
  2
DUMMY
 70
    64
  3
ダミー
 72
    65
 73
     0
 40
0.0
  0
LTYPE
  2
RAND1
 70
    64
  3
ランダム線1
 72
    65
 73
     4
 40
10.0
 49
1.0
 49
-2.0
 49
3.0
 49
-4.0
  0
LTYPE
  2
RAND2
 70
    64
  3
ランダム線2
 72
    65
 73
     4
 40
14.0
 49
2.0
 49
-3.0
 49
4.0
 49
-5.0
  0
LTYPE
  2
RAND3
 70
    64
  3
ランダム線3
 72
    65
 73
     4
 40
18.0
 49
3.0
 49
-4.0
 49
5.0
 49
-6.0
  0
LTYPE
  2
RAND4
 70
    64
  3
ランダム線4
 72
    65
 73
     4
 40
22.0
 49
4.0
 49
-5.0
 49
6.0
 49
-7.0
  0
LTYPE
  2
RAND5
 70
    64
  3
ランダム線5
 72
    65
 73
     4
 40
26.0
 49
5.0
 49
-6.0
 49
7.0
 49
-8.0
  0
LTYPE
  2
LONG1
 70
    64
  3
----------  --  ----------  --  
 72
    65
 73
     4
 40
40.0
 49
32.5
 49
-2.5
 49
2.5
 49
-2.5
  0
LTYPE
  2
LONG2
 70
    64
  3
--------  -  -  --------  -  -  
 72
    65
 73
     6
 40
40.0
 49
30.0
 49
-2.5
 49
1.25
 49
-2.5
 49
1.25
 49
-2.5
  0
LTYPE
  2
LONG3
 70
    64
  3
+++++++++++++++..+++++++++++++++
 72
    65
 73
     2
 40
40.0
 49
37.5
 49
-2.5
  0
LTYPE
  2
LONG4
 70
    64
  3
+++++++++++++++..+++++++++++++++
 72
    65
 73
     2
 40
80.0
 49
75.0
 49
-5.0
  0
LTYPE
  2
LONG5
 70
    64
  3
----------  --  ----------  --  
 72
    65
 73
     4
 40
60.0
 49
37.5
 49
-7.5
 49
7.5
 49
-7.5
  0
LTYPE
  2
dashed
 70
   64
  3
-------   -------------   ------
 72
   65
 73
    2
 40
7.5
 49
6
 49
-1.5
  0
LTYPE
  2
dashed_spaced
 70
   64
  3
----        --------        ----
 72
   65
 73
    2
 40
12
 49
6
 49
-6
  0
LTYPE
  2
long_dashed_dotted
 70
   64
  3
------------- --- --------------
 72
   65
 73
    4
 40
15.25
 49
12
 49
-1.5
 49
0.25
 49
-1.5
  0
LTYPE
  2
long_dashed_double-dotted
 70
   64
  3
----------- --- --- ------------
 72
   65
 73
    6
 40
17
 49
12
 49
-1.5
 49
0.25
 49
-1.5
 49
0.25
 49
-1.5
  0
LTYPE
  2
long_dashed_triplicate-dotted
 70
   64
  3
--------- --- --- --- ----------
 72
   65
 73
    8
 40
18.75
 49
12
 49
-1.5
 49
0.25
 49
-1.5
 49
0.25
 49
-1.5
 49
0.25
 49
-1.5
  0
LTYPE
  2
dotted
 70
   64
  3
   -       -       -       -    
 72
   65
 73
    2
 40
1.75
 49
0.25
 49
-1.5
  0
LTYPE
  2
chain
 70
   64
  3
-------------- -- --------------
 72
   65
 73
    4
 40
18.5
 49
12
 49
-1.5
 49
3.5
 49
-1.5
  0
LTYPE
  2
chain_double_dash
 70
   64
  3
------------ -- -- -------------
 72
   65
 73
    6
 40
23.5
 49
12
 49
-1.5
 49
3.5
 49
-1.5
 49
3.5
 49
-1.5
  0
LTYPE
  2
dashed_dotted
 70
   64
  3
-----------     -     ----------
 72
   65
 73
    4
 40
9.25
 49
6
 49
-1.5
 49
0.25
 49
-1.5
  0
LTYPE
  2
double-dashed_dotted
 70
   64
  3
------   -----------   -   -----
 72
   65
 73
    6
 40
16.75
 49
6
 49
-1.5
 49
6
 49
-1.5
 49
0.25
 49
-1.5
  0
LTYPE
  2
dashed_double-dotted
 70
   64
  3
---------    -    -    ---------
 72
   65
 73
    6
 40
11
 49
6
 49
-1.5
 49
0.25
 49
-1.5
 49
0.25
 49
-1.5
  0
LTYPE
  2
double-dashed_double-dotted
 70
   64
  3
-----   ---------   -   -   ----
 72
   65
 73
    8
 40
18.5
 49
6
 49
-1.5
 49
6
 49
-1.5
 49
0.25
 49
-1.5
 49
0.25
 49
-1.5
  0
LTYPE
  2
dashed_triplicate-dotted
 70
   64
  3
-------    -    -    -    ------
 72
   65
 73
    8
 40
12.75
 49
6
 49
-1.5
 49
0.25
 49
-1.5
 49
0.25
 49
-1.5
 49
0.25
 49
-1.5
  0
LTYPE
  2
double-dashed_triplicate-dotted
 70
   64
  3
-----  ---------  -  -  -  -----
 72
   65
 73
   10
 40
20.25
 49
6
 49
-1.5
 49
6
 49
-1.5
 49
0.25
 49
-1.5
 49
0.25
 49
-1.5
 49
0.25
 49
-1.5
  0
LTYPE
  2
undefined
 70
   64
  3
--------------------------------
 72
   65
 73
    0
 40
0
  0
LTYPE
  2
_
 70
   64
  3
                                
 72
   65
 73
    0
 40
0
  0
LTYPE
  2
__18
 70
   64
  3
                                
 72
   65
 73
    0
 40
0
  0
LTYPE
  2
__19
 70
   64
  3
                                
 72
   65
 73
    0
 40
0
  0
LTYPE
  2
__20
 70
   64
  3
                                
 72
   65
 73
    0
 40
0
  0
LTYPE
  2
__21
 70
   64
  3
                                
 72
   65
 73
    0
 40
0
  0
LTYPE
  2
__22
 70
   64
  3
                                
 72
   65
 73
    0
 40
0
  0
LTYPE
  2
__23
 70
   64
  3
                                
 72
   65
 73
    0
 40
0
  0
LTYPE
  2
__24
 70
   64
  3
                                
 72
   65
 73
    0
 40
0
  0
LTYPE
  2
__25
 70
   64
  3
                                
 72
   65
 73
    0
 40
0
  0
LTYPE
  2
__26
 70
   64
  3
                                
 72
   65
 73
    0
 40
0
  0
LTYPE
  2
__27
 70
   64
  3
                                
 72
   65
 73
    0
 40
0
  0
LTYPE
  2
__28
 70
   64
  3
                                
 72
   65
 73
    0
 40
0
  0
LTYPE
  2
__29
 70
   64
  3
                                
 72
   65
 73
    0
 40
0
  0
LTYPE
  2
__30
 70
   64
  3
                                
 72
   65
 73
    0
 40
0
  0
LTYPE
  2
__31
 70
   64
  3
                                
 72
   65
 73
    0
 40
0
  0
LTYPE
  2
__32
 70
   64
  3
                                
 72
   65
 73
    0
 40
0
  0
ENDTAB
  0
TABLE
  2
STYLE
  5
3
100
AcDbSymbolTable
 70
     1
  0
STYLE
  5
10
100
AcDbSymbolTableRecord
100
AcDbTextStyleTableRecord
  2
STANDARD
 70
     0
 40
0.0
 41
1.0
 50
0.0
 71
     0
 42
0.2
  3
txt
  4
bigfont.shx
  0
STYLE
  5
26
100
AcDbSymbolTableRecord
100
AcDbTextStyleTableRecord
  2
TATEGAKI
 70
    68
 40
0.0
 41
1.0
 50
0.0
 71
     0
 42
1.0
  3
txt
  4
bigfont.shx
  0
ENDTAB
  0
TABLE
  2
LAYER
 70
    2
  0
LAYER
  2
_0-0_通り芯
 70
   64
 62
    7
  6
CONTINUOUS
  0
LAYER
  2
ADD_LINE
 70
   64
 62
    7
  6
CONTINUOUS
  0
ENDTAB
  0
ENDSEC
  0
SECTION
  2
BLOCKS
  0
ENDSEC
  0
SECTION
  2
ENTITIES
  0
LINE
  8
_0-0_通り芯
  6
CONTINUOUS
 62
    7
 10
1177.5996
 20
2330.8036000000002
 11
1427.5995999999998
 21
2330.8036000000002
  0
LINE
  8
_0-0_通り芯
  6
CONTINUOUS
 62
    7
 10
3823.4230000000002
 20
814.18909999999994
 11
623.42338999999981
 21
814.18909999999994
  0
LINE
  8
_0-0_通り芯
  6
CONTINUOUS
 62
    7
 10
623.42338999999981
 20
714.18926999999996
 11
623.42338999999981
 21
2864.1889000000001
  0
LINE
  8
_0-0_通り芯
  6
CONTINUOUS
 62
    7
 10
623.42338999999981
 20
2864.1889000000001
 11
3823.4230000000002
 21
2864.1889000000001
  0
LINE
  8
_0-0_通り芯
  6
CONTINUOUS
 62
    7
 10
3823.4230000000002
 20
2864.1889000000001
 11
3823.4230000000002
 21
714.18926999999996
  0
LINE
  8
_0-0_通り芯
  6
CONTINUOUS
 62
    7
 10
3823.4230000000002
 20
714.18926999999996
 11
623.42338999999981
 21
714.18926999999996
  0
LINE
  8
_0-0_通り芯
  6
CONTINUOUS
 62
    7
 10
2923.4225000000006
 20
714.18926999999996
 11
2923.4225000000006
 21
814.18909999999994
  0
LINE
  8
_0-0_通り芯
  6
CONTINUOUS
 62
    7
 10
1573.423
 20
714.18926999999996
 11
1573.423
 21
814.18909999999994
  0
LINE
  8
_0-0_通り芯
  6
CONTINUOUS
 62
    7
 10
1743.4231
 20
714.18926999999996
 11
1743.4231
 21
814.18909999999994
  0
LINE
  8
_0-0_通り芯
  6
CONTINUOUS
 62
    7
 10
2693.4227999999994
 20
714.18926999999996
 11
2693.4227999999994
 21
814.18909999999994
  0
LINE
  8
_0-0_通り芯
  6
CONTINUOUS
 62
    7
 10
2463.4229999999998
 20
714.18926999999996
 11
2463.4229999999998
 21
814.18909999999994
  0
LINE
  8
_0-0_通り芯
  6
CONTINUOUS
 62
    7
 10
2293.4229
 20
714.18926999999996
 11
2293.4229
 21
814.18909999999994
  0
LINE
  8
_0-0_通り芯
  6
CONTINUOUS
 62
    7
 10
2123.4229
 20
714.18926999999996
 11
2123.4229
 21
814.18909999999994
  0
LINE
  8
_0-0_通り芯
  6
CONTINUOUS
 62
    7
 10
793.42295999999976
 20
714.18926999999996
 11
793.42295999999976
 21
814.18909999999994
  0
LINE
  8
_0-0_通り芯
  6
CONTINUOUS
 62
    7
 10
2317.3823000000002
 20
2212.7961
 11
2377.3823000000002
 21
2212.7961
  0
LINE
  8
_0-0_通り芯
  6
CONTINUOUS
 62
    7
 10
2317.3823000000002
 20
1617.7961
 11
3317.3823000000002
 21
1617.7961
  0
ARC
  8
_0-0_通り芯
  6
CONTINUOUS
 62
    7
 10
1322.5995
 20
2061.4947000000002
 40
60
 50
90
 51
180
  0
ARC
  8
_0-0_通り芯
  6
CONTINUOUS
 62
    7
 10
1452.5995
 20
2061.4947000000002
 40
60
 50
0
 51
90
  0
ARC
  8
_0-0_通り芯
  6
CONTINUOUS
 62
    7
 10
1462.1969999999999
 20
2057.7727
 40
199.87799999999999
 50
186.83696
 51
248.33663999999999
  0
ARC
  8
_0-0_通り芯
  6
CONTINUOUS
 62
    7
 10
1313.0020999999999
 20
2057.7727
 40
199.87799999999999
 50
291.66334999999998
 51
353.16302999999999
  0
LINE
  8
_0-0_通り芯
  6
CONTINUOUS
 62
    7
 10
1262.5995
 20
2061.4947000000002
 11
1262.5995
 21
2034.4947
  0
LINE
  8
_0-0_通り芯
  6
CONTINUOUS
 62
    7
 10
1512.5995
 20
2061.4947000000002
 11
1512.5995
 21
2034.4947
  0
LINE
  8
_0-0_通り芯
  6
CONTINUOUS
 62
    7
 10
1177.8595999999998
 20
2026.0041000000001
 11
1217.6974
 21
2016.3003000000001
  0
LINE
  8
_0-0_通り芯
  6
CONTINUOUS
 62
    7
 10
1177.6042
 20
1966.2474
 11
1217.6974
 21
1976.2071000000001
  0
LINE
  8
_0-0_通り芯
  6
CONTINUOUS
 62
    7
 10
1217.7361999999998
 20
1976.2165
 11
1217.7361999999998
 21
2016.2909
  0
CIRCLE
  8
_0-0_通り芯
  6
CONTINUOUS
 62
    7
 10
1197.7784999999999
 20
1996.1259999999997
 40
10.011775
  0
LINE
  8
_0-0_通り芯
  6
CONTINUOUS
 62
    7
 10
1597.3395
 20
2026.0041000000001
 11
1557.5017
 21
2016.3003000000001
  0
LINE
  8
_0-0_通り芯
  6
CONTINUOUS
 62
    7
 10
1597.5947999999999
 20
1966.2474
 11
1557.5017
 21
1976.2071000000001
  0
LINE
  8
_0-0_通り芯
  6
CONTINUOUS
 62
    7
 10
1557.4628000000002
 20
1976.2165
 11
1557.4628000000002
 21
2016.2909
  0
CIRCLE
  8
_0-0_通り芯
  6
CONTINUOUS
 62
    7
 10
1577.4205999999999
 20
1996.1259999999997
 40
10.011775
  0
LINE
  8
_0-0_通り芯
  6
CONTINUOUS
 62
    7
 10
1217.5433
 20
2219.9861000000001
 11
1308.6628999999998
 21
2217.0468999999998
  0
LINE
  8
_0-0_通り芯
  6
CONTINUOUS
 62
    7
 10
1308.6628999999998
 20
2217.0468999999998
 11
1292.8487999999998
 21
2221.8357000000005
  0
LINE
  8
_0-0_通り芯
  6
CONTINUOUS
 62
    7
 10
1367.5995
 20
2121.4947000000002
 11
1322.5995
 21
2121.4947000000002
  0
LINE
  8
_0-0_通り芯
  6
CONTINUOUS
 62
    7
 10
1452.5995
 20
2121.4947000000002
 11
1407.5995
 21
2121.4947000000002
  0
LINE
  8
_0-0_通り芯
  6
CONTINUOUS
 62
    7
 10
1347.5995
 20
2170.4947000000002
 11
1347.5995
 21
2208.4947000000002
  0
LINE
  8
_0-0_通り芯
  6
CONTINUOUS
 62
    7
 10
1427.5995
 20
2170.4947000000002
 11
1427.5995
 21
2208.4947000000002
  0
LINE
  8
_0-0_通り芯
  6
CONTINUOUS
 62
    7
 10
1429.5994999999998
 20
2168.4947000000002
 11
1429.5994999999998
 21
2208.4947000000002
  0
LINE
  8
_0-0_通り芯
  6
CONTINUOUS
 62
    7
 10
1429.5994999999998
 20
2168.4947000000002
 11
1407.5995
 21
2168.4947000000002
  0
LINE
  8
_0-0_通り芯
  6
CONTINUOUS
 62
    7
 10
1427.5995
 20
2170.4947000000002
 11
1407.5995
 21
2170.4947000000002
  0
LINE
  8
_0-0_通り芯
  6
CONTINUOUS
 62
    7
 10
1429.5994999999998
 20
2208.4947000000002
 11
1347.5995
 21
2208.4947000000002
  0
LINE
  8
_0-0_通り芯
  6
CONTINUOUS
 62
    7
 10
1374.2662
 20
2170.4947000000002
 11
1374.2662
 21
2208.4947000000002
  0
LINE
  8
_0-0_通り芯
  6
CONTINUOUS
 62
    7
 10
1400.9329
 20
2170.4947000000002
 11
1400.9329
 21
2208.4947000000002
  0
LINE
  8
_0-0_通り芯
  6
CONTINUOUS
 62
    7
 10
1407.5995
 20
2170.4947000000002
 11
1347.5995
 21
2170.4947000000002
  0
LINE
  8
_0-0_通り芯
  6
CONTINUOUS
 62
    7
 10
1407.5995
 20
2168.4947000000002
 11
1345.5995000000003
 21
2168.4947000000002
  0
LINE
  8
_0-0_通り芯
  6
CONTINUOUS
 62
    7
 10
1177.5996
 20
2175.0401999999999
 11
1177.5996
 21
2176.5028000000002
  0
LINE
  8
_0-0_通り芯
  6
CONTINUOUS
 62
    7
 10
1597.5995
 20
1621.4947000000002
 11
1597.5995
 21
2258.4947000000002
  0
LINE
  8
_0-0_通り芯
  6
CONTINUOUS
 62
    7
 10
1597.5995
 20
1621.4947000000002
 11
1177.5996
 21
1621.4947000000002
  0
LINE
  8
_0-0_通り芯
  6
CONTINUOUS
 62
    7
 10
1120.1795999999999
 20
1621.4947000000002
 11
1120.1795999999999
 21
1871.4947000000002
  0
POINT
  8
_0-0_通り芯
 62
    7
 10
1120.1795999999999
 20
1621.4947000000002
  0
POINT
  8
_0-0_通り芯
 62
    7
 10
1120.1795999999999
 20
1871.4947000000002
  0
LINE
  8
_0-0_通り芯
  6
CONTINUOUS
 62
    7
 10
1120.1795999999999
 20
1621.4947000000002
 11
1172.1803
 21
1621.4947000000002
  0
LINE
  8
_0-0_通り芯
  6
CONTINUOUS
 62
    7
 10
1120.1795999999999
 20
1871.4947000000002
 11
1172.1803
 21
1871.4947000000002
  0
LINE
  8
_0-0_通り芯
  6
CONTINUOUS
 62
    7
 10
1120.1795999999999
 20
1871.4947000000002
 11
1120.1795999999999
 21
2121.4947000000002
  0
POINT
  8
_0-0_通り芯
 62
    7
 10
1120.1795999999999
 20
2121.4947000000002
  0
LINE
  8
_0-0_通り芯
  6
CONTINUOUS
 62
    7
 10
1120.1795999999999
 20
2121.4947000000002
 11
1172.1803
 21
2121.4947000000002
  0
LINE
  8
_0-0_通り芯
  6
CONTINUOUS
 62
    7
 10
1120.1795999999999
 20
2121.4947000000002
 11
1120.1795999999999
 21
2206.4947000000002
  0
POINT
  8
_0-0_通り芯
 62
    7
 10
1120.1795999999999
 20
2206.4947000000002
  0
LINE
  8
_0-0_通り芯
  6
CONTINUOUS
 62
    7
 10
1120.1795999999999
 20
2206.4947000000002
 11
1172.1803
 21
2206.4947000000002
  0
LINE
  8
_0-0_通り芯
  6
CONTINUOUS
 62
    7
 10
1177.5996
 20
1621.4947000000002
 11
1177.5996
 21
2206.4947000000002
  0
LINE
  8
_0-0_通り芯
  6
CONTINUOUS
 62
    7
 10
1052.8027999999999
 20
2206.4947000000002
 11
1052.8027999999999
 21
1621.4947000000002
  0
POINT
  8
_0-0_通り芯
 62
    7
 10
1052.8027999999999
 20
2206.4947000000002
  0
POINT
  8
_0-0_通り芯
 62
    7
 10
1052.8027999999999
 20
1621.4947000000002
  0
LINE
  8
_0-0_通り芯
  6
CONTINUOUS
 62
    7
 10
1052.8027999999999
 20
2206.4947000000002
 11
1139.4202999999998
 21
2206.4947000000002
  0
LINE
  8
_0-0_通り芯
  6
CONTINUOUS
 62
    7
 10
1052.8027999999999
 20
1621.4947000000002
 11
1139.4202999999998
 21
1621.4947000000002
  0
LINE
  8
_0-0_通り芯
  6
CONTINUOUS
 62
    7
 10
1527.7782999999999
 20
1621.9404
 11
1512.6370999999999
 21
2034.5437999999999
  0
LINE
  8
_0-0_通り芯
  6
CONTINUOUS
 62
    7
 10
1177.5996
 20
1550.2444
 11
1247.5996
 21
1550.2444
  0
POINT
  8
_0-0_通り芯
 62
    7
 10
1177.5996
 20
1550.2444
  0
POINT
  8
_0-0_通り芯
 62
    7
 10
1247.5996
 20
1550.2444
  0
LINE
  8
_0-0_通り芯
  6
CONTINUOUS
 62
    7
 10
1177.5996
 20
1550.2444
 11
1177.5996
 21
1604.1569
  0
LINE
  8
_0-0_通り芯
  6
CONTINUOUS
 62
    7
 10
1247.5996
 20
1550.2444
 11
1247.5996
 21
1604.1569
  0
LINE
  8
_0-0_通り芯
  6
CONTINUOUS
 62
    7
 10
1247.5996
 20
1550.2444
 11
1527.5995
 21
1550.2444
  0
POINT
  8
_0-0_通り芯
 62
    7
 10
1527.5995
 20
1550.2444
  0
LINE
  8
_0-0_通り芯
  6
CONTINUOUS
 62
    7
 10
1527.5995
 20
1550.2444
 11
1597.5995
 21
1550.2444
  0
POINT
  8
_0-0_通り芯
 62
    7
 10
1597.5995
 20
1550.2444
  0
LINE
  8
_0-0_通り芯
  6
CONTINUOUS
 62
    7
 10
1597.5995
 20
1550.2444
 11
1597.5995
 21
1604.1569
  0
POINT
  8
_0-0_通り芯
 62
    7
 10
1177.5996
 20
1497.8723
  0
POINT
  8
_0-0_通り芯
 62
    7
 10
1597.5995
 20
1497.8723
  0
LINE
  8
_0-0_通り芯
  6
CONTINUOUS
 62
    7
 10
1177.5996
 20
1497.8723
 11
1177.5996
 21
1576.4304999999999
  0
LINE
  8
_0-0_通り芯
  6
CONTINUOUS
 62
    7
 10
1597.5995
 20
1497.8723
 11
1597.5995
 21
1576.4304999999999
  0
LINE
  8
_0-0_通り芯
  6
CONTINUOUS
 62
    7
 10
1177.5996
 20
1497.8723
 11
1247.5996
 21
1497.8723
  0
LINE
  8
_0-0_通り芯
  6
CONTINUOUS
 62
    7
 10
1527.5995
 20
1573.3498
 11
1527.5995
 21
1604.1569
  0
LINE
  8
_0-0_通り芯
  6
CONTINUOUS
 62
    7
 10
1527.5995
 20
1550.2444
 11
1527.5995
 21
1557.9462000000001
  0
LINE
  8
_0-0_通り芯
  6
CONTINUOUS
 62
    7
 10
1527.5995
 20
1557.9462000000001
 11
1527.5995
 21
1573.3498
  0
LINE
  8
_0-0_通り芯
  6
CONTINUOUS
 62
    7
 10
1527.5995
 20
1497.8723
 11
1597.5995
 21
1497.8723
  0
LINE
  8
_0-0_通り芯
  6
CONTINUOUS
 62
    7
 10
1670.3077000000003
 20
1621.4947000000002
 11
1670.3077000000003
 21
2206.4947000000002
  0
POINT
  8
_0-0_通り芯
 62
    7
 10
1670.3077000000003
 20
1621.4947000000002
  0
POINT
  8
_0-0_通り芯
 62
    7
 10
1670.3077000000003
 20
2206.4947000000002
  0
LINE
  8
_0-0_通り芯
  6
CONTINUOUS
 62
    7
 10
1670.3077000000003
 20
1621.4947000000002
 11
1607.6096000000002
 21
1621.4947000000002
  0
LINE
  8
_0-0_通り芯
  6
CONTINUOUS
 62
    7
 10
1670.3077000000003
 20
2206.4947000000002
 11
1607.6096000000002
 21
2206.4947000000002
  0
LINE
  8
_0-0_通り芯
  6
CONTINUOUS
 62
    7
 10
1670.3077000000003
 20
2206.4947000000002
 11
1670.3077000000003
 21
2258.4947000000002
  0
POINT
  8
_0-0_通り芯
 62
    7
 10
1670.3077000000003
 20
2258.4947000000002
  0
LINE
  8
_0-0_通り芯
  6
CONTINUOUS
 62
    7
 10
1670.3077000000003
 20
2258.4947000000002
 11
1607.6096000000002
 21
2258.4947000000002
  0
LINE
  8
_0-0_通り芯
  6
CONTINUOUS
 62
    7
 10
1736.7412999999999
 20
2258.4947000000002
 11
1736.7412999999999
 21
1621.4947000000002
  0
POINT
  8
_0-0_通り芯
 62
    7
 10
1736.7412999999999
 20
2258.4947000000002
  0
POINT
  8
_0-0_通り芯
 62
    7
 10
1736.7412999999999
 20
1621.4947000000002
  0
LINE
  8
_0-0_通り芯
  6
CONTINUOUS
 62
    7
 10
1736.7412999999999
 20
2258.4947000000002
 11
1630.8418999999999
 21
2258.4947000000002
  0
LINE
  8
_0-0_通り芯
  6
CONTINUOUS
 62
    7
 10
1736.7412999999999
 20
1621.4947000000002
 11
1630.8418999999999
 21
1621.4947000000002
  0
POINT
  8
_0-0_通り芯
 62
    7
 10
1177.5996
 20
2330.8036000000002
  0
POINT
  8
_0-0_通り芯
 62
    7
 10
1427.5995999999998
 20
2330.8036000000002
  0
LINE
  8
_0-0_通り芯
  6
CONTINUOUS
 62
    7
 10
1177.5996
 20
2330.8036000000002
 11
1177.5996
 21
2271.7581
  0
LINE
  8
_0-0_通り芯
  6
CONTINUOUS
 62
    7
 10
1427.5995999999998
 20
2330.8036000000002
 11
1427.5995999999998
 21
2271.7581
  0
LINE
  8
_0-0_通り芯
  6
CONTINUOUS
 62
    7
 10
1427.5995999999998
 20
2330.8036000000002
 11
1597.5995
 21
2330.8036000000002
  0
POINT
  8
_0-0_通り芯
 62
    7
 10
1597.5995
 20
2330.8036000000002
  0
LINE
  8
_0-0_通り芯
  6
CONTINUOUS
 62
    7
 10
1597.5995
 20
2330.8036000000002
 11
1597.5995
 21
2271.7581
  0
LINE
  8
_0-0_通り芯
  6
CONTINUOUS
 62
    7
 10
1177.5996
 20
2393.9213
 11
1262.5995
 21
2393.9213
  0
POINT
  8
_0-0_通り芯
 62
    7
 10
1177.5996
 20
2393.9213
  0
POINT
  8
_0-0_通り芯
 62
    7
 10
1262.5995
 20
2393.9213
  0
LINE
  8
_0-0_通り芯
  6
CONTINUOUS
 62
    7
 10
1177.5996
 20
2393.9213
 11
1177.5996
 21
2314.5151999999998
  0
LINE
  8
_0-0_通り芯
  6
CONTINUOUS
 62
    7
 10
1262.5995
 20
2393.9213
 11
1512.5995
 21
2393.9213
  0
POINT
  8
_0-0_通り芯
 62
    7
 10
1512.5995
 20
2393.9213
  0
LINE
  8
_0-0_通り芯
  6
CONTINUOUS
 62
    7
 10
1512.5995
 20
2393.9213
 11
1597.5995
 21
2393.9213
  0
POINT
  8
_0-0_通り芯
 62
    7
 10
1597.5995
 20
2393.9213
  0
LINE
  8
_0-0_通り芯
  6
CONTINUOUS
 62
    7
 10
1597.5995
 20
2393.9213
 11
1597.5995
 21
2314.5151999999998
  0
LINE
  8
_0-0_通り芯
  6
CONTINUOUS
 62
    7
 10
1177.5996
 20
2455.0028000000002
 11
1597.5995
 21
2455.0028000000002
  0
POINT
  8
_0-0_通り芯
 62
    7
 10
1177.5996
 20
2455.0028000000002
  0
POINT
  8
_0-0_通り芯
 62
    7
 10
1597.5995
 20
2455.0028000000002
  0
LINE
  8
_0-0_通り芯
  6
CONTINUOUS
 62
    7
 10
1177.5996
 20
2455.0028000000002
 11
1177.5996
 21
2369.4886000000001
  0
LINE
  8
_0-0_通り芯
  6
CONTINUOUS
 62
    7
 10
1597.5995
 20
2455.0028000000002
 11
1597.5995
 21
2369.4886000000001
  0
LINE
  8
_0-0_通り芯
  6
CONTINUOUS
 62
    7
 10
1177.5996
 20
2514.0484000000006
 11
1177.5996
 21
2436.6783999999998
  0
LINE
  8
_0-0_通り芯
  6
CONTINUOUS
 62
    7
 10
1597.5995
 20
2514.0484000000006
 11
1597.5995
 21
2436.6783999999998
  0
LINE
  8
_0-0_通り芯
  6
CONTINUOUS
 62
    7
 10
1177.5996
 20
2514.0484000000006
 11
1262.5995
 21
2514.0484000000006
  0
LINE
  8
_0-0_通り芯
  6
CONTINUOUS
 62
    7
 10
1512.5995
 20
2514.0484000000006
 11
1597.5995
 21
2514.0484000000006
  0
LINE
  8
_0-0_通り芯
  6
CONTINUOUS
 62
    7
 10
2317.3823000000002
 20
2212.7961
 11
2317.3823000000002
 21
1617.7961
  0
LINE
  8
_0-0_通り芯
  6
CONTINUOUS
 62
    7
 10
2182.8483999999999
 20
1617.7961
 11
2182.8483999999999
 21
1877.7961
  0
POINT
  8
_0-0_通り芯
 62
    7
 10
2182.8483999999999
 20
1617.7961
  0
POINT
  8
_0-0_通り芯
 62
    7
 10
2182.8483999999999
 20
1877.7961
  0
LINE
  8
_0-0_通り芯
  6
CONTINUOUS
 62
    7
 10
2182.8483999999999
 20
1617.7961
 11
2289.6280999999999
 21
1617.7961
  0
LINE
  8
_0-0_通り芯
  6
CONTINUOUS
 62
    7
 10
2182.8483999999999
 20
1877.7961
 11
2289.6280999999999
 21
1877.7961
  0
LINE
  8
_0-0_通り芯
  6
CONTINUOUS
 62
    7
 10
2182.8483999999999
 20
2127.7961
 11
2182.8483999999999
 21
1877.7961
  0
POINT
  8
_0-0_通り芯
 62
    7
 10
2182.8483999999999
 20
2127.7961
  0
LINE
  8
_0-0_通り芯
  6
CONTINUOUS
 62
    7
 10
2182.8483999999999
 20
2127.7961
 11
2289.6280999999999
 21
2127.7961
  0
LINE
  8
_0-0_通り芯
  6
CONTINUOUS
 62
    7
 10
2182.8483999999999
 20
2127.7961
 11
2182.8483999999999
 21
2212.7961
  0
POINT
  8
_0-0_通り芯
 62
    7
 10
2182.8483999999999
 20
2212.7961
  0
LINE
  8
_0-0_通り芯
  6
CONTINUOUS
 62
    7
 10
2182.8483999999999
 20
2212.7961
 11
2289.6280999999999
 21
2212.7961
  0
LINE
  8
_0-0_通り芯
  6
CONTINUOUS
 62
    7
 10
2098.3146000000002
 20
2212.7961
 11
2098.3146000000002
 21
1617.7961
  0
POINT
  8
_0-0_通り芯
 62
    7
 10
2098.3146000000002
 20
2212.7961
  0
POINT
  8
_0-0_通り芯
 62
    7
 10
2098.3146000000002
 20
1617.7961
  0
LINE
  8
_0-0_通り芯
  6
CONTINUOUS
 62
    7
 10
2098.3146000000002
 20
2212.7961
 11
2236.2383
 21
2212.7961
  0
LINE
  8
_0-0_通り芯
  6
CONTINUOUS
 62
    7
 10
2098.3146000000002
 20
1617.7961
 11
2236.2383
 21
1617.7961
  0
LINE
  8
_0-0_通り芯
  6
CONTINUOUS
 62
    7
 10
2317.3823000000002
 20
2127.7961
 11
2437.3824
 21
2127.7961
  0
LINE
  8
_0-0_通り芯
  6
CONTINUOUS
 62
    7
 10
2437.3824
 20
2127.7961
 11
2387.3823000000002
 21
1617.7961
  0
LINE
  8
_0-0_通り芯
  6
CONTINUOUS
 62
    7
 10
2317.3823000000002
 20
1877.7961
 11
2412.8724999999999
 21
1877.7961
  0
LINE
  8
_0-0_通り芯
  6
CONTINUOUS
 62
    7
 10
3197.3823000000002
 20
2127.7961
 11
3227.8352
 21
1817.1775
  0
LINE
  8
_0-0_通り芯
  6
CONTINUOUS
 62
    7
 10
3227.8352
 20
1817.1775
 11
3247.3824000000004
 21
1617.7961
  0
LINE
  8
_0-0_通り芯
  6
CONTINUOUS
 62
    7
 10
3221.8921
 20
1877.7961
 11
3317.3823000000002
 21
1877.7961
  0
LINE
  8
_0-0_通り芯
  6
CONTINUOUS
 62
    7
 10
3197.3823000000002
 20
2127.7961
 11
3317.3823000000002
 21
2127.7961
  0
LINE
  8
_0-0_通り芯
  6
CONTINUOUS
 62
    7
 10
3317.3823000000002
 20
1617.7961
 11
3317.3823000000002
 21
2257.7961
  0
LINE
  8
_0-0_通り芯
  6
CONTINUOUS
 62
    7
 10
3418.2550000000001
 20
1617.7961
 11
3418.2550000000001
 21
1877.7961
  0
POINT
  8
_0-0_通り芯
 62
    7
 10
3418.2550000000001
 20
1617.7961
  0
POINT
  8
_0-0_通り芯
 62
    7
 10
3418.2550000000001
 20
1877.7961
  0
LINE
  8
_0-0_通り芯
  6
CONTINUOUS
 62
    7
 10
3418.2550000000001
 20
1617.7961
 11
3331.5549999999994
 21
1617.7961
  0
LINE
  8
_0-0_通り芯
  6
CONTINUOUS
 62
    7
 10
3418.2550000000001
 20
1877.7961
 11
3331.5549999999994
 21
1877.7961
  0
LINE
  8
_0-0_通り芯
  6
CONTINUOUS
 62
    7
 10
3418.2550000000001
 20
1877.7961
 11
3418.2550000000001
 21
2127.7961
  0
POINT
  8
_0-0_通り芯
 62
    7
 10
3418.2550000000001
 20
2127.7961
  0
LINE
  8
_0-0_通り芯
  6
CONTINUOUS
 62
    7
 10
3418.2550000000001
 20
2127.7961
 11
3331.5549999999994
 21
2127.7961
  0
LINE
  8
_0-0_通り芯
  6
CONTINUOUS
 62
    7
 10
3418.2550000000001
 20
2127.7961
 11
3418.2550000000001
 21
2257.7961
  0
POINT
  8
_0-0_通り芯
 62
    7
 10
3418.2550000000001
 20
2257.7961
  0
LINE
  8
_0-0_通り芯
  6
CONTINUOUS
 62
    7
 10
3418.2550000000001
 20
2257.7961
 11
3331.5549999999994
 21
2257.7961
  0
LINE
  8
_0-0_通り芯
  6
CONTINUOUS
 62
    7
 10
2377.3823000000002
 20
2212.7961
 11
2377.3823000000002
 21
2174.7961
  0
LINE
  8
_0-0_通り芯
  6
CONTINUOUS
 62
    7
 10
2377.3823000000002
 20
2174.7961
 11
2817.3823000000002
 21
2174.7961
  0
LINE
  8
_0-0_通り芯
  6
CONTINUOUS
 62
    7
 10
2817.3823000000002
 20
2257.7961
 11
2817.3823000000002
 21
2240.7719999999999
  0
LINE
  8
_0-0_通り芯
  6
CONTINUOUS
 62
    7
 10
3317.3823000000002
 20
2257.7961
 11
2817.3823000000002
 21
2257.7961
  0
LINE
  8
_0-0_通り芯
  6
CONTINUOUS
 62
    7
 10
3505.8208999999997
 20
2257.7961
 11
3505.8208999999997
 21
1617.7961
  0
POINT
  8
_0-0_通り芯
 62
    7
 10
3505.8208999999997
 20
2257.7961
  0
POINT
  8
_0-0_通り芯
 62
    7
 10
3505.8208999999997
 20
1617.7961
  0
LINE
  8
_0-0_通り芯
  6
CONTINUOUS
 62
    7
 10
3505.8208999999997
 20
2257.7961
 11
3368.1046000000006
 21
2257.7961
  0
LINE
  8
_0-0_通り芯
  6
CONTINUOUS
 62
    7
 10
3505.8208999999997
 20
1617.7961
 11
3368.1046000000006
 21
1617.7961
  0
LINE
  8
_0-0_通り芯
  6
CONTINUOUS
 62
    7
 10
2817.3823000000002
 20
2330.8036000000002
 11
2817.3823000000002
 21
2227.0003999999999
  0
LINE
  8
_0-0_通り芯
  6
CONTINUOUS
 62
    7
 10
3317.3823000000002
 20
2343.2741000000001
 11
3197.3823000000002
 21
2343.2741000000001
  0
POINT
  8
_0-0_通り芯
 62
    7
 10
3317.3823000000002
 20
2343.2741000000001
  0
POINT
  8
_0-0_通り芯
 62
    7
 10
3197.3823000000002
 20
2343.2741000000001
  0
LINE
  8
_0-0_通り芯
  6
CONTINUOUS
 62
    7
 10
3317.3823000000002
 20
2343.2741000000001
 11
3317.3823000000002
 21
2265.6718000000001
  0
LINE
  8
_0-0_通り芯
  6
CONTINUOUS
 62
    7
 10
3197.3823000000002
 20
2343.2741000000001
 11
3197.3823000000002
 21
2265.6718000000001
  0
LINE
  8
_0-0_通り芯
  6
CONTINUOUS
 62
    7
 10
3197.3823000000002
 20
2343.2741000000001
 11
2437.3823000000002
 21
2343.2741000000001
  0
POINT
  8
_0-0_通り芯
 62
    7
 10
2437.3823000000002
 20
2343.2741000000001
  0
LINE
  8
_0-0_通り芯
  6
CONTINUOUS
 62
    7
 10
2437.3823000000002
 20
2343.2741000000001
 11
2437.3823000000002
 21
2265.6718000000001
  0
LINE
  8
_0-0_通り芯
  6
CONTINUOUS
 62
    7
 10
2437.3823000000002
 20
2343.2741000000001
 11
2317.3823000000002
 21
2343.2741000000001
  0
POINT
  8
_0-0_通り芯
 62
    7
 10
2317.3823000000002
 20
2343.2741000000001
  0
LINE
  8
_0-0_通り芯
  6
CONTINUOUS
 62
    7
 10
2317.3823000000002
 20
2343.2741000000001
 11
2317.3823000000002
 21
2265.6718000000001
  0
LINE
  8
_0-0_通り芯
  6
CONTINUOUS
 62
    7
 10
2377.3823000000002
 20
2212.7961
 11
2817.3823000000002
 21
2212.7961
  0
LINE
  8
_0-0_通り芯
  6
CONTINUOUS
 62
    7
 10
2729.3823000000002
 20
2174.7961
 11
2729.3823000000002
 21
2212.7961
  0
LINE
  8
_0-0_通り芯
  6
CONTINUOUS
 62
    7
 10
2641.3823000000002
 20
2174.7961
 11
2641.3823000000002
 21
2212.7961
  0
LINE
  8
_0-0_通り芯
  6
CONTINUOUS
 62
    7
 10
2553.3823000000002
 20
2174.7961
 11
2553.3823000000002
 21
2212.7961
  0
LINE
  8
_0-0_通り芯
  6
CONTINUOUS
 62
    7
 10
2465.3823000000002
 20
2174.7961
 11
2465.3823000000002
 21
2212.7961
  0
LINE
  8
_0-0_通り芯
  6
CONTINUOUS
 62
    7
 10
2817.3823000000002
 20
2207.7961
 11
3257.3823000000002
 21
2207.7961
  0
LINE
  8
_0-0_通り芯
  6
CONTINUOUS
 62
    7
 10
2817.3823000000002
 20
2169.7961
 11
3257.3823000000002
 21
2169.7961
  0
LINE
  8
_0-0_通り芯
  6
CONTINUOUS
 62
    7
 10
3257.3823000000002
 20
2169.7961
 11
3257.3823000000002
 21
2207.7961
  0
LINE
  8
_0-0_通り芯
  6
CONTINUOUS
 62
    7
 10
3169.3823000000002
 20
2169.7961
 11
3169.3823000000002
 21
2207.7961
  0
LINE
  8
_0-0_通り芯
  6
CONTINUOUS
 62
    7
 10
3081.3823000000002
 20
2169.7961
 11
3081.3823000000002
 21
2207.7961
  0
LINE
  8
_0-0_通り芯
  6
CONTINUOUS
 62
    7
 10
2993.3823000000002
 20
2169.7961
 11
2993.3823000000002
 21
2207.7961
  0
LINE
  8
_0-0_通り芯
  6
CONTINUOUS
 62
    7
 10
2905.3823000000002
 20
2169.7961
 11
2905.3823000000002
 21
2207.7961
  0
LINE
  8
_0-0_通り芯
  6
CONTINUOUS
 62
    7
 10
2317.3823000000002
 20
1532.9232
 11
3317.3823000000002
 21
1532.9232
  0
POINT
  8
_0-0_通り芯
 62
    7
 10
2317.3823000000002
 20
1532.9232
  0
POINT
  8
_0-0_通り芯
 62
    7
 10
3317.3823000000002
 20
1532.9232
  0
LINE
  8
_0-0_通り芯
  6
CONTINUOUS
 62
    7
 10
2317.3823000000002
 20
1532.9232
 11
2317.3823000000002
 21
1604.1095999999998
  0
LINE
  8
_0-0_通り芯
  6
CONTINUOUS
 62
    7
 10
3317.3823000000002
 20
1532.9232
 11
3317.3823000000002
 21
1604.1095999999998
  0
TEXT
  8
_0-0_通り芯
 62
    7
 10
1201.4133252041743
 20
2514.779359746633
 40
30
 41
1
 50
0
  1
①
  0
TEXT
  8
_0-0_通り芯
 62
    7
 10
1538.25904456013
 20
2514.779359746633
 40
30
 41
1
 50
0
  1
②
  0
TEXT
  8
_0-0_通り芯
 62
    7
 10
1185.3602959762502
 20
1497.4405521209437
 40
30
 41
1
 50
0
  1
①'
  0
TEXT
  8
_0-0_通り芯
 62
    7
 10
1535.4144992831998
 20
1497.9944353540245
 40
30
 41
1
 50
0
  1
②'
  0
TEXT
  8
_0-0_通り芯
 62
    7
 10
1352.2651921745155
 20
2455.1105869113571
 40
30
 41
1
 50
0
  1
420
  0
TEXT
  8
_0-0_通り芯
 62
    7
 10
1206.2119113573408
 20
2393.5391057825482
 40
30
 41
1
 50
0
  1
80
  0
TEXT
  8
_0-0_通り芯
 62
    7
 10
1536.9796355609419
 20
2394.9710006925206
 40
30
 41
1
 50
0
  1
80
  0
LINE
  8
_0-0_通り芯
  6
CONTINUOUS
 62
    7
 10
1262.5995
 20
2393.9213
 11
1262.5995
 21
2330.8036000000002
  0
LINE
  8
_0-0_通り芯
  6
CONTINUOUS
 62
    7
 10
1512.5995
 20
2393.9213
 11
1512.5995
 21
2330.8036000000002
  0
TEXT
  8
_0-0_通り芯
 62
    7
 10
1355.12898199446
 20
2394.9710006925206
 40
30
 41
1
 50
0
  1
250
  0
TEXT
  8
_0-0_通り芯
 62
    7
 10
1273.510972126039
 20
2334.8314144736842
 40
30
 41
1
 50
0
  1
250
  0
TEXT
  8
_0-0_通り芯
 62
    7
 10
1521.2287915512466
 20
2330.5357297437672
 40
30
 41
1
 50
0
  1
170
  0
TEXT
  8
_0-0_通り芯
 62
    7
 10
1186.1653826177285
 20
1551.5848987188365
 40
30
 41
1
 50
0
  1
70
  0
TEXT
  8
_0-0_通り芯
 62
    7
 10
1547.0028999307478
 20
1551.5848987188365
 40
30
 41
1
 50
0
  1
70
  0
TEXT
  8
_0-0_通り芯
 62
    7
 10
1357.9927718144045
 20
1551.5848987188365
 40
30
 41
1
 50
0
  1
280
  0
TEXT
  8
_0-0_通り芯
 62
    7
 10
1052.9991559903046
 20
1905.2629414819944
 40
30
 41
1
 50
90
  1
595
  0
TEXT
  8
_0-0_通り芯
 62
    7
 10
1118.8663218490306
 20
2148.6850761772853
 40
30
 41
1
 50
90
  1
85
  0
TEXT
  8
_0-0_通り芯
 62
    7
 10
1118.8663218490306
 20
1968.2663175207756
 40
30
 41
1
 50
90
  1
250
  0
TEXT
  8
_0-0_通り芯
 62
    7
 10
1118.8663218490306
 20
1710.5252337257616
 40
30
 41
1
 50
90
  1
260
  0
TEXT
  8
_0-0_通り芯
 62
    7
 10
1768.9466109764544
 20
1910.9905211218836
 40
30
 41
1
 50
90
  1
640
  0
LINE
  8
_0-0_通り芯
  6
CONTINUOUS
 62
    7
 10
1317.505629222896
 20
1929.5768938677743
 11
1452.3392597915376
 21
2029.8377986495846
  0
LINE
  8
_0-0_通り芯
  6
CONTINUOUS
 62
    7
 10
1317.505629222896
 20
1929.5768938677743
 11
1336.1260610093636
 21
1953.0987883511168
  0
LINE
  8
_0-0_通り芯
  6
CONTINUOUS
 62
    7
 10
1317.505629222896
 20
1929.5768938677743
 11
1345.3923434210835
 21
1940.6372361422518
  0
LINE
  8
_0-0_通り芯
  6
CONTINUOUS
 62
    7
 10
1275.4421461822515
 20
2092.0687050658803
 11
1354.3832033955159
 21
2037.904767999845
  0
LINE
  8
_0-0_通り芯
  6
CONTINUOUS
 62
    7
 10
1275.4421461822515
 20
2092.0687050658803
 11
1303.7292052802031
 21
2082.0765937980359
  0
LINE
  8
_0-0_通り芯
  6
CONTINUOUS
 62
    7
 10
1275.4421461822515
 20
2092.0687050658803
 11
1294.9434023255069
 21
2069.27175332151
  0
TEXT
  8
_0-0_通り芯
 62
    7
 10
1311.6190611352088
 20
2071.9886493754943
 40
30
 41
1
 50
-34.455241120000032
  1
60
  0
TEXT
  8
_0-0_通り芯
 62
    7
 10
1377.9872864993604
 20
1975.5668879973871
 40
30
 41
1
 50
36.634113880000015
  1
170
  0
TEXT
  8
_0-0_通り芯
 62
    7
 10
1231.4762984313275
 20
2223.5085601125202
 40
30
 41
1
 50
-1.8475211100000382
  1
2％
  0
LINE
  8
_0-0_通り芯
  6
CONTINUOUS
 62
    7
 10
1367.5995
 20
2121.4947000000002
 11
1407.5995
 21
2121.4947000000002
  0
LINE
  8
_0-0_通り芯
  6
CONTINUOUS
 62
    7
 10
1215.5995
 20
2168.4947000000002
 11
1215.5995
 21
2206.4947000000002
  0
LINE
  8
_0-0_通り芯
  6
CONTINUOUS
 62
    7
 10
1215.5995
 20
2206.4947000000002
 11
1177.5996
 21
2206.4947000000002
  0
LINE
  8
_0-0_通り芯
  6
CONTINUOUS
 62
    7
 10
1345.5995000000003
 20
2168.4947000000002
 11
1215.5995
 21
2168.4947000000002
  0
LINE
  8
_0-0_通り芯
  6
CONTINUOUS
 62
    7
 10
1320.5995000000003
 20
2170.4947000000002
 11
1320.5995000000003
 21
2208.4947000000002
  0
LINE
  8
_0-0_通り芯
  6
CONTINUOUS
 62
    7
 10
1293.5995
 20
2170.4947000000002
 11
1293.5995
 21
2208.4947000000002
  0
LINE
  8
_0-0_通り芯
  6
CONTINUOUS
 62
    7
 10
1266.5995
 20
2170.4947000000002
 11
1266.5995
 21
2208.4947000000002
  0
LINE
  8
_0-0_通り芯
  6
CONTINUOUS
 62
    7
 10
1239.5994999999998
 20
2170.4947000000002
 11
1239.5994999999998
 21
2208.4947000000002
  0
LINE
  8
_0-0_通り芯
  6
CONTINUOUS
 62
    7
 10
1219.5994999999998
 20
2170.4947000000002
 11
1219.5994999999998
 21
2208.4947000000002
  0
LINE
  8
_0-0_通り芯
  6
CONTINUOUS
 62
    7
 10
1347.5995
 20
2170.4947000000002
 11
1219.5994999999998
 21
2170.4947000000002
  0
LINE
  8
_0-0_通り芯
  6
CONTINUOUS
 62
    7
 10
1219.5994999999998
 20
2208.4947000000002
 11
1347.5995
 21
2208.4947000000002
  0
LINE
  8
_0-0_通り芯
  6
CONTINUOUS
 62
    7
 10
1247.4208000000001
 20
1621.9404
 11
1267.4775614497598
 21
2168.4947000000006
  0
LINE
  8
_0-0_通り芯
  6
CONTINUOUS
 62
    7
 10
1407.8174648970839
 20
2168.5862622848895
 11
1427.5995999999998
 21
2121.4947000000002
  0
TEXT
  8
_0-0_通り芯
 62
    7
 10
2233.9084348883443
 20
2468.4236784624654
 40
30
 41
1
 50
0
  1
①　-　①’　　　　　　　　　　　　　　　　　　　　　　②　-　②’
  0
TEXT
  8
_0-0_通り芯
 62
    7
 10
2363.1286326314162
 20
2344.3722886291162
 40
30
 41
1
 50
0
  1
120
  0
TEXT
  8
_0-0_通り芯
 62
    7
 10
2768.8800535446617
 20
2346.9566925839781
 40
30
 41
1
 50
0
  1
760
  0
TEXT
  8
_0-0_通り芯
 62
    7
 10
3234.0727654197199
 20
2344.3722886291162
 40
30
 41
1
 50
0
  1
120
  0
TEXT
  8
_0-0_通り芯
 62
    7
 10
2094.350621325827
 20
1907.608020257534
 40
30
 41
1
 50
90
  1
595
  0
TEXT
  8
_0-0_通り芯
 62
    7
 10
2183.8696135780997
 20
2147.0224418917701
 40
30
 41
1
 50
90
  1
85
  0
TEXT
  8
_0-0_通り芯
 62
    7
 10
2184.974786321955
 20
1970.1948028749348
 40
30
 41
1
 50
90
  1
250
  0
TEXT
  8
_0-0_通り芯
 62
    7
 10
2182.7644408342444
 20
1714.8998990443795
 40
30
 41
1
 50
90
  1
260
  0
TEXT
  8
_0-0_通り芯
 62
    7
 10
2789.6186054256414
 20
1488.3499666404239
 40
30
 41
1
 50
0
  1
1000
  0
LINE
  8
_0-0_通り芯
  6
CONTINUOUS
 62
    7
 10
2817.3823000000002
 20
2227.0003999999999
 11
2817.3823000000002
 21
1594.615184167475
  0
TEXT
  8
_0-0_通り芯
 62
    7
 10
3539.1401992852834
 20
1934.7915715192339
 40
30
 41
1
 50
90
  1
640
  0
TEXT
  8
_0-0_通り芯
 62
    7
 10
3452.1815126594515
 20
2176.1992687193024
 40
30
 41
1
 50
90
  1
130
  0
TEXT
  8
_0-0_通り芯
 62
    7
 10
3452.1815126594515
 20
1965.9409518031139
 40
30
 41
1
 50
90
  1
250
  0
TEXT
  8
_0-0_通り芯
 62
    7
 10
3450.8836218142906
 20
1727.1290362933689
 40
30
 41
1
 50
90
  1
260
  0
LINE
  8
_0-0_通り芯
  6
CONTINUOUS
 62
    7
 10
2419.9972314484621
 20
1986.6789277164962
 11
2419.9972314484621
 21
2006.7987277164962
  0
LINE
  8
_0-0_通り芯
  6
CONTINUOUS
 62
    7
 10
2419.9972314484621
 20
1946.8403277164964
 11
2459.8603314484621
 21
1956.6226277164965
  0
LINE
  8
_0-0_通り芯
  6
CONTINUOUS
 62
    7
 10
2419.9972314484621
 20
1946.8403277164964
 11
2419.9972314484621
 21
1966.7268277164965
  0
LINE
  8
_0-0_通り芯
  6
CONTINUOUS
 62
    7
 10
2459.9011314484624
 20
1956.6327277164964
 11
2459.9011314484624
 21
1996.5792277164965
  0
LINE
  8
_0-0_通り芯
  6
CONTINUOUS
 62
    7
 10
2419.9559314484623
 20
2006.8091277164965
 11
2459.9011314484624
 21
1996.5792277164965
  0
LINE
  8
_0-0_通り芯
  6
CONTINUOUS
 62
    7
 10
2317.3823000000002
 20
1966.7268277164965
 11
2419.9972314484621
 21
1966.7268277164965
  0
LINE
  8
_0-0_通り芯
  6
CONTINUOUS
 62
    7
 10
2317.3823000000002
 20
1986.6789277164962
 11
2419.9972314484621
 21
1986.6789277164962
  0
LINE
  8
_0-0_通り芯
  6
CONTINUOUS
 62
    7
 10
3218.2904171182327
 20
1966.7101416407736
 11
3218.2904171182327
 21
1946.5903416407737
  0
LINE
  8
_0-0_通り芯
  6
CONTINUOUS
 62
    7
 10
3218.2904171182327
 20
2006.5487416407736
 11
3178.4273171182326
 21
1996.7664416407738
  0
LINE
  8
_0-0_通り芯
  6
CONTINUOUS
 62
    7
 10
3218.2904171182327
 20
2006.5487416407736
 11
3218.2904171182327
 21
1986.6622416407736
  0
LINE
  8
_0-0_通り芯
  6
CONTINUOUS
 62
    7
 10
3178.3865171182333
 20
1996.7563416407736
 11
3178.3865171182333
 21
1956.8098416407736
  0
LINE
  8
_0-0_通り芯
  6
CONTINUOUS
 62
    7
 10
3218.331717118233
 20
1946.5799416407735
 11
3178.3865171182333
 21
1956.8098416407736
  0
LINE
  8
_0-0_通り芯
  6
CONTINUOUS
 62
    7
 10
3317.3823000000002
 20
1986.6622416407736
 11
3218.2904171182327
 21
1986.6622416407736
  0
LINE
  8
_0-0_通り芯
  6
CONTINUOUS
 62
    7
 10
3317.3823000000002
 20
1966.7101416407736
 11
3218.2904171182327
 21
1966.7101416407736
  0
LINE
  8
_0-0_通り芯
  6
CONTINUOUS
 62
    7
 10
2690.3665968113478
 20
2048.8404657074057
 11
2690.3665968113478
 21
2088.7446657074061
  0
LINE
  8
_0-0_通り芯
  6
CONTINUOUS
 62
    7
 10
2690.3665968113478
 20
2048.8404657074057
 11
2939.7665968113479
 21
2048.8404657074057
  0
LINE
  8
_0-0_通り芯
  6
CONTINUOUS
 62
    7
 10
2939.7665968113479
 20
2048.8404657074057
 11
2939.7665968113479
 21
2088.7446657074061
  0
LINE
  8
_0-0_通り芯
  6
CONTINUOUS
 62
    7
 10
2690.3779968113481
 20
2088.7174657074056
 11
2705.2703968113478
 21
2078.7888657074059
  0
LINE
  8
_0-0_通り芯
  6
CONTINUOUS
 62
    7
 10
2705.2703968113478
 20
2078.7888657074059
 11
2715.0610968113479
 21
2068.860665707406
  0
LINE
  8
_0-0_通り芯
  6
CONTINUOUS
 62
    7
 10
2715.0610968113479
 20
2068.860665707406
 11
2690.3779968113481
 21
2048.8657657074059
  0
LINE
  8
_0-0_通り芯
  6
CONTINUOUS
 62
    7
 10
2924.8281968113479
 20
2078.9049657074061
 11
2914.7078968113474
 21
2069.1946657074059
  0
LINE
  8
_0-0_通り芯
  6
CONTINUOUS
 62
    7
 10
2914.7078968113474
 20
2069.1946657074059
 11
2939.2969968113484
 21
2048.8404657074057
  0
LINE
  8
_0-0_通り芯
  6
CONTINUOUS
 62
    7
 10
2939.5203968113483
 20
2088.7446657074061
 11
2924.8281968113479
 21
2078.9049657074061
  0
LINE
  8
_0-0_通り芯
  6
CONTINUOUS
 62
    7
 10
2705.3010968113485
 20
2078.7685657074057
 11
2924.6247968113485
 21
2078.7685657074057
  0
LINE
  8
_0-0_通り芯
  6
CONTINUOUS
 62
    7
 10
2715.1283968113476
 20
2068.7925657074061
 11
2914.2889968113477
 21
2068.7925657074061
  0
LINE
  8
_0-0_通り芯
  6
CONTINUOUS
 62
    7
 10
2690.3665968113478
 20
2088.7446657074061
 11
2939.7665968113479
 21
2088.7446657074061
  0
TEXT
  8
_0-0_通り芯
 62
    7
 10
657.33552631578959
 20
742.5
 40
40
 41
1
 50
0
  1
名称
  0
TEXT
  8
_0-0_通り芯
 62
    7
 10
927.63157894736855
 20
745.75657894736855
 40
40
 41
1
 50
0
  1
クリーン側溝　250ALM
  0
TEXT
  8
_0-0_通り芯
 62
    7
 10
1618.0263157894738
 20
742.5
 40
40
 41
1
 50
0
  1
分類
  0
TEXT
  8
_0-0_通り芯
 62
    7
 10
2161.6316923774953
 20
745.10151996370246
 40
40
 41
1
 50
0
  1
図番
  0
TEXT
  8
_0-0_通り芯
 62
    7
 10
2482.3298548094372
 20
744.02535163339394
 40
40
 41
1
 50
0
  1
参考重量
  0
TEXT
  8
_0-0_通り芯
 62
    7
 10
2751.3719373865697
 20
742.94918330308531
 40
40
 41
1
 50
0
  1
285㎏
  0
TEXT
  8
_0-0_通り芯
 62
    7
 10
3058.0799115245009
 20
748.33002495462802
 40
40
 41
1
 50
0
  1
岩城ブロック工業式会社
  0
TEXT
  8
_0-0_通り芯
 62
    7
 10
1855.7565789473686
 20
742.5
 40
40
 41
1
 50
0
  1
乗入型桝
  0
LINE
  8
_0-0_通り芯
  6
CONTINUOUS
 62
    7
 10
1597.5995
 20
2258.4947000000002
 11
1432.7077277838318
 21
2229.7562351612637
  0
LINE
  8
_0-0_通り芯
  6
CONTINUOUS
 62
    7
 10
1432.7077277838316
 20
2229.7562351612637
 11
1429.5994999999998
 21
2208.4947000000002
  0
TEXT
  8
_0-0_通り芯
 62
    7
 10
1704.511340027701
 20
2211.6884522160667
 40
30
 41
1
 50
90
  1
17
  0
TEXT
  8
_0-0_通り芯
 62
    7
 10
1701.6475502077562
 20
1903.8310465720222
 40
30
 41
1
 50
90
  1
590
  0
TEXT
  8
_0-0_通り芯
 62
    7
 10
898.82986982773559
 20
2586.1642329250344
 40
50
 41
1
 50
0
  1
断面図
  0
TEXT
  8
_0-0_通り芯
 62
    7
 10
2032.1635322887814
 20
2586.1642329250344
 40
50
 41
1
 50
0
  1
側面図
  0
ENDSEC
  0
EOF
