  0
SECTION
  2
HEADER
  9
$ACADVER
  1
AC1009
  9
$INSBASE
 10
0
 20
0
 30
0
  9
$EXTMIN
 10
0
 20
0
  9
$EXTMAX
 10
4200
 20
2970
  9
$LIMMIN
 10
0
 20
0
  9
$LIMMAX
 10
4200
 20
2970
  9
$LTSCALE
 40
10
  0
ENDSEC
  0
SECTION
  2
TABLES
  0
TABLE
  2
LTYPE
 70
     9
  0
LTYPE
  2
CONTINUOUS
 70
    64
  3
実線
 72
    65
 73
     0
 40
0.0
  0
LTYPE
  2
DASHED1
 70
    64
  3
--  --  --  --  --  --  --  --  
 72
    65
 73
     2
 40
2.5
 49
1.25
 49
-1.25
  0
LTYPE
  2
DASHED2
 70
    64
  3
----    ----    ----    ----    
 72
    65
 73
     2
 40
5.0
 49
2.5
 49
-2.5
  0
LTYPE
  2
DASHED3
 70
    64
  3
------  ------  ------  ------  
 72
    65
 73
     2
 40
5.0
 49
3.75
 49
-1.25
  0
LTYPE
  2
CENTER1
 70
    64
  3
----- - ----- - ----- - ----- - 
 72
    65
 73
     4
 40
10.0
 49
6.25
 49
-1.25
 49
1.25
 49
-1.25
  0
LTYPE
  2
CENTER2
 70
    64
  3
----------  --  ----------  --  
 72
    65
 73
     4
 40
20.0
 49
12.5
 49
-2.5
 49
2.5
 49
-2.5
  0
LTYPE
  2
PHANTOM1
 70
    64
  3
--- - - --- - - --- - - --- - - 
 72
    65
 73
     6
 40
10.0
 49
3.25
 49
-1.25
 49
1.25
 49
-1.25
 49
1.25
 49
-1.25
  0
LTYPE
  2
PHANTOM2
 70
    64
  3
--------  -  -  --------  -  -  
 72
    65
 73
     6
 40
20.0
 49
10.0
 49
-2.5
 49
1.25
 49
-2.5
 49
1.25
 49
-2.5
  0
LTYPE
  2
DOT
 70
    64
  3
-   -   -   -   -   -   -   -   
 72
    65
 73
     2
 40
2.5
 49
0.625
 49
-1.875
  0
LTYPE
  2
DUMMY
 70
    64
  3
ダミー
 72
    65
 73
     0
 40
0.0
  0
LTYPE
  2
RAND1
 70
    64
  3
ランダム線1
 72
    65
 73
     4
 40
10.0
 49
1.0
 49
-2.0
 49
3.0
 49
-4.0
  0
LTYPE
  2
RAND2
 70
    64
  3
ランダム線2
 72
    65
 73
     4
 40
14.0
 49
2.0
 49
-3.0
 49
4.0
 49
-5.0
  0
LTYPE
  2
RAND3
 70
    64
  3
ランダム線3
 72
    65
 73
     4
 40
18.0
 49
3.0
 49
-4.0
 49
5.0
 49
-6.0
  0
LTYPE
  2
RAND4
 70
    64
  3
ランダム線4
 72
    65
 73
     4
 40
22.0
 49
4.0
 49
-5.0
 49
6.0
 49
-7.0
  0
LTYPE
  2
RAND5
 70
    64
  3
ランダム線5
 72
    65
 73
     4
 40
26.0
 49
5.0
 49
-6.0
 49
7.0
 49
-8.0
  0
LTYPE
  2
LONG1
 70
    64
  3
----------  --  ----------  --  
 72
    65
 73
     4
 40
40.0
 49
32.5
 49
-2.5
 49
2.5
 49
-2.5
  0
LTYPE
  2
LONG2
 70
    64
  3
--------  -  -  --------  -  -  
 72
    65
 73
     6
 40
40.0
 49
30.0
 49
-2.5
 49
1.25
 49
-2.5
 49
1.25
 49
-2.5
  0
LTYPE
  2
LONG3
 70
    64
  3
+++++++++++++++..+++++++++++++++
 72
    65
 73
     2
 40
40.0
 49
37.5
 49
-2.5
  0
LTYPE
  2
LONG4
 70
    64
  3
+++++++++++++++..+++++++++++++++
 72
    65
 73
     2
 40
80.0
 49
75.0
 49
-5.0
  0
LTYPE
  2
LONG5
 70
    64
  3
----------  --  ----------  --  
 72
    65
 73
     4
 40
60.0
 49
37.5
 49
-7.5
 49
7.5
 49
-7.5
  0
LTYPE
  2
dashed
 70
   64
  3
-------   -------------   ------
 72
   65
 73
    2
 40
7.5
 49
6
 49
-1.5
  0
LTYPE
  2
dashed_spaced
 70
   64
  3
----        --------        ----
 72
   65
 73
    2
 40
12
 49
6
 49
-6
  0
LTYPE
  2
long_dashed_dotted
 70
   64
  3
------------- --- --------------
 72
   65
 73
    4
 40
15.25
 49
12
 49
-1.5
 49
0.25
 49
-1.5
  0
LTYPE
  2
long_dashed_double-dotted
 70
   64
  3
----------- --- --- ------------
 72
   65
 73
    6
 40
17
 49
12
 49
-1.5
 49
0.25
 49
-1.5
 49
0.25
 49
-1.5
  0
LTYPE
  2
long_dashed_triplicate-dotted
 70
   64
  3
--------- --- --- --- ----------
 72
   65
 73
    8
 40
18.75
 49
12
 49
-1.5
 49
0.25
 49
-1.5
 49
0.25
 49
-1.5
 49
0.25
 49
-1.5
  0
LTYPE
  2
dotted
 70
   64
  3
   -       -       -       -    
 72
   65
 73
    2
 40
1.75
 49
0.25
 49
-1.5
  0
LTYPE
  2
chain
 70
   64
  3
-------------- -- --------------
 72
   65
 73
    4
 40
18.5
 49
12
 49
-1.5
 49
3.5
 49
-1.5
  0
LTYPE
  2
chain_double_dash
 70
   64
  3
------------ -- -- -------------
 72
   65
 73
    6
 40
23.5
 49
12
 49
-1.5
 49
3.5
 49
-1.5
 49
3.5
 49
-1.5
  0
LTYPE
  2
dashed_dotted
 70
   64
  3
-----------     -     ----------
 72
   65
 73
    4
 40
9.25
 49
6
 49
-1.5
 49
0.25
 49
-1.5
  0
LTYPE
  2
double-dashed_dotted
 70
   64
  3
------   -----------   -   -----
 72
   65
 73
    6
 40
16.75
 49
6
 49
-1.5
 49
6
 49
-1.5
 49
0.25
 49
-1.5
  0
LTYPE
  2
dashed_double-dotted
 70
   64
  3
---------    -    -    ---------
 72
   65
 73
    6
 40
11
 49
6
 49
-1.5
 49
0.25
 49
-1.5
 49
0.25
 49
-1.5
  0
LTYPE
  2
double-dashed_double-dotted
 70
   64
  3
-----   ---------   -   -   ----
 72
   65
 73
    8
 40
18.5
 49
6
 49
-1.5
 49
6
 49
-1.5
 49
0.25
 49
-1.5
 49
0.25
 49
-1.5
  0
LTYPE
  2
dashed_triplicate-dotted
 70
   64
  3
-------    -    -    -    ------
 72
   65
 73
    8
 40
12.75
 49
6
 49
-1.5
 49
0.25
 49
-1.5
 49
0.25
 49
-1.5
 49
0.25
 49
-1.5
  0
LTYPE
  2
double-dashed_triplicate-dotted
 70
   64
  3
-----  ---------  -  -  -  -----
 72
   65
 73
   10
 40
20.25
 49
6
 49
-1.5
 49
6
 49
-1.5
 49
0.25
 49
-1.5
 49
0.25
 49
-1.5
 49
0.25
 49
-1.5
  0
LTYPE
  2
undefined
 70
   64
  3
--------------------------------
 72
   65
 73
    0
 40
0
  0
LTYPE
  2
_
 70
   64
  3
                                
 72
   65
 73
    0
 40
0
  0
LTYPE
  2
__18
 70
   64
  3
                                
 72
   65
 73
    0
 40
0
  0
LTYPE
  2
__19
 70
   64
  3
                                
 72
   65
 73
    0
 40
0
  0
LTYPE
  2
__20
 70
   64
  3
                                
 72
   65
 73
    0
 40
0
  0
LTYPE
  2
__21
 70
   64
  3
                                
 72
   65
 73
    0
 40
0
  0
LTYPE
  2
__22
 70
   64
  3
                                
 72
   65
 73
    0
 40
0
  0
LTYPE
  2
__23
 70
   64
  3
                                
 72
   65
 73
    0
 40
0
  0
LTYPE
  2
__24
 70
   64
  3
                                
 72
   65
 73
    0
 40
0
  0
LTYPE
  2
__25
 70
   64
  3
                                
 72
   65
 73
    0
 40
0
  0
LTYPE
  2
__26
 70
   64
  3
                                
 72
   65
 73
    0
 40
0
  0
LTYPE
  2
__27
 70
   64
  3
                                
 72
   65
 73
    0
 40
0
  0
LTYPE
  2
__28
 70
   64
  3
                                
 72
   65
 73
    0
 40
0
  0
LTYPE
  2
__29
 70
   64
  3
                                
 72
   65
 73
    0
 40
0
  0
LTYPE
  2
__30
 70
   64
  3
                                
 72
   65
 73
    0
 40
0
  0
LTYPE
  2
__31
 70
   64
  3
                                
 72
   65
 73
    0
 40
0
  0
LTYPE
  2
__32
 70
   64
  3
                                
 72
   65
 73
    0
 40
0
  0
ENDTAB
  0
TABLE
  2
STYLE
  5
3
100
AcDbSymbolTable
 70
     1
  0
STYLE
  5
10
100
AcDbSymbolTableRecord
100
AcDbTextStyleTableRecord
  2
STANDARD
 70
     0
 40
0.0
 41
1.0
 50
0.0
 71
     0
 42
0.2
  3
txt
  4
bigfont.shx
  0
STYLE
  5
26
100
AcDbSymbolTableRecord
100
AcDbTextStyleTableRecord
  2
TATEGAKI
 70
    68
 40
0.0
 41
1.0
 50
0.0
 71
     0
 42
1.0
  3
txt
  4
bigfont.shx
  0
ENDTAB
  0
TABLE
  2
LAYER
 70
    2
  0
LAYER
  2
_0-0_通り芯
 70
   64
 62
    7
  6
CONTINUOUS
  0
LAYER
  2
ADD_LINE
 70
   64
 62
    7
  6
CONTINUOUS
  0
ENDTAB
  0
ENDSEC
  0
SECTION
  2
BLOCKS
  0
ENDSEC
  0
SECTION
  2
ENTITIES
  0
TEXT
  8
_0-0_通り芯
 62
    7
 10
1158.7332223987826
 20
2153.3931756410202
 40
30
 41
1
 50
0
  1
80
  0
TEXT
  8
_0-0_通り芯
 62
    7
 10
1021.6806298066678
 20
2039.9316030852528
 40
30
 41
1
 50
-1.8475211100000382
  1
2％
  0
TEXT
  8
_0-0_通り芯
 62
    7
 10
1280.0584682999993
 20
1991.6261811060649
 40
30
 41
1
 50
90
  1
38
  0
TEXT
  8
_0-0_通り芯
 62
    7
 10
892.49171056000205
 20
1965.7883972567315
 40
30
 41
1
 50
90
  1
90
  0
TEXT
  8
_0-0_通り芯
 62
    7
 10
1483.3905933751862
 20
2033.1913116462965
 40
30
 41
1
 50
90
  1
50
  0
TEXT
  8
_0-0_通り芯
 62
    7
 10
1900.2059244933989
 20
2169.2214249931526
 40
30
 41
1
 50
0
  1
400
  0
TEXT
  8
_0-0_通り芯
 62
    7
 10
2452.1068988170719
 20
2167.9613771065688
 40
30
 41
1
 50
0
  1
600
  0
TEXT
  8
_0-0_通り芯
 62
    7
 10
1985.8891807810926
 20
1532.8972422683696
 40
30
 41
1
 50
0
  1
500
  0
TEXT
  8
_0-0_通り芯
 62
    7
 10
2465.9674255694927
 20
1532.8972422683696
 40
30
 41
1
 50
0
  1
500
  0
TEXT
  8
_0-0_通り芯
 62
    7
 10
2181.1966032015703
 20
1474.9350394855182
 40
30
 41
1
 50
0
  1
1000
  0
TEXT
  8
_0-0_通り芯
 62
    7
 10
2999.8085930949833
 20
1947.0874380589819
 40
30
 41
1
 50
90
  1
90
  0
TEXT
  8
_0-0_通り芯
 62
    7
 10
3595.7351326291109
 20
2007.255756156796
 40
30
 41
1
 50
90
  1
10
  0
TEXT
  8
_0-0_通り芯
 62
    7
 10
3365.0814186851562
 20
1986.7275477285727
 40
30
 41
1
 50
90
  1
38
  0
TEXT
  8
_0-0_通り芯
 62
    7
 10
3117.2737739489862
 20
2033.5405931787398
 40
30
 41
1
 50
-1.8475190839999727
  1
2％
  0
TEXT
  8
_0-0_通り芯
 62
    7
 10
3390.3653108907874
 20
2048.3022978782965
 40
30
 41
1
 50
6.0748893569999849
  1
10％
  0
TEXT
  8
_0-0_通り芯
 62
    7
 10
3283.8701555582702
 20
2027.2141483075011
 40
30
 41
1
 50
0
  1
10
  0
TEXT
  8
_0-0_通り芯
 62
    7
 10
3263.8364134660146
 20
2130.5460812043984
 40
30
 41
1
 50
0
  1
80
  0
TEXT
  8
_0-0_通り芯
 62
    7
 10
1640.8223684210525
 20
2387.0723684210525
 40
50
 41
1
 50
0
  1
側  面  図
  0
TEXT
  8
_0-0_通り芯
 62
    7
 10
673.61842105263145
 20
2396.8421052631579
 40
50
 41
1
 50
0
  1
断  面  図
  0
LINE
  8
_0-0_通り芯
  6
CONTINUOUS
 62
    7
 10
3067.4528
 20
2184.6023000000005
 11
3487.4526999999998
 21
2184.6023000000005
  0
LINE
  8
_0-0_通り芯
  6
CONTINUOUS
 62
    7
 10
1453.5127
 20
1689.4682
 11
1453.5127
 21
1939.4682
  0
LINE
  8
_0-0_通り芯
  6
CONTINUOUS
 62
    7
 10
963.8849399999998
 20
1485.5422000000001
 11
1383.8849
 21
1485.5422000000001
  0
LINE
  8
_0-0_通り芯
  6
CONTINUOUS
 62
    7
 10
1816.4411999999998
 20
1822.2854000000002
 11
1816.4411999999998
 21
1842.4052000000001
  0
LINE
  8
_0-0_通り芯
  6
CONTINUOUS
 62
    7
 10
1816.4411999999998
 20
1782.4467
 11
1856.3044
 21
1792.2291
  0
LINE
  8
_0-0_通り芯
  6
CONTINUOUS
 62
    7
 10
1816.4411999999998
 20
1782.4467
 11
1816.4411999999998
 21
1802.3333
  0
LINE
  8
_0-0_通り芯
  6
CONTINUOUS
 62
    7
 10
1717.7273
 20
1822.2854000000002
 11
1816.4411999999998
 21
1822.2854000000002
  0
LINE
  8
_0-0_通り芯
  6
CONTINUOUS
 62
    7
 10
1717.7273
 20
1802.3333
 11
1816.4411999999998
 21
1802.3333
  0
LINE
  8
_0-0_通り芯
  6
CONTINUOUS
 62
    7
 10
1856.3451
 20
1792.2390999999998
 11
1856.3451
 21
1832.1857
  0
LINE
  8
_0-0_通り芯
  6
CONTINUOUS
 62
    7
 10
1816.3998999999999
 20
1842.4155999999998
 11
1856.3451
 21
1832.1857
  0
LINE
  8
_0-0_通り芯
  6
CONTINUOUS
 62
    7
 10
623.42338999999981
 20
714.18926999999996
 11
623.42338999999981
 21
2864.1889000000001
  0
LINE
  8
_0-0_通り芯
  6
CONTINUOUS
 62
    7
 10
623.42338999999981
 20
2864.1889000000001
 11
3823.4230000000002
 21
2864.1889000000001
  0
LINE
  8
_0-0_通り芯
  6
CONTINUOUS
 62
    7
 10
3823.4230000000002
 20
2864.1889000000001
 11
3823.4230000000002
 21
714.18926999999996
  0
LINE
  8
_0-0_通り芯
  6
CONTINUOUS
 62
    7
 10
3823.4230000000002
 20
714.18926999999996
 11
623.42338999999981
 21
714.18926999999996
  0
LINE
  8
_0-0_通り芯
  6
CONTINUOUS
 62
    7
 10
3823.4230000000002
 20
814.18909999999994
 11
623.42338999999981
 21
814.18909999999994
  0
LINE
  8
_0-0_通り芯
  6
CONTINUOUS
 62
    7
 10
2923.4225000000006
 20
714.18926999999996
 11
2923.4225000000006
 21
814.18909999999994
  0
LINE
  8
_0-0_通り芯
  6
CONTINUOUS
 62
    7
 10
1573.4229
 20
714.18926999999996
 11
1573.4229
 21
814.18909999999994
  0
LINE
  8
_0-0_通り芯
  6
CONTINUOUS
 62
    7
 10
1743.4231
 20
714.18926999999996
 11
1743.4231
 21
814.18909999999994
  0
LINE
  8
_0-0_通り芯
  6
CONTINUOUS
 62
    7
 10
2693.4227999999994
 20
714.18926999999996
 11
2693.4227999999994
 21
814.18909999999994
  0
LINE
  8
_0-0_通り芯
  6
CONTINUOUS
 62
    7
 10
2463.4229999999998
 20
714.18926999999996
 11
2463.4229999999998
 21
814.18909999999994
  0
LINE
  8
_0-0_通り芯
  6
CONTINUOUS
 62
    7
 10
2293.4229
 20
714.18926999999996
 11
2293.4229
 21
814.18909999999994
  0
LINE
  8
_0-0_通り芯
  6
CONTINUOUS
 62
    7
 10
2123.4229
 20
714.18926999999996
 11
2123.4229
 21
814.18909999999994
  0
LINE
  8
_0-0_通り芯
  6
CONTINUOUS
 62
    7
 10
793.42295999999976
 20
714.18926999999996
 11
793.42295999999976
 21
814.18909999999994
  0
LINE
  8
_0-0_通り芯
  6
CONTINUOUS
 62
    7
 10
1717.7273
 20
1649.9197999999999
 11
1757.7273
 21
1609.9197999999999
  0
LINE
  8
_0-0_通り芯
  6
CONTINUOUS
 62
    7
 10
2093.3530000000001
 20
1880.9151999999999
 11
2093.3530000000001
 21
1920.8195000000001
  0
LINE
  8
_0-0_通り芯
  6
CONTINUOUS
 62
    7
 10
2093.3530000000001
 20
1880.9151999999999
 11
2342.7530000000002
 21
1880.9151999999999
  0
LINE
  8
_0-0_通り芯
  6
CONTINUOUS
 62
    7
 10
2342.7530000000002
 20
1880.9151999999999
 11
2342.7530000000002
 21
1920.8195000000001
  0
LINE
  8
_0-0_通り芯
  6
CONTINUOUS
 62
    7
 10
2093.3643999999999
 20
1920.7923000000001
 11
2108.2568000000001
 21
1910.8635999999999
  0
LINE
  8
_0-0_通り芯
  6
CONTINUOUS
 62
    7
 10
2108.2568000000001
 20
1910.8635999999999
 11
2118.0475000000001
 21
1900.9355
  0
LINE
  8
_0-0_通り芯
  6
CONTINUOUS
 62
    7
 10
2118.0475000000001
 20
1900.9355
 11
2093.3643999999999
 21
1880.9405999999999
  0
LINE
  8
_0-0_通り芯
  6
CONTINUOUS
 62
    7
 10
2327.8146000000002
 20
1910.9798000000001
 11
2317.6943000000001
 21
1901.2693999999999
  0
LINE
  8
_0-0_通り芯
  6
CONTINUOUS
 62
    7
 10
2317.6943000000001
 20
1901.2693999999999
 11
2342.2833999999998
 21
1880.9151999999999
  0
LINE
  8
_0-0_通り芯
  6
CONTINUOUS
 62
    7
 10
2342.5068000000001
 20
1920.8195000000001
 11
2327.8146000000002
 21
1910.9798000000001
  0
LINE
  8
_0-0_通り芯
  6
CONTINUOUS
 62
    7
 10
2108.2874999999999
 20
1910.8433
 11
2327.6111999999998
 21
1910.8433
  0
LINE
  8
_0-0_通り芯
  6
CONTINUOUS
 62
    7
 10
2118.1147999999998
 20
1900.8672999999999
 11
2317.2754
 21
1900.8672999999999
  0
LINE
  8
_0-0_通り芯
  6
CONTINUOUS
 62
    7
 10
2093.3530000000001
 20
1920.8195000000001
 11
2342.7530000000002
 21
1920.8195000000001
  0
LINE
  8
_0-0_通り芯
  6
CONTINUOUS
 62
    7
 10
2619.0133999999998
 20
1822.2854000000002
 11
2619.0133999999998
 21
1842.4052000000001
  0
LINE
  8
_0-0_通り芯
  6
CONTINUOUS
 62
    7
 10
2619.0133999999998
 20
1782.4467
 11
2579.1503000000002
 21
1792.2291
  0
LINE
  8
_0-0_通り芯
  6
CONTINUOUS
 62
    7
 10
2619.0133999999998
 20
1782.4467
 11
2619.0133999999998
 21
1802.3333
  0
LINE
  8
_0-0_通り芯
  6
CONTINUOUS
 62
    7
 10
2717.7273000000005
 20
1822.2854000000002
 11
2619.0133999999998
 21
1822.2854000000002
  0
LINE
  8
_0-0_通り芯
  6
CONTINUOUS
 62
    7
 10
2717.7273000000005
 20
1802.3333
 11
2619.0133999999998
 21
1802.3333
  0
LINE
  8
_0-0_通り芯
  6
CONTINUOUS
 62
    7
 10
2579.1095
 20
1792.2390999999998
 11
2579.1095
 21
1832.1857
  0
LINE
  8
_0-0_通り芯
  6
CONTINUOUS
 62
    7
 10
2619.0547000000006
 20
1842.4155999999998
 11
2579.1095
 21
1832.1857
  0
LINE
  8
_0-0_通り芯
  6
CONTINUOUS
 62
    7
 10
1717.7273
 20
1939.9196999999999
 11
2717.7273000000005
 21
1939.9196999999999
  0
LINE
  8
_0-0_通り芯
  6
CONTINUOUS
 62
    7
 10
1717.7273
 20
1689.9197999999999
 11
2717.7273000000005
 21
1689.9197999999999
  0
LINE
  8
_0-0_通り芯
  6
CONTINUOUS
 62
    7
 10
2677.7273999999998
 20
1609.9197999999999
 11
1757.7273
 21
1609.9197999999999
  0
LINE
  8
_0-0_通り芯
  6
CONTINUOUS
 62
    7
 10
2717.7273000000005
 20
1649.9197999999999
 11
2677.7273999999998
 21
1609.9197999999999
  0
LINE
  8
_0-0_通り芯
  6
CONTINUOUS
 62
    7
 10
1048.8849
 20
1879.4682
 11
1048.8849
 21
1852.4682000000003
  0
LINE
  8
_0-0_通り芯
  6
CONTINUOUS
 62
    7
 10
1298.8848000000003
 20
1879.4682
 11
1298.8848000000003
 21
1852.4682000000003
  0
LINE
  8
_0-0_通り芯
  6
CONTINUOUS
 62
    7
 10
964.14499999999987
 20
1843.9776000000002
 11
1003.9828
 21
1834.2737999999999
  0
LINE
  8
_0-0_通り芯
  6
CONTINUOUS
 62
    7
 10
963.88963999999987
 20
1784.2208000000001
 11
1003.9828
 21
1794.1804999999999
  0
LINE
  8
_0-0_通り芯
  6
CONTINUOUS
 62
    7
 10
1004.0214999999998
 20
1794.1899000000001
 11
1004.0214999999998
 21
1834.2644
  0
LINE
  8
_0-0_通り芯
  6
CONTINUOUS
 62
    7
 10
1383.6248000000001
 20
1843.9776000000002
 11
1343.7871
 21
1834.2737999999999
  0
LINE
  8
_0-0_通り芯
  6
CONTINUOUS
 62
    7
 10
1383.8801999999998
 20
1784.2208000000001
 11
1343.7871
 21
1794.1804999999999
  0
LINE
  8
_0-0_通り芯
  6
CONTINUOUS
 62
    7
 10
1343.7481
 20
1794.1899000000001
 11
1343.7481
 21
1834.2644
  0
LINE
  8
_0-0_通り芯
  6
CONTINUOUS
 62
    7
 10
963.8849399999998
 20
1649.4682
 11
963.8849399999998
 21
2029.4682
  0
LINE
  8
_0-0_通り芯
  6
CONTINUOUS
 62
    7
 10
963.8849399999998
 20
1649.4682
 11
1003.8848
 21
1609.4682
  0
LINE
  8
_0-0_通り芯
  6
CONTINUOUS
 62
    7
 10
1343.8848000000003
 20
1609.4682
 11
1003.8848
 21
1609.4682
  0
LINE
  8
_0-0_通り芯
  6
CONTINUOUS
 62
    7
 10
1343.8848000000003
 20
1609.4682
 11
1383.8849
 21
1649.4682
  0
LINE
  8
_0-0_通り芯
  6
CONTINUOUS
 62
    7
 10
894.06286
 20
1609.4682
 11
894.06286
 21
1689.4682
  0
LINE
  8
_0-0_通り芯
  6
CONTINUOUS
 62
    7
 10
894.06286
 20
1609.4682
 11
950.05428999999992
 21
1609.4682
  0
LINE
  8
_0-0_通り芯
  6
CONTINUOUS
 62
    7
 10
894.06286
 20
1689.4682
 11
950.05428999999992
 21
1689.4682
  0
LINE
  8
_0-0_通り芯
  6
CONTINUOUS
 62
    7
 10
894.06286
 20
1689.4682
 11
894.06286
 21
1939.4682
  0
LINE
  8
_0-0_通り芯
  6
CONTINUOUS
 62
    7
 10
894.06286
 20
1939.4682
 11
950.05428999999992
 21
1939.4682
  0
LINE
  8
_0-0_通り芯
  6
CONTINUOUS
 62
    7
 10
894.06286
 20
1939.4682
 11
894.06286
 21
2029.4682
  0
LINE
  8
_0-0_通り芯
  6
CONTINUOUS
 62
    7
 10
894.06286
 20
2029.4682
 11
950.05428999999992
 21
2029.4682
  0
LINE
  8
_0-0_通り芯
  6
CONTINUOUS
 62
    7
 10
831.07248000000004
 20
2029.4682
 11
831.07248000000004
 21
1609.4682
  0
LINE
  8
_0-0_通り芯
  6
CONTINUOUS
 62
    7
 10
831.07248000000004
 20
2029.4682
 11
920.6588099999999
 21
2029.4682
  0
LINE
  8
_0-0_通り芯
  6
CONTINUOUS
 62
    7
 10
831.07248000000004
 20
1609.4682
 11
920.6588099999999
 21
1609.4682
  0
LINE
  8
_0-0_通り芯
  6
CONTINUOUS
 62
    7
 10
963.8849399999998
 20
1541.5337
 11
1048.8849
 21
1541.5337
  0
LINE
  8
_0-0_通り芯
  6
CONTINUOUS
 62
    7
 10
963.8849399999998
 20
1541.5337
 11
963.8849399999998
 21
1597.5251000000001
  0
LINE
  8
_0-0_通り芯
  6
CONTINUOUS
 62
    7
 10
1048.8849
 20
1541.5337
 11
1048.8849
 21
1597.5251000000001
  0
LINE
  8
_0-0_通り芯
  6
CONTINUOUS
 62
    7
 10
1048.8849
 20
1541.5337
 11
1298.8848000000003
 21
1541.5337
  0
LINE
  8
_0-0_通り芯
  6
CONTINUOUS
 62
    7
 10
1298.8848000000003
 20
1541.5337
 11
1298.8848000000003
 21
1597.5251000000001
  0
LINE
  8
_0-0_通り芯
  6
CONTINUOUS
 62
    7
 10
1298.8848000000003
 20
1541.5337
 11
1383.8849
 21
1541.5337
  0
LINE
  8
_0-0_通り芯
  6
CONTINUOUS
 62
    7
 10
1383.8849
 20
1541.5337
 11
1383.8849
 21
1597.5251000000001
  0
LINE
  8
_0-0_通り芯
  6
CONTINUOUS
 62
    7
 10
963.8849399999998
 20
1485.5422000000001
 11
963.8849399999998
 21
1555.5315000000001
  0
LINE
  8
_0-0_通り芯
  6
CONTINUOUS
 62
    7
 10
1383.8849
 20
1485.5422000000001
 11
1383.8849
 21
1555.5315000000001
  0
LINE
  8
_0-0_通り芯
  6
CONTINUOUS
 62
    7
 10
1383.8849
 20
1649.4682
 11
1383.8849
 21
2076.4681999999998
  0
LINE
  8
_0-0_通り芯
  6
CONTINUOUS
 62
    7
 10
1222.5340000000001
 20
2068.4576000000002
 11
1214.0288
 21
2026.5617999999999
  0
LINE
  8
_0-0_通り芯
  6
CONTINUOUS
 62
    7
 10
1232.3341
 20
2076.4681999999998
 11
1383.8849
 21
2076.4681999999998
  0
LINE
  8
_0-0_通り芯
  6
CONTINUOUS
 62
    7
 10
1003.8287
 20
2037.9595999999997
 11
1094.9483
 21
2035.0204000000003
  0
LINE
  8
_0-0_通り芯
  6
CONTINUOUS
 62
    7
 10
1094.9483
 20
2035.0204000000003
 11
1079.1341
 21
2039.8091999999999
  0
LINE
  8
_0-0_通り芯
  6
CONTINUOUS
 62
    7
 10
1453.5127
 20
1609.4682
 11
1453.5127
 21
1689.4682
  0
LINE
  8
_0-0_通り芯
  6
CONTINUOUS
 62
    7
 10
1453.5127
 20
1609.4682
 11
1392.0051999999998
 21
1609.4682
  0
LINE
  8
_0-0_通り芯
  6
CONTINUOUS
 62
    7
 10
1453.5127
 20
1689.4682
 11
1392.0051999999998
 21
1689.4682
  0
LINE
  8
_0-0_通り芯
  6
CONTINUOUS
 62
    7
 10
1453.5127
 20
1939.4682
 11
1392.0051999999998
 21
1939.4682
  0
LINE
  8
_0-0_通り芯
  6
CONTINUOUS
 62
    7
 10
1453.5127
 20
1939.4682
 11
1453.5127
 21
2026.4681
  0
LINE
  8
_0-0_通り芯
  6
CONTINUOUS
 62
    7
 10
1453.5127
 20
2026.4681
 11
1392.0051999999998
 21
2026.4681
  0
LINE
  8
_0-0_通り芯
  6
CONTINUOUS
 62
    7
 10
1453.5127
 20
2026.4681
 11
1453.5127
 21
2076.4681999999998
  0
LINE
  8
_0-0_通り芯
  6
CONTINUOUS
 62
    7
 10
1453.5127
 20
2076.4681999999998
 11
1392.0051999999998
 21
2076.4681999999998
  0
LINE
  8
_0-0_通り芯
  6
CONTINUOUS
 62
    7
 10
1193.8848
 20
1939.4682
 11
1193.8848
 21
1943.8112000000001
  0
LINE
  8
_0-0_通り芯
  6
CONTINUOUS
 62
    7
 10
1153.8848
 20
1939.4682
 11
1108.8848
 21
1939.4682
  0
LINE
  8
_0-0_通り芯
  6
CONTINUOUS
 62
    7
 10
1238.8849
 20
1939.4682
 11
1193.8848
 21
1939.4682
  0
LINE
  8
_0-0_通り芯
  6
CONTINUOUS
 62
    7
 10
1133.8849
 20
1988.4682
 11
1133.8849
 21
2026.4681
  0
LINE
  8
_0-0_通り芯
  6
CONTINUOUS
 62
    7
 10
1213.8848
 20
1988.4682
 11
1213.8848
 21
2026.4681
  0
LINE
  8
_0-0_通り芯
  6
CONTINUOUS
 62
    7
 10
1131.8848
 20
1986.4681
 11
1131.8848
 21
2026.4681
  0
LINE
  8
_0-0_通り芯
  6
CONTINUOUS
 62
    7
 10
1215.8848
 20
1986.4681
 11
1215.8848
 21
2026.4681
  0
LINE
  8
_0-0_通り芯
  6
CONTINUOUS
 62
    7
 10
1215.8848
 20
1986.4681
 11
1193.8848
 21
1986.4681
  0
LINE
  8
_0-0_通り芯
  6
CONTINUOUS
 62
    7
 10
1213.8848
 20
1988.4682
 11
1193.8848
 21
1988.4682
  0
LINE
  8
_0-0_通り芯
  6
CONTINUOUS
 62
    7
 10
964.04477999999983
 20
2028.8371999999999
 11
1131.8848
 21
2026.4076
  0
LINE
  8
_0-0_通り芯
  6
CONTINUOUS
 62
    7
 10
1215.8848
 20
2026.4681
 11
1133.8849
 21
2026.4681
  0
LINE
  8
_0-0_通り芯
  6
CONTINUOUS
 62
    7
 10
1160.5516
 20
1988.4682
 11
1160.5516
 21
2026.4681
  0
LINE
  8
_0-0_通り芯
  6
CONTINUOUS
 62
    7
 10
1187.2182
 20
1988.4682
 11
1187.2182
 21
2026.4681
  0
LINE
  8
_0-0_通り芯
  6
CONTINUOUS
 62
    7
 10
1193.8848
 20
1988.4682
 11
1133.8849
 21
1988.4682
  0
LINE
  8
_0-0_通り芯
  6
CONTINUOUS
 62
    7
 10
1153.8848
 20
1939.4682
 11
1153.8848
 21
1986.4681
  0
LINE
  8
_0-0_通り芯
  6
CONTINUOUS
 62
    7
 10
1193.8848
 20
1939.4682
 11
1193.8848
 21
1986.4681
  0
LINE
  8
_0-0_通り芯
  6
CONTINUOUS
 62
    7
 10
1193.8848
 20
1986.4681
 11
1131.8848
 21
1986.4681
  0
LINE
  8
_0-0_通り芯
  6
CONTINUOUS
 62
    7
 10
1383.8849
 20
2153.4553999999998
 11
1213.8848
 21
2153.4553999999998
  0
LINE
  8
_0-0_通り芯
  6
CONTINUOUS
 62
    7
 10
1383.8849
 20
2153.4553999999998
 11
1383.8849
 21
2084.2633000000001
  0
LINE
  8
_0-0_通り芯
  6
CONTINUOUS
 62
    7
 10
1213.8848
 20
2153.4553999999998
 11
1213.8848
 21
2084.2633000000001
  0
LINE
  8
_0-0_通り芯
  6
CONTINUOUS
 62
    7
 10
1213.8848
 20
2153.4553999999998
 11
1133.8849
 21
2153.4553999999998
  0
LINE
  8
_0-0_通り芯
  6
CONTINUOUS
 62
    7
 10
1133.8849
 20
2153.4553999999998
 11
1133.8849
 21
2084.2633000000001
  0
LINE
  8
_0-0_通り芯
  6
CONTINUOUS
 62
    7
 10
1133.8849
 20
2153.4553999999998
 11
963.8849399999998
 21
2153.4553999999998
  0
LINE
  8
_0-0_通り芯
  6
CONTINUOUS
 62
    7
 10
963.8849399999998
 20
2153.4553999999998
 11
963.8849399999998
 21
2084.2633000000001
  0
LINE
  8
_0-0_通り芯
  6
CONTINUOUS
 62
    7
 10
963.8849399999998
 20
2206.6801999999998
 11
1383.8849
 21
2206.6801999999998
  0
LINE
  8
_0-0_通り芯
  6
CONTINUOUS
 62
    7
 10
963.8849399999998
 20
2206.6801999999998
 11
963.8849399999998
 21
2131.2782999999999
  0
LINE
  8
_0-0_通り芯
  6
CONTINUOUS
 62
    7
 10
1383.8849
 20
2206.6801999999998
 11
1383.8849
 21
2131.2782999999999
  0
LINE
  8
_0-0_通り芯
  6
CONTINUOUS
 62
    7
 10
1507.6505
 20
1609.4682
 11
1507.6505
 21
2076.4681999999998
  0
LINE
  8
_0-0_通り芯
  6
CONTINUOUS
 62
    7
 10
1507.6505
 20
1609.4682
 11
1434.4286
 21
1609.4682
  0
LINE
  8
_0-0_通り芯
  6
CONTINUOUS
 62
    7
 10
1507.6505
 20
2076.4681999999998
 11
1434.4286
 21
2076.4681999999998
  0
LINE
  8
_0-0_通り芯
  6
CONTINUOUS
 62
    7
 10
1717.7273
 20
1649.9197999999999
 11
1717.7273
 21
2076.9198000000001
  0
LINE
  8
_0-0_通り芯
  6
CONTINUOUS
 62
    7
 10
2116.0302999999999
 20
2076.9198000000001
 11
1717.7273
 21
2076.9198000000001
  0
LINE
  8
_0-0_通り芯
  6
CONTINUOUS
 62
    7
 10
2717.7273000000005
 20
1649.9197999999999
 11
2717.7273000000005
 21
2030.3797
  0
LINE
  8
_0-0_通り芯
  6
CONTINUOUS
 62
    7
 10
2116.2563
 20
2076.9022
 11
2717.7273000000005
 21
2030.3797
  0
LINE
  8
_0-0_通り芯
  6
CONTINUOUS
 62
    7
 10
1621.7608
 20
1609.9197999999999
 11
1621.7608
 21
2076.9198000000001
  0
LINE
  8
_0-0_通り芯
  6
CONTINUOUS
 62
    7
 10
1621.7608
 20
1609.9197999999999
 11
1704.1767
 21
1609.9197999999999
  0
LINE
  8
_0-0_通り芯
  6
CONTINUOUS
 62
    7
 10
1621.7608
 20
2076.9198000000001
 11
1704.1767
 21
2076.9198000000001
  0
LINE
  8
_0-0_通り芯
  6
CONTINUOUS
 62
    7
 10
2807.3191000000002
 20
2029.9197999999999
 11
2807.3191000000002
 21
1609.9197999999999
  0
LINE
  8
_0-0_通り芯
  6
CONTINUOUS
 62
    7
 10
2807.3191000000002
 20
2029.9197999999999
 11
2731.5663
 21
2029.9197999999999
  0
LINE
  8
_0-0_通り芯
  6
CONTINUOUS
 62
    7
 10
2807.3191000000002
 20
1609.9197999999999
 11
2731.5663
 21
1609.9197999999999
  0
LINE
  8
_0-0_通り芯
  6
CONTINUOUS
 62
    7
 10
2717.7273000000005
 20
2026.9196999999999
 11
1717.7273
 21
2026.9196999999999
  0
LINE
  8
_0-0_通り芯
  6
CONTINUOUS
 62
    7
 10
2217.7274000000002
 20
1541.5337
 11
2217.7274000000002
 21
2153.4553999999998
  0
LINE
  8
_0-0_通り芯
  6
CONTINUOUS
 62
    7
 10
1717.7273
 20
2169.3305999999998
 11
2117.7273
 21
2169.3305999999998
  0
LINE
  8
_0-0_通り芯
  6
CONTINUOUS
 62
    7
 10
1717.7273
 20
2169.3305999999998
 11
1717.7273
 21
2093.8267999999998
  0
LINE
  8
_0-0_通り芯
  6
CONTINUOUS
 62
    7
 10
2117.7273
 20
2169.3305999999998
 11
2117.7273
 21
2093.8267999999998
  0
LINE
  8
_0-0_通り芯
  6
CONTINUOUS
 62
    7
 10
2117.7273
 20
2169.3305999999998
 11
2717.7273000000005
 21
2169.3305999999998
  0
LINE
  8
_0-0_通り芯
  6
CONTINUOUS
 62
    7
 10
2717.7273000000005
 20
2169.3305999999998
 11
2717.7273000000005
 21
2093.8267999999998
  0
LINE
  8
_0-0_通り芯
  6
CONTINUOUS
 62
    7
 10
1717.7273
 20
1532.5833
 11
2217.7274000000002
 21
1532.5833
  0
LINE
  8
_0-0_通り芯
  6
CONTINUOUS
 62
    7
 10
1717.7273
 20
1532.5833
 11
1717.7273
 21
1592.9861000000001
  0
LINE
  8
_0-0_通り芯
  6
CONTINUOUS
 62
    7
 10
2217.7274000000002
 20
1532.5833
 11
2217.7274000000002
 21
1592.9861000000001
  0
LINE
  8
_0-0_通り芯
  6
CONTINUOUS
 62
    7
 10
2217.7274000000002
 20
1532.5833
 11
2717.7273000000005
 21
1532.5833
  0
LINE
  8
_0-0_通り芯
  6
CONTINUOUS
 62
    7
 10
2717.7273000000005
 20
1532.5833
 11
2717.7273000000005
 21
1592.9861000000001
  0
LINE
  8
_0-0_通り芯
  6
CONTINUOUS
 62
    7
 10
1717.7273
 20
1472.1804
 11
2717.7273000000005
 21
1472.1804
  0
LINE
  8
_0-0_通り芯
  6
CONTINUOUS
 62
    7
 10
1717.7273
 20
1472.1804
 11
1717.7273
 21
1552.7175
  0
LINE
  8
_0-0_通り芯
  6
CONTINUOUS
 62
    7
 10
2717.7273000000005
 20
1472.1804
 11
2717.7273000000005
 21
1552.7175
  0
LINE
  8
_0-0_通り芯
  6
CONTINUOUS
 62
    7
 10
3152.4528
 20
1874.9197999999999
 11
3152.4528
 21
1847.9197999999999
  0
LINE
  8
_0-0_通り芯
  6
CONTINUOUS
 62
    7
 10
3402.4529000000007
 20
1874.9197999999999
 11
3402.4529000000007
 21
1847.9197999999999
  0
LINE
  8
_0-0_通り芯
  6
CONTINUOUS
 62
    7
 10
3067.7127999999998
 20
1839.4291000000001
 11
3107.5506999999998
 21
1829.7254
  0
LINE
  8
_0-0_通り芯
  6
CONTINUOUS
 62
    7
 10
3067.4575
 20
1779.6723999999999
 11
3107.5506999999998
 21
1789.6321
  0
LINE
  8
_0-0_通り芯
  6
CONTINUOUS
 62
    7
 10
3107.5895
 20
1789.6415
 11
3107.5895
 21
1829.7159999999999
  0
LINE
  8
_0-0_通り芯
  6
CONTINUOUS
 62
    7
 10
3487.1929
 20
1839.4291000000001
 11
3447.3551000000002
 21
1829.7254
  0
LINE
  8
_0-0_通り芯
  6
CONTINUOUS
 62
    7
 10
3487.4479999999999
 20
1779.6723999999999
 11
3447.3551000000002
 21
1789.6321
  0
LINE
  8
_0-0_通り芯
  6
CONTINUOUS
 62
    7
 10
3447.3159999999998
 20
1789.6415
 11
3447.3159999999998
 21
1829.7159999999999
  0
LINE
  8
_0-0_通り芯
  6
CONTINUOUS
 62
    7
 10
3067.4528
 20
1644.9197999999999
 11
3067.4528
 21
2024.9197999999999
  0
LINE
  8
_0-0_通り芯
  6
CONTINUOUS
 62
    7
 10
3067.4528
 20
1644.9197999999999
 11
3107.4526999999998
 21
1604.9197999999999
  0
LINE
  8
_0-0_通り芯
  6
CONTINUOUS
 62
    7
 10
3447.4528
 20
1604.9197999999999
 11
3107.4526999999998
 21
1604.9197999999999
  0
LINE
  8
_0-0_通り芯
  6
CONTINUOUS
 62
    7
 10
3447.4528
 20
1604.9197999999999
 11
3487.4526999999998
 21
1644.9197999999999
  0
LINE
  8
_0-0_通り芯
  6
CONTINUOUS
 62
    7
 10
2997.6307000000002
 20
1604.9197999999999
 11
2997.6307000000002
 21
1684.9197999999999
  0
LINE
  8
_0-0_通り芯
  6
CONTINUOUS
 62
    7
 10
2997.6307000000002
 20
1604.9197999999999
 11
3053.6221
 21
1604.9197999999999
  0
LINE
  8
_0-0_通り芯
  6
CONTINUOUS
 62
    7
 10
2997.6307000000002
 20
1684.9197999999999
 11
3053.6221
 21
1684.9197999999999
  0
LINE
  8
_0-0_通り芯
  6
CONTINUOUS
 62
    7
 10
2997.6307000000002
 20
1684.9197999999999
 11
2997.6307000000002
 21
1934.9196999999999
  0
LINE
  8
_0-0_通り芯
  6
CONTINUOUS
 62
    7
 10
2997.6307000000002
 20
1934.9196999999999
 11
3053.6221
 21
1934.9196999999999
  0
LINE
  8
_0-0_通り芯
  6
CONTINUOUS
 62
    7
 10
2997.6307000000002
 20
1934.9196999999999
 11
2997.6307000000002
 21
2024.9197999999999
  0
LINE
  8
_0-0_通り芯
  6
CONTINUOUS
 62
    7
 10
2997.6307000000002
 20
2024.9197999999999
 11
3053.6221
 21
2024.9197999999999
  0
LINE
  8
_0-0_通り芯
  6
CONTINUOUS
 62
    7
 10
2934.6405
 20
2024.9197999999999
 11
2934.6405
 21
1604.9197999999999
  0
LINE
  8
_0-0_通り芯
  6
CONTINUOUS
 62
    7
 10
2934.6405
 20
2024.9197999999999
 11
3024.2268000000004
 21
2024.9197999999999
  0
LINE
  8
_0-0_通り芯
  6
CONTINUOUS
 62
    7
 10
2934.6405
 20
1604.9197999999999
 11
3024.2268000000004
 21
1604.9197999999999
  0
LINE
  8
_0-0_通り芯
  6
CONTINUOUS
 62
    7
 10
3067.4528
 20
1536.9853000000001
 11
3152.4528
 21
1536.9853000000001
  0
LINE
  8
_0-0_通り芯
  6
CONTINUOUS
 62
    7
 10
3067.4528
 20
1536.9853000000001
 11
3067.4528
 21
1592.9766999999997
  0
LINE
  8
_0-0_通り芯
  6
CONTINUOUS
 62
    7
 10
3152.4528
 20
1536.9853000000001
 11
3152.4528
 21
1592.9766999999997
  0
LINE
  8
_0-0_通り芯
  6
CONTINUOUS
 62
    7
 10
3152.4528
 20
1536.9853000000001
 11
3402.4529000000007
 21
1536.9853000000001
  0
LINE
  8
_0-0_通り芯
  6
CONTINUOUS
 62
    7
 10
3402.4529000000007
 20
1536.9853000000001
 11
3402.4529000000007
 21
1592.9766999999997
  0
LINE
  8
_0-0_通り芯
  6
CONTINUOUS
 62
    7
 10
3402.4529000000007
 20
1536.9853000000001
 11
3487.4526999999998
 21
1536.9853000000001
  0
LINE
  8
_0-0_通り芯
  6
CONTINUOUS
 62
    7
 10
3487.4526999999998
 20
1536.9853000000001
 11
3487.4526999999998
 21
1592.9766999999997
  0
LINE
  8
_0-0_通り芯
  6
CONTINUOUS
 62
    7
 10
3067.4528
 20
1480.9937
 11
3487.4526999999998
 21
1480.9937
  0
LINE
  8
_0-0_通り芯
  6
CONTINUOUS
 62
    7
 10
3067.4528
 20
1480.9937
 11
3067.4528
 21
1550.9830999999999
  0
LINE
  8
_0-0_通り芯
  6
CONTINUOUS
 62
    7
 10
3487.4526999999998
 20
1480.9937
 11
3487.4526999999998
 21
1550.9830999999999
  0
LINE
  8
_0-0_通り芯
  6
CONTINUOUS
 62
    7
 10
3107.3964999999998
 20
2033.4112
 11
3198.5162
 21
2030.472
  0
LINE
  8
_0-0_通り芯
  6
CONTINUOUS
 62
    7
 10
3198.5162
 20
2030.472
 11
3182.7021000000004
 21
2035.2608
  0
LINE
  8
_0-0_通り芯
  6
CONTINUOUS
 62
    7
 10
3297.4528
 20
1934.9196999999999
 11
3297.4528
 21
1939.2628
  0
LINE
  8
_0-0_通り芯
  6
CONTINUOUS
 62
    7
 10
3257.4526999999998
 20
1934.9196999999999
 11
3212.4528
 21
1934.9196999999999
  0
LINE
  8
_0-0_通り芯
  6
CONTINUOUS
 62
    7
 10
3342.4526999999998
 20
1934.9196999999999
 11
3297.4528
 21
1934.9196999999999
  0
LINE
  8
_0-0_通り芯
  6
CONTINUOUS
 62
    7
 10
3237.4529000000002
 20
1983.9196999999999
 11
3237.4529000000002
 21
2021.9196999999999
  0
LINE
  8
_0-0_通り芯
  6
CONTINUOUS
 62
    7
 10
3317.4529000000002
 20
1983.9196999999999
 11
3317.4529000000002
 21
2021.9196999999999
  0
LINE
  8
_0-0_通り芯
  6
CONTINUOUS
 62
    7
 10
3235.4528
 20
1981.9198000000001
 11
3235.4528
 21
2021.9196999999999
  0
LINE
  8
_0-0_通り芯
  6
CONTINUOUS
 62
    7
 10
3319.4526999999998
 20
1981.9198000000001
 11
3319.4526999999998
 21
2021.9196999999999
  0
LINE
  8
_0-0_通り芯
  6
CONTINUOUS
 62
    7
 10
3319.4526999999998
 20
1981.9198000000001
 11
3297.4528
 21
1981.9198000000001
  0
LINE
  8
_0-0_通り芯
  6
CONTINUOUS
 62
    7
 10
3317.4529000000002
 20
1983.9196999999999
 11
3297.4528
 21
1983.9196999999999
  0
LINE
  8
_0-0_通り芯
  6
CONTINUOUS
 62
    7
 10
3067.6125999999999
 20
2024.2887999999998
 11
3235.4528
 21
2021.8592000000001
  0
LINE
  8
_0-0_通り芯
  6
CONTINUOUS
 62
    7
 10
3319.4526999999998
 20
2021.9196999999999
 11
3237.4529000000002
 21
2021.9196999999999
  0
LINE
  8
_0-0_通り芯
  6
CONTINUOUS
 62
    7
 10
3264.1194
 20
1983.9196999999999
 11
3264.1194
 21
2021.9196999999999
  0
LINE
  8
_0-0_通り芯
  6
CONTINUOUS
 62
    7
 10
3290.7863000000002
 20
1983.9196999999999
 11
3290.7863000000002
 21
2021.9196999999999
  0
LINE
  8
_0-0_通り芯
  6
CONTINUOUS
 62
    7
 10
3297.4528
 20
1983.9196999999999
 11
3237.4529000000002
 21
1983.9196999999999
  0
LINE
  8
_0-0_通り芯
  6
CONTINUOUS
 62
    7
 10
3257.4526999999998
 20
1934.9196999999999
 11
3257.4526999999998
 21
1981.9198000000001
  0
LINE
  8
_0-0_通り芯
  6
CONTINUOUS
 62
    7
 10
3297.4528
 20
1934.9196999999999
 11
3297.4528
 21
1981.9198000000001
  0
LINE
  8
_0-0_通り芯
  6
CONTINUOUS
 62
    7
 10
3297.4528
 20
1981.9198000000001
 11
3235.4528
 21
1981.9198000000001
  0
LINE
  8
_0-0_通り芯
  6
CONTINUOUS
 62
    7
 10
3564.1530999999995
 20
1604.9197999999999
 11
3564.1530999999995
 21
1684.9197999999999
  0
LINE
  8
_0-0_通り芯
  6
CONTINUOUS
 62
    7
 10
3564.1530999999995
 20
1604.9197999999999
 11
3497.6419999999998
 21
1604.9197999999999
  0
LINE
  8
_0-0_通り芯
  6
CONTINUOUS
 62
    7
 10
3564.1530999999995
 20
1684.9197999999999
 11
3497.6419999999998
 21
1684.9197999999999
  0
LINE
  8
_0-0_通り芯
  6
CONTINUOUS
 62
    7
 10
3564.1530999999995
 20
1684.9197999999999
 11
3564.1530999999995
 21
1934.9196999999999
  0
LINE
  8
_0-0_通り芯
  6
CONTINUOUS
 62
    7
 10
3564.1530999999995
 20
1934.9196999999999
 11
3497.6419999999998
 21
1934.9196999999999
  0
LINE
  8
_0-0_通り芯
  6
CONTINUOUS
 62
    7
 10
3564.1530999999995
 20
1934.9196999999999
 11
3564.1530999999995
 21
2021.9196999999999
  0
LINE
  8
_0-0_通り芯
  6
CONTINUOUS
 62
    7
 10
3564.1530999999995
 20
2021.9196999999999
 11
3497.6419999999998
 21
2021.9196999999999
  0
LINE
  8
_0-0_通り芯
  6
CONTINUOUS
 62
    7
 10
3564.1530999999995
 20
2021.9196999999999
 11
3564.1530999999995
 21
2031.9196999999999
  0
LINE
  8
_0-0_通り芯
  6
CONTINUOUS
 62
    7
 10
3564.1530999999995
 20
2031.9196999999999
 11
3497.6419999999998
 21
2031.9196999999999
  0
LINE
  8
_0-0_通り芯
  6
CONTINUOUS
 62
    7
 10
3564.1530999999995
 20
2031.9196999999999
 11
3564.1530999999995
 21
2048.9196999999999
  0
LINE
  8
_0-0_通り芯
  6
CONTINUOUS
 62
    7
 10
3564.1530999999995
 20
2048.9196999999999
 11
3497.6419999999998
 21
2048.9196999999999
  0
LINE
  8
_0-0_通り芯
  6
CONTINUOUS
 62
    7
 10
3317.4935
 20
2022.0268000000001
 11
3327.4555999999993
 21
2031.8894
  0
LINE
  8
_0-0_通り芯
  6
CONTINUOUS
 62
    7
 10
3327.4555999999993
 20
2031.8894
 11
3487.4373000000005
 21
2048.9155999999998
  0
LINE
  8
_0-0_通り芯
  6
CONTINUOUS
 62
    7
 10
3487.4526999999998
 20
1644.9197999999999
 11
3487.4526999999998
 21
2048.9171999999999
  0
LINE
  8
_0-0_通り芯
  6
CONTINUOUS
 62
    7
 10
3487.4526999999998
 20
2131.3775000000001
 11
3317.4529000000002
 21
2131.3775000000001
  0
LINE
  8
_0-0_通り芯
  6
CONTINUOUS
 62
    7
 10
3317.4529000000002
 20
2131.3775000000001
 11
3317.4529000000002
 21
2062.1855
  0
LINE
  8
_0-0_通り芯
  6
CONTINUOUS
 62
    7
 10
3317.4529000000002
 20
2131.3775000000001
 11
3237.4529000000002
 21
2131.3775000000001
  0
LINE
  8
_0-0_通り芯
  6
CONTINUOUS
 62
    7
 10
3237.4529000000002
 20
2131.3775000000001
 11
3237.4529000000002
 21
2062.1855
  0
LINE
  8
_0-0_通り芯
  6
CONTINUOUS
 62
    7
 10
3237.4529000000002
 20
2131.3775000000001
 11
3067.4528
 21
2131.3775000000001
  0
LINE
  8
_0-0_通り芯
  6
CONTINUOUS
 62
    7
 10
3067.4528
 20
2131.3775000000001
 11
3067.4528
 21
2062.1855
  0
LINE
  8
_0-0_通り芯
  6
CONTINUOUS
 62
    7
 10
3067.4528
 20
2184.6023000000005
 11
3067.4528
 21
2109.2008000000001
  0
LINE
  8
_0-0_通り芯
  6
CONTINUOUS
 62
    7
 10
3487.4526999999998
 20
2184.6023000000005
 11
3487.4526999999998
 21
2062.1855
  0
LINE
  8
_0-0_通り芯
  6
CONTINUOUS
 62
    7
 10
3629.9288000000001
 20
2048.9196999999999
 11
3629.9288000000001
 21
1604.9197999999999
  0
LINE
  8
_0-0_通り芯
  6
CONTINUOUS
 62
    7
 10
3629.9288000000001
 20
2048.9196999999999
 11
3519.6426000000001
 21
2048.9196999999999
  0
LINE
  8
_0-0_通り芯
  6
CONTINUOUS
 62
    7
 10
3629.9288000000001
 20
1604.9197999999999
 11
3519.6426000000001
 21
1604.9197999999999
  0
ARC
  8
_0-0_通り芯
  6
CONTINUOUS
 62
    7
 10
1108.8848
 20
1879.4682
 40
60
 50
90
 51
180
  0
ARC
  8
_0-0_通り芯
  6
CONTINUOUS
 62
    7
 10
1238.8849
 20
1879.4682
 40
60
 50
0
 51
90
  0
ARC
  8
_0-0_通り芯
  6
CONTINUOUS
 62
    7
 10
1248.4822999999999
 20
1875.7462
 40
199.87799999999999
 50
186.83695
 51
248.33663000000001
  0
ARC
  8
_0-0_通り芯
  6
CONTINUOUS
 62
    7
 10
1099.2874999999999
 20
1875.7462
 40
199.87799999999999
 50
291.66334000000001
 51
353.16302000000002
  0
CIRCLE
  8
_0-0_通り芯
  6
CONTINUOUS
 62
    7
 10
984.06389999999999
 20
1814.0994000000001
 40
10.011774000000003
  0
CIRCLE
  8
_0-0_通り芯
  6
CONTINUOUS
 62
    7
 10
1363.7058999999999
 20
1814.0994000000001
 40
10.011774000000003
  0
ARC
  8
_0-0_通り芯
  6
CONTINUOUS
 62
    7
 10
1232.3341
 20
2066.4681
 40
10
 50
90
 51
168.52445
  0
ARC
  8
_0-0_通り芯
  6
CONTINUOUS
 62
    7
 10
3212.4528
 20
1874.9197999999999
 40
60
 50
90
 51
180
  0
ARC
  8
_0-0_通り芯
  6
CONTINUOUS
 62
    7
 10
3342.4526999999998
 20
1874.9197999999999
 40
60
 50
0
 51
90
  0
ARC
  8
_0-0_通り芯
  6
CONTINUOUS
 62
    7
 10
3352.0504000000001
 20
1871.1977999999999
 40
199.87799999999999
 50
186.83695
 51
248.33663000000001
  0
ARC
  8
_0-0_通り芯
  6
CONTINUOUS
 62
    7
 10
3202.8553000000002
 20
1871.1977999999999
 40
199.87799999999999
 50
291.66334000000001
 51
353.16302000000002
  0
CIRCLE
  8
_0-0_通り芯
  6
CONTINUOUS
 62
    7
 10
3087.6318000000001
 20
1809.5509999999999
 40
10.011774000000003
  0
CIRCLE
  8
_0-0_通り芯
  6
CONTINUOUS
 62
    7
 10
3467.2739999999999
 20
1809.5509999999999
 40
10.011774000000003
  0
POINT
  8
_0-0_通り芯
 62
    7
 10
894.06286
 20
1609.4682
  0
POINT
  8
_0-0_通り芯
 62
    7
 10
894.06286
 20
1689.4682
  0
POINT
  8
_0-0_通り芯
 62
    7
 10
894.06286
 20
1939.4682
  0
POINT
  8
_0-0_通り芯
 62
    7
 10
894.06286
 20
2029.4682
  0
POINT
  8
_0-0_通り芯
 62
    7
 10
831.07248000000004
 20
2029.4682
  0
POINT
  8
_0-0_通り芯
 62
    7
 10
831.07248000000004
 20
1609.4682
  0
POINT
  8
_0-0_通り芯
 62
    7
 10
963.8849399999998
 20
1541.5337
  0
POINT
  8
_0-0_通り芯
 62
    7
 10
1048.8849
 20
1541.5337
  0
POINT
  8
_0-0_通り芯
 62
    7
 10
1298.8848000000003
 20
1541.5337
  0
POINT
  8
_0-0_通り芯
 62
    7
 10
1383.8849
 20
1541.5337
  0
POINT
  8
_0-0_通り芯
 62
    7
 10
963.8849399999998
 20
1485.5422000000001
  0
POINT
  8
_0-0_通り芯
 62
    7
 10
1383.8849
 20
1485.5422000000001
  0
POINT
  8
_0-0_通り芯
 62
    7
 10
1453.5127
 20
1609.4682
  0
POINT
  8
_0-0_通り芯
 62
    7
 10
1453.5127
 20
1689.4682
  0
POINT
  8
_0-0_通り芯
 62
    7
 10
1453.5127
 20
1939.4682
  0
POINT
  8
_0-0_通り芯
 62
    7
 10
1453.5127
 20
2026.4681
  0
POINT
  8
_0-0_通り芯
 62
    7
 10
1453.5127
 20
2076.4681999999998
  0
POINT
  8
_0-0_通り芯
 62
    7
 10
1383.8849
 20
2153.4553999999998
  0
POINT
  8
_0-0_通り芯
 62
    7
 10
1213.8848
 20
2153.4553999999998
  0
POINT
  8
_0-0_通り芯
 62
    7
 10
1133.8849
 20
2153.4553999999998
  0
POINT
  8
_0-0_通り芯
 62
    7
 10
963.8849399999998
 20
2153.4553999999998
  0
POINT
  8
_0-0_通り芯
 62
    7
 10
963.8849399999998
 20
2206.6801999999998
  0
POINT
  8
_0-0_通り芯
 62
    7
 10
1383.8849
 20
2206.6801999999998
  0
POINT
  8
_0-0_通り芯
 62
    7
 10
1507.6505
 20
1609.4682
  0
POINT
  8
_0-0_通り芯
 62
    7
 10
1507.6505
 20
2076.4681999999998
  0
POINT
  8
_0-0_通り芯
 62
    7
 10
1621.7608
 20
1609.9197999999999
  0
POINT
  8
_0-0_通り芯
 62
    7
 10
1621.7608
 20
2076.9198000000001
  0
POINT
  8
_0-0_通り芯
 62
    7
 10
2807.3191000000002
 20
2029.9197999999999
  0
POINT
  8
_0-0_通り芯
 62
    7
 10
2807.3191000000002
 20
1609.9197999999999
  0
POINT
  8
_0-0_通り芯
 62
    7
 10
1717.7273
 20
2169.3305999999998
  0
POINT
  8
_0-0_通り芯
 62
    7
 10
2117.7273
 20
2169.3305999999998
  0
POINT
  8
_0-0_通り芯
 62
    7
 10
2717.7273000000005
 20
2169.3305999999998
  0
POINT
  8
_0-0_通り芯
 62
    7
 10
1717.7273
 20
1532.5833
  0
POINT
  8
_0-0_通り芯
 62
    7
 10
2217.7274000000002
 20
1532.5833
  0
POINT
  8
_0-0_通り芯
 62
    7
 10
2717.7273000000005
 20
1532.5833
  0
POINT
  8
_0-0_通り芯
 62
    7
 10
1717.7273
 20
1472.1804
  0
POINT
  8
_0-0_通り芯
 62
    7
 10
2717.7273000000005
 20
1472.1804
  0
POINT
  8
_0-0_通り芯
 62
    7
 10
2997.6307000000002
 20
1604.9197999999999
  0
POINT
  8
_0-0_通り芯
 62
    7
 10
2997.6307000000002
 20
1684.9197999999999
  0
POINT
  8
_0-0_通り芯
 62
    7
 10
2997.6307000000002
 20
1934.9196999999999
  0
POINT
  8
_0-0_通り芯
 62
    7
 10
2997.6307000000002
 20
2024.9197999999999
  0
POINT
  8
_0-0_通り芯
 62
    7
 10
2934.6405
 20
2024.9197999999999
  0
POINT
  8
_0-0_通り芯
 62
    7
 10
2934.6405
 20
1604.9197999999999
  0
POINT
  8
_0-0_通り芯
 62
    7
 10
3067.4528
 20
1536.9853000000001
  0
POINT
  8
_0-0_通り芯
 62
    7
 10
3152.4528
 20
1536.9853000000001
  0
POINT
  8
_0-0_通り芯
 62
    7
 10
3402.4529000000007
 20
1536.9853000000001
  0
POINT
  8
_0-0_通り芯
 62
    7
 10
3487.4526999999998
 20
1536.9853000000001
  0
POINT
  8
_0-0_通り芯
 62
    7
 10
3067.4528
 20
1480.9937
  0
POINT
  8
_0-0_通り芯
 62
    7
 10
3487.4526999999998
 20
1480.9937
  0
POINT
  8
_0-0_通り芯
 62
    7
 10
3564.1530999999995
 20
1604.9197999999999
  0
POINT
  8
_0-0_通り芯
 62
    7
 10
3564.1530999999995
 20
1684.9197999999999
  0
POINT
  8
_0-0_通り芯
 62
    7
 10
3564.1530999999995
 20
1934.9196999999999
  0
POINT
  8
_0-0_通り芯
 62
    7
 10
3564.1530999999995
 20
2021.9196999999999
  0
POINT
  8
_0-0_通り芯
 62
    7
 10
3564.1530999999995
 20
2031.9196999999999
  0
POINT
  8
_0-0_通り芯
 62
    7
 10
3564.1530999999995
 20
2048.9196999999999
  0
POINT
  8
_0-0_通り芯
 62
    7
 10
3487.4526999999998
 20
2131.3775000000001
  0
POINT
  8
_0-0_通り芯
 62
    7
 10
3317.4529000000002
 20
2131.3775000000001
  0
POINT
  8
_0-0_通り芯
 62
    7
 10
3237.4529000000002
 20
2131.3775000000001
  0
POINT
  8
_0-0_通り芯
 62
    7
 10
3067.4528
 20
2131.3775000000001
  0
POINT
  8
_0-0_通り芯
 62
    7
 10
3067.4528
 20
2184.6023000000005
  0
POINT
  8
_0-0_通り芯
 62
    7
 10
3487.4526999999998
 20
2184.6023000000005
  0
POINT
  8
_0-0_通り芯
 62
    7
 10
3629.9288000000001
 20
2048.9196999999999
  0
POINT
  8
_0-0_通り芯
 62
    7
 10
3629.9288000000001
 20
1604.9197999999999
  0
LINE
  8
_0-0_通り芯
  6
CONTINUOUS
 62
    7
 10
1254.2206844506659
 20
2026.4681
 11
1254.2206844506659
 21
1988.4682
  0
POINT
  8
_0-0_通り芯
 62
    7
 10
1254.2206844506659
 20
2026.4681
  0
POINT
  8
_0-0_通り芯
 62
    7
 10
1254.2206844506659
 20
1988.4682
  0
LINE
  8
_0-0_通り芯
  6
CONTINUOUS
 62
    7
 10
1254.2206844506659
 20
2026.4681
 11
1230.6296644143183
 21
2026.4681
  0
LINE
  8
_0-0_通り芯
  6
CONTINUOUS
 62
    7
 10
1254.2206844506659
 20
1988.4682
 11
1230.6296644143183
 21
1988.4682
  0
LINE
  8
_0-0_通り芯
  6
CONTINUOUS
 62
    7
 10
1064.8486374830923
 20
1920.1288544079546
 11
1143.1151875464147
 21
1864.9409024402271
  0
LINE
  8
_0-0_通り芯
  6
CONTINUOUS
 62
    7
 10
1064.8486374830923
 20
1920.1288544079546
 11
1093.005462838478
 21
1909.7754401930058
  0
LINE
  8
_0-0_通り芯
  6
CONTINUOUS
 62
    7
 10
1064.8486374830923
 20
1920.1288544079546
 11
1084.0564564233039
 21
1897.084122004213
  0
LINE
  8
_0-0_通り芯
  6
CONTINUOUS
 62
    7
 10
1093.9477394297121
 20
1751.5547465792599
 11
1255.497926098878
 21
1861.9306505147147
  0
LINE
  8
_0-0_通り芯
  6
CONTINUOUS
 62
    7
 10
1093.9477394297121
 20
1751.5547465792599
 11
1113.4939926184404
 21
1774.313129348739
  0
LINE
  8
_0-0_通り芯
  6
CONTINUOUS
 62
    7
 10
1093.9477394297121
 20
1751.5547465792599
 11
1122.2544826246931
 21
1761.4909576123148
  0
LINE
  8
_0-0_通り芯
  6
CONTINUOUS
 62
    7
 10
3564.1530999999995
 20
2048.9196999999999
 11
3564.1530999999995
 21
2085.4510384890173
  0
LINE
  8
_0-0_通り芯
  6
CONTINUOUS
 62
    7
 10
3192.2787234222938
 20
1761.1044763200605
 11
3348.1548454398126
 21
1838.2708733584366
  0
LINE
  8
_0-0_通り芯
  6
CONTINUOUS
 62
    7
 10
3192.2787234222938
 20
1761.1044763200605
 11
3214.8036184243642
 21
1780.9193471282611
  0
LINE
  8
_0-0_通り芯
  6
CONTINUOUS
 62
    7
 10
3192.2787234222938
 20
1761.1044763200605
 11
3221.6932901157643
 21
1767.0022103116332
  0
LINE
  8
_0-0_通り芯
  6
CONTINUOUS
 62
    7
 10
3170.3522978427709
 20
1915.8214101364551
 11
3245.7367603179582
 21
1855.027488785498
  0
LINE
  8
_0-0_通り芯
  6
CONTINUOUS
 62
    7
 10
3170.3522978427709
 20
1915.8214101364551
 11
3197.7832042925838
 21
1903.6745845700113
  0
LINE
  8
_0-0_通り芯
  6
CONTINUOUS
 62
    7
 10
3170.3522978427709
 20
1915.8214101364551
 11
3188.0347468939217
 21
1891.58649739567
  0
LINE
  8
_0-0_通り芯
  6
CONTINUOUS
 62
    7
 10
3335.1678183052873
 20
2021.9196999999999
 11
3335.1678183052873
 21
1983.9196999999999
  0
POINT
  8
_0-0_通り芯
 62
    7
 10
3335.1678183052873
 20
2021.9196999999999
  0
POINT
  8
_0-0_通り芯
 62
    7
 10
3335.1678183052873
 20
1983.9196999999999
  0
LINE
  8
_0-0_通り芯
  6
CONTINUOUS
 62
    7
 10
3335.1678183052873
 20
2021.9196999999999
 11
3323.6009748482502
 21
2021.9196999999999
  0
LINE
  8
_0-0_通り芯
  6
CONTINUOUS
 62
    7
 10
3335.1678183052873
 20
1983.9196999999999
 11
3323.6009748482502
 21
1983.9196999999999
  0
LINE
  8
_0-0_通り芯
  6
CONTINUOUS
 62
    7
 10
3325.2721403834444
 20
2034.0948877054168
 11
3315.2359893159364
 21
2024.1589762479493
  0
POINT
  8
_0-0_通り芯
 62
    7
 10
3325.2721403834444
 20
2034.0948877054168
  0
POINT
  8
_0-0_通り芯
 62
    7
 10
3315.2359893159364
 20
2024.1589762479493
  0
LINE
  8
_0-0_通り芯
  6
CONTINUOUS
 62
    7
 10
3325.2721403834444
 20
2034.0948877054168
 11
3327.4555999999993
 21
2031.8894
  0
LINE
  8
_0-0_通り芯
  6
CONTINUOUS
 62
    7
 10
3315.2359893159364
 20
2024.1589762479493
 11
3317.4194489324923
 21
2021.9534885425323
  0
LINE
  8
_0-0_通り芯
  6
CONTINUOUS
 62
    7
 10
3467.1027440511816
 20
2055.9174630010839
 11
3352.3092786140501
 21
2043.7004625484335
  0
LINE
  8
_0-0_通り芯
  6
CONTINUOUS
 62
    7
 10
3352.3092786140501
 20
2043.7004625484335
 11
3380.3026151734384
 21
2054.4880993736524
  0
LINE
  8
_0-0_通り芯
  6
CONTINUOUS
 62
    7
 10
3352.3092786140501
 20
2043.7004625484335
 11
3381.9460376237776
 21
2039.0461618061795
  0
TEXT
  8
_0-0_通り芯
 62
    7
 10
1143.0058757078841
 20
2209.5622709656577
 40
30
 41
1
 50
0
  1
480
  0
TEXT
  8
_0-0_通り芯
 62
    7
 10
1007.076665022262
 20
2154.516557547513
 40
30
 41
1
 50
0
  1
195
  0
TEXT
  8
_0-0_通り芯
 62
    7
 10
1277.8117044870137
 20
2153.3931756410202
 40
30
 41
1
 50
0
  1
205
  0
TEXT
  8
_0-0_通り芯
 62
    7
 10
826.21217807693006
 20
1809.6383122542402
 40
30
 41
1
 50
90
  1
480
  0
TEXT
  8
_0-0_通り芯
 62
    7
 10
891.36832865350925
 20
1796.1577293763273
 40
30
 41
1
 50
90
  1
300
  0
TEXT
  8
_0-0_通り芯
 62
    7
 10
894.73847437298764
 20
1636.6374986543574
 40
30
 41
1
 50
90
  1
90
  0
TEXT
  8
_0-0_通り芯
 62
    7
 10
983.57183549425736
 20
1541.840529101896
 40
30
 41
1
 50
0
  1
90
  0
TEXT
  8
_0-0_通り芯
 62
    7
 10
1322.0579408963185
 20
1541.840529101896
 40
30
 41
1
 50
0
  1
90
  0
TEXT
  8
_0-0_通り芯
 62
    7
 10
1156.1596125569686
 20
1541.1715842295598
 40
30
 41
1
 50
0
  1
300
  0
TEXT
  8
_0-0_通り芯
 62
    7
 10
1158.1664471739768
 20
1486.3181046980003
 40
30
 41
1
 50
0
  1
480
  0
TEXT
  8
_0-0_通り芯
 62
    7
 10
1171.2108721845307
 20
1804.7358639299791
 40
30
 41
1
 50
34.342053940000021
  1
200
  0
TEXT
  8
_0-0_通り芯
 62
    7
 10
1100.9716605892411
 20
1897.0502563123594
 40
30
 41
1
 50
-35.188743130000056
  1
80
  0
TEXT
  8
_0-0_通り芯
 62
    7
 10
1537.4581897885396
 20
1833.834965876599
 40
30
 41
1
 50
90
  1
506
  0
TEXT
  8
_0-0_通り芯
 62
    7
 10
1484.6115448739886
 20
1631.479141994932
 40
30
 41
1
 50
90
  1
90
  0
TEXT
  8
_0-0_通り芯
 62
    7
 10
1484.513975281679
 20
1809.6383122542402
 40
30
 41
1
 50
90
  1
300
  0
TEXT
  8
_0-0_通り芯
 62
    7
 10
1484.513975281679
 20
1963.5416334437464
 40
30
 41
1
 50
90
  1
86
  0
TEXT
  8
_0-0_通り芯
 62
    7
 10
1619.7384090858786
 20
1827.8144620255741
 40
30
 41
1
 50
90
  1
506
  0
TEXT
  8
_0-0_通り芯
 62
    7
 10
2931.7600642034195
 20
1796.8379081631865
 40
30
 41
1
 50
90
  1
480
  0
TEXT
  8
_0-0_通り芯
 62
    7
 10
2843.5137037870672
 20
1802.1493829947815
 40
30
 41
1
 50
90
  1
480
  0
TEXT
  8
_0-0_通り芯
 62
    7
 10
2996.2428806852304
 20
1797.0984899171426
 40
30
 41
1
 50
90
  1
300
  0
TEXT
  8
_0-0_通り芯
 62
    7
 10
2994.0039449860819
 20
1629.178312481072
 40
30
 41
1
 50
90
  1
90
  0
TEXT
  8
_0-0_通り芯
 62
    7
 10
3090.278180049429
 20
1537.3819488160202
 40
30
 41
1
 50
0
  1
90
  0
TEXT
  8
_0-0_通り芯
 62
    7
 10
3432.8353420190133
 20
1539.6208845151677
 40
30
 41
1
 50
0
  1
90
  0
TEXT
  8
_0-0_通り芯
 62
    7
 10
3240.2868718923191
 20
1537.3819488160202
 40
30
 41
1
 50
0
  1
300
  0
TEXT
  8
_0-0_通り芯
 62
    7
 10
3252.4095303159938
 20
1481.1802438153773
 40
30
 41
1
 50
0
  1
480
  0
TEXT
  8
_0-0_通り芯
 62
    7
 10
3203.586308181294
 20
1891.5038415960723
 40
30
 41
1
 50
-38.88449642999997
  1
80
  0
TEXT
  8
_0-0_通り芯
 62
    7
 10
3261.9484726782134
 20
1798.2864955246043
 40
30
 41
1
 50
26.337688170000028
  1
200
  0
TEXT
  8
_0-0_通り芯
 62
    7
 10
3596.7640179229556
 20
1630.6837386095212
 40
30
 41
1
 50
90
  1
90
  0
TEXT
  8
_0-0_通り芯
 62
    7
 10
3597.7929032168004
 20
1778.8432209232033
 40
30
 41
1
 50
90
  1
300
  0
TEXT
  8
_0-0_通り芯
 62
    7
 10
3594.7062473352657
 20
1965.0714591091505
 40
30
 41
1
 50
90
  1
86
  0
TEXT
  8
_0-0_通り芯
 62
    7
 10
3595.0873159626153
 20
2051.2310757529867
 40
30
 41
1
 50
90
  1
20
  0
TEXT
  8
_0-0_通り芯
 62
    7
 10
3244.8570788522989
 20
2184.3208626099272
 40
30
 41
1
 50
0
  1
480
  0
TEXT
  8
_0-0_通り芯
 62
    7
 10
3119.3825889060654
 20
2130.5460812043984
 40
30
 41
1
 50
0
  1
195
  0
TEXT
  8
_0-0_通り芯
 62
    7
 10
3388.2564959337078
 20
2130.5460812043984
 40
30
 41
1
 50
0
  1
205
  0
TEXT
  8
_0-0_通り芯
 62
    7
 10
3660.0215482800295
 20
1803.2549363013532
 40
30
 41
1
 50
90
  1
506
  0
TEXT
  8
_0-0_通り芯
 62
    7
 10
657.93650793650784
 20
744.67498110355245
 40
40
 41
1
 50
0
  1
名称
  0
TEXT
  8
_0-0_通り芯
 62
    7
 10
867.61148904006052
 20
743.23885109599405
 40
40
 41
1
 50
0
  1
クリーン側溝　300AL開口型
  0
TEXT
  8
_0-0_通り芯
 62
    7
 10
1596.110416955898
 20
743.07124153516281
 40
40
 41
1
 50
0
  1
分類
  0
TEXT
  8
_0-0_通り芯
 62
    7
 10
1859.9413701133537
 20
744.31497071879664
 40
40
 41
1
 50
0
  1
出入口型
  0
TEXT
  8
_0-0_通り芯
 62
    7
 10
2168.312829196333
 20
742.01542599337711
 40
40
 41
1
 50
0
  1
図番
  0
TEXT
  8
_0-0_通り芯
 62
    7
 10
2496.815672039022
 20
744.21738361339976
 40
40
 41
1
 50
0
  1
参考重量
  0
TEXT
  8
_0-0_通り芯
 62
    7
 10
2741.1637292872933
 20
744.21738361339976
 40
40
 41
1
 50
0
  1
382㎏
  0
TEXT
  8
_0-0_通り芯
 62
    7
 10
3174.5713420031916
 20
744.34603931633785
 40
40
 41
1
 50
0
  1
岩城ブロック工業株式会社
  0
ENDSEC
  0
EOF
