  0
SECTION
  2
HEADER
  9
$ACADVER
  1
AC1009
  9
$INSBASE
 10
0
 20
0
 30
0
  9
$EXTMIN
 10
0
 20
0
  9
$EXTMAX
 10
5940
 20
4200
  9
$LIMMIN
 10
0
 20
0
  9
$LIMMAX
 10
5940
 20
4200
  9
$LTSCALE
 40
10
  0
ENDSEC
  0
SECTION
  2
TABLES
  0
TABLE
  2
LTYPE
 70
     9
  0
LTYPE
  2
CONTINUOUS
 70
    64
  3
実線
 72
    65
 73
     0
 40
0.0
  0
LTYPE
  2
DASHED1
 70
    64
  3
--  --  --  --  --  --  --  --  
 72
    65
 73
     2
 40
2.5
 49
1.25
 49
-1.25
  0
LTYPE
  2
DASHED2
 70
    64
  3
----    ----    ----    ----    
 72
    65
 73
     2
 40
5.0
 49
2.5
 49
-2.5
  0
LTYPE
  2
DASHED3
 70
    64
  3
------  ------  ------  ------  
 72
    65
 73
     2
 40
5.0
 49
3.75
 49
-1.25
  0
LTYPE
  2
CENTER1
 70
    64
  3
----- - ----- - ----- - ----- - 
 72
    65
 73
     4
 40
10.0
 49
6.25
 49
-1.25
 49
1.25
 49
-1.25
  0
LTYPE
  2
CENTER2
 70
    64
  3
----------  --  ----------  --  
 72
    65
 73
     4
 40
20.0
 49
12.5
 49
-2.5
 49
2.5
 49
-2.5
  0
LTYPE
  2
PHANTOM1
 70
    64
  3
--- - - --- - - --- - - --- - - 
 72
    65
 73
     6
 40
10.0
 49
3.25
 49
-1.25
 49
1.25
 49
-1.25
 49
1.25
 49
-1.25
  0
LTYPE
  2
PHANTOM2
 70
    64
  3
--------  -  -  --------  -  -  
 72
    65
 73
     6
 40
20.0
 49
10.0
 49
-2.5
 49
1.25
 49
-2.5
 49
1.25
 49
-2.5
  0
LTYPE
  2
DOT
 70
    64
  3
-   -   -   -   -   -   -   -   
 72
    65
 73
     2
 40
2.5
 49
0.625
 49
-1.875
  0
LTYPE
  2
DUMMY
 70
    64
  3
ダミー
 72
    65
 73
     0
 40
0.0
  0
LTYPE
  2
RAND1
 70
    64
  3
ランダム線1
 72
    65
 73
     4
 40
10.0
 49
1.0
 49
-2.0
 49
3.0
 49
-4.0
  0
LTYPE
  2
RAND2
 70
    64
  3
ランダム線2
 72
    65
 73
     4
 40
14.0
 49
2.0
 49
-3.0
 49
4.0
 49
-5.0
  0
LTYPE
  2
RAND3
 70
    64
  3
ランダム線3
 72
    65
 73
     4
 40
18.0
 49
3.0
 49
-4.0
 49
5.0
 49
-6.0
  0
LTYPE
  2
RAND4
 70
    64
  3
ランダム線4
 72
    65
 73
     4
 40
22.0
 49
4.0
 49
-5.0
 49
6.0
 49
-7.0
  0
LTYPE
  2
RAND5
 70
    64
  3
ランダム線5
 72
    65
 73
     4
 40
26.0
 49
5.0
 49
-6.0
 49
7.0
 49
-8.0
  0
LTYPE
  2
LONG1
 70
    64
  3
----------  --  ----------  --  
 72
    65
 73
     4
 40
40.0
 49
32.5
 49
-2.5
 49
2.5
 49
-2.5
  0
LTYPE
  2
LONG2
 70
    64
  3
--------  -  -  --------  -  -  
 72
    65
 73
     6
 40
40.0
 49
30.0
 49
-2.5
 49
1.25
 49
-2.5
 49
1.25
 49
-2.5
  0
LTYPE
  2
LONG3
 70
    64
  3
+++++++++++++++..+++++++++++++++
 72
    65
 73
     2
 40
40.0
 49
37.5
 49
-2.5
  0
LTYPE
  2
LONG4
 70
    64
  3
+++++++++++++++..+++++++++++++++
 72
    65
 73
     2
 40
80.0
 49
75.0
 49
-5.0
  0
LTYPE
  2
LONG5
 70
    64
  3
----------  --  ----------  --  
 72
    65
 73
     4
 40
60.0
 49
37.5
 49
-7.5
 49
7.5
 49
-7.5
  0
LTYPE
  2
dashed
 70
   64
  3
-------   -------------   ------
 72
   65
 73
    2
 40
7.5
 49
6
 49
-1.5
  0
LTYPE
  2
dashed_spaced
 70
   64
  3
----        --------        ----
 72
   65
 73
    2
 40
12
 49
6
 49
-6
  0
LTYPE
  2
long_dashed_dotted
 70
   64
  3
------------- --- --------------
 72
   65
 73
    4
 40
15.25
 49
12
 49
-1.5
 49
0.25
 49
-1.5
  0
LTYPE
  2
long_dashed_double-dotted
 70
   64
  3
----------- --- --- ------------
 72
   65
 73
    6
 40
17
 49
12
 49
-1.5
 49
0.25
 49
-1.5
 49
0.25
 49
-1.5
  0
LTYPE
  2
long_dashed_triplicate-dotted
 70
   64
  3
--------- --- --- --- ----------
 72
   65
 73
    8
 40
18.75
 49
12
 49
-1.5
 49
0.25
 49
-1.5
 49
0.25
 49
-1.5
 49
0.25
 49
-1.5
  0
LTYPE
  2
dotted
 70
   64
  3
   -       -       -       -    
 72
   65
 73
    2
 40
1.75
 49
0.25
 49
-1.5
  0
LTYPE
  2
chain
 70
   64
  3
-------------- -- --------------
 72
   65
 73
    4
 40
18.5
 49
12
 49
-1.5
 49
3.5
 49
-1.5
  0
LTYPE
  2
chain_double_dash
 70
   64
  3
------------ -- -- -------------
 72
   65
 73
    6
 40
23.5
 49
12
 49
-1.5
 49
3.5
 49
-1.5
 49
3.5
 49
-1.5
  0
LTYPE
  2
dashed_dotted
 70
   64
  3
-----------     -     ----------
 72
   65
 73
    4
 40
9.25
 49
6
 49
-1.5
 49
0.25
 49
-1.5
  0
LTYPE
  2
double-dashed_dotted
 70
   64
  3
------   -----------   -   -----
 72
   65
 73
    6
 40
16.75
 49
6
 49
-1.5
 49
6
 49
-1.5
 49
0.25
 49
-1.5
  0
LTYPE
  2
dashed_double-dotted
 70
   64
  3
---------    -    -    ---------
 72
   65
 73
    6
 40
11
 49
6
 49
-1.5
 49
0.25
 49
-1.5
 49
0.25
 49
-1.5
  0
LTYPE
  2
double-dashed_double-dotted
 70
   64
  3
-----   ---------   -   -   ----
 72
   65
 73
    8
 40
18.5
 49
6
 49
-1.5
 49
6
 49
-1.5
 49
0.25
 49
-1.5
 49
0.25
 49
-1.5
  0
LTYPE
  2
dashed_triplicate-dotted
 70
   64
  3
-------    -    -    -    ------
 72
   65
 73
    8
 40
12.75
 49
6
 49
-1.5
 49
0.25
 49
-1.5
 49
0.25
 49
-1.5
 49
0.25
 49
-1.5
  0
LTYPE
  2
double-dashed_triplicate-dotted
 70
   64
  3
-----  ---------  -  -  -  -----
 72
   65
 73
   10
 40
20.25
 49
6
 49
-1.5
 49
6
 49
-1.5
 49
0.25
 49
-1.5
 49
0.25
 49
-1.5
 49
0.25
 49
-1.5
  0
LTYPE
  2
undefined
 70
   64
  3
--------------------------------
 72
   65
 73
    0
 40
0
  0
LTYPE
  2
_
 70
   64
  3
                                
 72
   65
 73
    0
 40
0
  0
LTYPE
  2
__18
 70
   64
  3
                                
 72
   65
 73
    0
 40
0
  0
LTYPE
  2
__19
 70
   64
  3
                                
 72
   65
 73
    0
 40
0
  0
LTYPE
  2
__20
 70
   64
  3
                                
 72
   65
 73
    0
 40
0
  0
LTYPE
  2
__21
 70
   64
  3
                                
 72
   65
 73
    0
 40
0
  0
LTYPE
  2
__22
 70
   64
  3
                                
 72
   65
 73
    0
 40
0
  0
LTYPE
  2
__23
 70
   64
  3
                                
 72
   65
 73
    0
 40
0
  0
LTYPE
  2
__24
 70
   64
  3
                                
 72
   65
 73
    0
 40
0
  0
LTYPE
  2
__25
 70
   64
  3
                                
 72
   65
 73
    0
 40
0
  0
LTYPE
  2
__26
 70
   64
  3
                                
 72
   65
 73
    0
 40
0
  0
LTYPE
  2
__27
 70
   64
  3
                                
 72
   65
 73
    0
 40
0
  0
LTYPE
  2
__28
 70
   64
  3
                                
 72
   65
 73
    0
 40
0
  0
LTYPE
  2
__29
 70
   64
  3
                                
 72
   65
 73
    0
 40
0
  0
LTYPE
  2
__30
 70
   64
  3
                                
 72
   65
 73
    0
 40
0
  0
LTYPE
  2
__31
 70
   64
  3
                                
 72
   65
 73
    0
 40
0
  0
LTYPE
  2
__32
 70
   64
  3
                                
 72
   65
 73
    0
 40
0
  0
ENDTAB
  0
TABLE
  2
STYLE
  5
3
100
AcDbSymbolTable
 70
     1
  0
STYLE
  5
10
100
AcDbSymbolTableRecord
100
AcDbTextStyleTableRecord
  2
STANDARD
 70
     0
 40
0.0
 41
1.0
 50
0.0
 71
     0
 42
0.2
  3
txt
  4
bigfont.shx
  0
STYLE
  5
26
100
AcDbSymbolTableRecord
100
AcDbTextStyleTableRecord
  2
TATEGAKI
 70
    68
 40
0.0
 41
1.0
 50
0.0
 71
     0
 42
1.0
  3
txt
  4
bigfont.shx
  0
ENDTAB
  0
TABLE
  2
LAYER
 70
    2
  0
LAYER
  2
_0-0_通り芯
 70
   64
 62
    7
  6
CONTINUOUS
  0
LAYER
  2
ADD_LINE
 70
   64
 62
    7
  6
CONTINUOUS
  0
ENDTAB
  0
ENDSEC
  0
SECTION
  2
BLOCKS
  0
ENDSEC
  0
SECTION
  2
ENTITIES
  0
TEXT
  8
_0-0_通り芯
 62
    7
 10
3114.8455482215013
 20
1752.1850694895793
 40
40
 41
1
 50
0
  1
参考重量
  0
LINE
  8
_0-0_通り芯
  6
CONTINUOUS
 62
    7
 10
4474.5041000000001
 20
1823.7837200000001
 11
1375.0438596491231
 21
1823.7837200000001
  0
TEXT
  8
_0-0_通り芯
 62
    7
 10
2149.2565999999997
 20
3123.4494
 40
28
 41
1
 50
0
  1
205
  0
TEXT
  8
_0-0_通り芯
 62
    7
 10
2149.2565999999997
 20
2858.3955000000005
 40
28
 41
1
 50
0
  1
180
  0
TEXT
  8
_0-0_通り芯
 62
    7
 10
2149.2565999999997
 20
2704.9944999999998
 40
28
 41
1
 50
0
  1
150
  0
TEXT
  8
_0-0_通り芯
 62
    7
 10
1876.4061999999999
 20
2844.0264000000002
 40
28
 41
1
 50
0
  1
2%
  0
TEXT
  8
_0-0_通り芯
 62
    7
 10
2011.7565
 20
3181.5500000000002
 40
28
 41
1
 50
0
  1
480
  0
TEXT
  8
_0-0_通り芯
 62
    7
 10
1820.50659
 20
2116.3474000000001
 40
28
 41
1
 50
0
  1
80
  0
TEXT
  8
_0-0_通り芯
 62
    7
 10
2011.7565
 20
2116.3474000000001
 40
28
 41
1
 50
0
  1
320
  0
TEXT
  8
_0-0_通り芯
 62
    7
 10
2220.5065
 20
2116.3474000000001
 40
28
 41
1
 50
0
  1
80
  0
TEXT
  8
_0-0_通り芯
 62
    7
 10
2011.7565
 20
2058.0477000000001
 40
28
 41
1
 50
0
  1
480
  0
TEXT
  8
_0-0_通り芯
 62
    7
 10
1701.1513
 20
2286.9295000000002
 40
28
 41
1
 50
90
  1
260
  0
TEXT
  8
_0-0_通り芯
 62
    7
 10
1701.1513
 20
2566.9294
 40
28
 41
1
 50
90
  1
300
  0
TEXT
  8
_0-0_通り芯
 62
    7
 10
1701.1513
 20
2770.6794
 40
28
 41
1
 50
90
  1
90
  0
TEXT
  8
_0-0_通り芯
 62
    7
 10
1623.5833699999998
 20
2481.9295000000002
 40
28
 41
1
 50
90
  1
650
  0
TEXT
  8
_0-0_通り芯
 62
    7
 10
2349.5927999999999
 20
2467.4295000000002
 40
28
 41
1
 50
90
  1
621
  0
TEXT
  8
_0-0_通り芯
 62
    7
 10
3486.9209000000001
 20
2859.2869999999998
 40
28
 41
1
 50
0
  1
180
  0
TEXT
  8
_0-0_通り芯
 62
    7
 10
3486.9209000000001
 20
2712.7539999999999
 40
28
 41
1
 50
0
  1
150
  0
TEXT
  8
_0-0_通り芯
 62
    7
 10
3647.7602000000002
 20
2761.6795000000002
 40
28
 41
1
 50
90
  1
60
  0
TEXT
  8
_0-0_通り芯
 62
    7
 10
3035.6707999999999
 20
2120.6588999999999
 40
28
 41
1
 50
0
  1
80
  0
TEXT
  8
_0-0_通り芯
 62
    7
 10
3955.6707999999999
 20
2120.6588999999999
 40
28
 41
1
 50
0
  1
80
  0
TEXT
  8
_0-0_通り芯
 62
    7
 10
3486.9209000000001
 20
2120.6588999999999
 40
28
 41
1
 50
0
  1
840
  0
TEXT
  8
_0-0_通り芯
 62
    7
 10
3926.9209000000001
 20
3117.0765999999999
 40
28
 41
1
 50
0
  1
120
  0
TEXT
  8
_0-0_通り芯
 62
    7
 10
3046.9207999999999
 20
3117.0765999999999
 40
28
 41
1
 50
0
  1
120
  0
TEXT
  8
_0-0_通り芯
 62
    7
 10
3486.9209000000001
 20
3117.0765999999999
 40
28
 41
1
 50
0
  1
760
  0
TEXT
  8
_0-0_通り芯
 62
    7
 10
3469.4207999999999
 20
3192.8598000000002
 40
28
 41
1
 50
0
  1
1,000
  0
TEXT
  8
_0-0_通り芯
 62
    7
 10
2924.2006000000001
 20
2286.9295000000002
 40
28
 41
1
 50
90
  1
260
  0
TEXT
  8
_0-0_通り芯
 62
    7
 10
2924.2006000000001
 20
2566.9294
 40
28
 41
1
 50
90
  1
300
  0
TEXT
  8
_0-0_通り芯
 62
    7
 10
2924.2006000000001
 20
2770.6794
 40
28
 41
1
 50
90
  1
90
  0
TEXT
  8
_0-0_通り芯
 62
    7
 10
2833.0996
 20
2481.9295000000002
 40
28
 41
1
 50
90
  1
650
  0
TEXT
  8
_0-0_通り芯
 62
    7
 10
4115.4387000000006
 20
2467.4295000000002
 40
28
 41
1
 50
90
  1
621
  0
TEXT
  8
_0-0_通り芯
 62
    7
 10
2149.5128
 20
3073.0376999999999
 40
28
 41
1
 50
0
  1
180
  0
TEXT
  8
_0-0_通り芯
 62
    7
 10
2351.0927999999999
 20
2871.9294
 40
28
 41
1
 50
90
  1
170
  0
TEXT
  8
_0-0_通り芯
 62
    7
 10
2431.5488
 20
2558.9294
 40
28
 41
1
 50
90
  1
796
  0
TEXT
  8
_0-0_通り芯
 62
    7
 10
4116.9387999999999
 20
2871.9294
 40
28
 41
1
 50
90
  1
170
  0
TEXT
  8
_0-0_通り芯
 62
    7
 10
4180.6361999999999
 20
2558.9294
 40
28
 41
1
 50
90
  1
796
  0
LINE
  8
_0-0_通り芯
  6
CONTINUOUS
 62
    7
 10
1886.7565
 20
2784.5156999999999
 11
1836.75657
 21
2785.7272999999996
  0
LINE
  8
_0-0_通り芯
  6
CONTINUOUS
 62
    7
 10
1886.7565
 20
2661.9295000000002
 11
1886.7565
 21
2634.5785000000001
  0
LINE
  8
_0-0_通り芯
  6
CONTINUOUS
 62
    7
 10
2186.7563999999998
 20
2661.9295000000002
 11
2186.7563999999998
 21
2634.5785000000001
  0
LINE
  8
_0-0_通り芯
  6
CONTINUOUS
 62
    7
 10
2106.7565
 20
2741.9294
 11
2056.7565999999997
 21
2741.9294
  0
LINE
  8
_0-0_通り芯
  6
CONTINUOUS
 62
    7
 10
2076.7565999999997
 20
2802.9295000000002
 11
2276.7565
 21
2802.9295000000002
  0
LINE
  8
_0-0_通り芯
  6
CONTINUOUS
 62
    7
 10
2076.7565999999997
 20
2807.9295000000002
 11
2276.7565
 21
2807.9295000000002
  0
LINE
  8
_0-0_通り芯
  6
CONTINUOUS
 62
    7
 10
1796.75659
 20
2915.0100000000002
 11
1796.75659
 21
2862.3548999999998
  0
LINE
  8
_0-0_通り芯
  6
CONTINUOUS
 62
    7
 10
2276.7565
 20
3118.4494
 11
2071.7565999999997
 21
3118.4494
  0
LINE
  8
_0-0_通り芯
  6
CONTINUOUS
 62
    7
 10
2084.2565
 20
2853.3955999999998
 11
2264.2563999999998
 21
2853.3955999999998
  0
LINE
  8
_0-0_通り芯
  6
CONTINUOUS
 62
    7
 10
2084.2565
 20
2853.3955999999998
 11
2084.2565
 21
2815.7768999999998
  0
LINE
  8
_0-0_通り芯
  6
CONTINUOUS
 62
    7
 10
2264.2563999999998
 20
2853.3955999999998
 11
2264.2563999999998
 21
2815.7768999999998
  0
LINE
  8
_0-0_通り芯
  6
CONTINUOUS
 62
    7
 10
2099.2565
 20
2699.9944999999998
 11
2249.2563999999998
 21
2699.9944999999998
  0
LINE
  8
_0-0_通り芯
  6
CONTINUOUS
 62
    7
 10
2099.2565
 20
2699.9944999999998
 11
2099.2565
 21
2743.8833
  0
LINE
  8
_0-0_通り芯
  6
CONTINUOUS
 62
    7
 10
2249.2563999999998
 20
2699.9944999999998
 11
2249.2563999999998
 21
2743.8833
  0
LINE
  8
_0-0_通り芯
  6
CONTINUOUS
 62
    7
 10
1909.3408999999999
 20
2717.6379000000002
 11
1954.9154000000001
 21
2680.8037000000004
  0
LINE
  8
_0-0_通り芯
  6
CONTINUOUS
 62
    7
 10
1933.0558000000001
 20
2502.1361999999999
 11
1996.4223999999999
 21
2524.1032
  0
LINE
  8
_0-0_通り芯
  6
CONTINUOUS
 62
    7
 10
2076.7565999999997
 20
2826.9295000000002
 11
2071.7565999999997
 21
2826.9295000000002
  0
LINE
  8
_0-0_通り芯
  6
CONTINUOUS
 62
    7
 10
1943.0723
 20
2838.1673000000001
 11
1842.0943
 21
2840.6142
  0
LINE
  8
_0-0_通り芯
  6
CONTINUOUS
 62
    7
 10
1943.2098999999998
 20
2837.9902000000002
 11
1930.0056
 21
2842.8946000000001
  0
LINE
  8
_0-0_通り芯
  6
CONTINUOUS
 62
    7
 10
1796.75659
 20
3176.5500000000002
 11
1796.75659
 21
2898.2046
  0
LINE
  8
_0-0_通り芯
  6
CONTINUOUS
 62
    7
 10
2276.7565
 20
3176.5500000000002
 11
1796.75659
 21
3176.5500000000002
  0
LINE
  8
_0-0_通り芯
  6
CONTINUOUS
 62
    7
 10
2276.7565
 20
3176.5500000000002
 11
2276.7565
 21
3118.4494
  0
LINE
  8
_0-0_通り芯
  6
CONTINUOUS
 62
    7
 10
2084.4126999999999
 20
2807.9295000000002
 11
2099.0281
 21
2747.9294
  0
LINE
  8
_0-0_通り芯
  6
CONTINUOUS
 62
    7
 10
2099.0281
 20
2747.9294
 11
2249.2842000000001
 21
2747.9294
  0
LINE
  8
_0-0_通り芯
  6
CONTINUOUS
 62
    7
 10
2264.1932999999999
 20
2807.9295000000002
 11
2249.2842000000001
 21
2747.9294
  0
LINE
  8
_0-0_通り芯
  6
CONTINUOUS
 62
    7
 10
1796.75659
 20
2181.9294
 11
1796.75659
 21
2831.9295000000002
  0
LINE
  8
_0-0_通り芯
  6
CONTINUOUS
 62
    7
 10
1796.75659
 20
2181.9294
 11
2276.7565
 21
2181.9294
  0
LINE
  8
_0-0_通り芯
  6
CONTINUOUS
 62
    7
 10
1796.75659
 20
2111.3474000000001
 11
1876.7566000000002
 21
2111.3474000000001
  0
LINE
  8
_0-0_通り芯
  6
CONTINUOUS
 62
    7
 10
1796.75659
 20
2111.3474000000001
 11
1796.75659
 21
2167.4877999999999
  0
LINE
  8
_0-0_通り芯
  6
CONTINUOUS
 62
    7
 10
1876.7566000000002
 20
2111.3474000000001
 11
1876.7566000000002
 21
2167.4877999999999
  0
LINE
  8
_0-0_通り芯
  6
CONTINUOUS
 62
    7
 10
1876.7566000000002
 20
2111.3474000000001
 11
2196.7563999999998
 21
2111.3474000000001
  0
LINE
  8
_0-0_通り芯
  6
CONTINUOUS
 62
    7
 10
2196.7563999999998
 20
2111.3474000000001
 11
2196.7563999999998
 21
2167.4877999999999
  0
LINE
  8
_0-0_通り芯
  6
CONTINUOUS
 62
    7
 10
2196.7563999999998
 20
2111.3474000000001
 11
2276.7565
 21
2111.3474000000001
  0
LINE
  8
_0-0_通り芯
  6
CONTINUOUS
 62
    7
 10
2276.7565
 20
2111.3474000000001
 11
2276.7565
 21
2167.4877999999999
  0
LINE
  8
_0-0_通り芯
  6
CONTINUOUS
 62
    7
 10
1796.75659
 20
2053.0477000000001
 11
2276.7565
 21
2053.0477000000001
  0
LINE
  8
_0-0_通り芯
  6
CONTINUOUS
 62
    7
 10
1796.75659
 20
2053.0477000000001
 11
1796.75659
 21
2135.0989999999997
  0
LINE
  8
_0-0_通り芯
  6
CONTINUOUS
 62
    7
 10
2276.7565
 20
2053.0477000000001
 11
2276.7565
 21
2135.0989999999997
  0
LINE
  8
_0-0_通り芯
  6
CONTINUOUS
 62
    7
 10
1876.9544000000001
 20
2183.2062999999998
 11
1886.7908
 21
2635.2287000000001
  0
LINE
  8
_0-0_通り芯
  6
CONTINUOUS
 62
    7
 10
2187.3027999999999
 20
2634.5677000000001
 11
2197.0108999999998
 21
2182.0024000000003
  0
LINE
  8
_0-0_通り芯
  6
CONTINUOUS
 62
    7
 10
1706.15129
 20
2181.9294
 11
1706.15129
 21
2441.9295000000002
  0
LINE
  8
_0-0_通り芯
  6
CONTINUOUS
 62
    7
 10
1706.15129
 20
2181.9294
 11
1778.7680399999999
 21
2181.9294
  0
LINE
  8
_0-0_通り芯
  6
CONTINUOUS
 62
    7
 10
1706.15129
 20
2441.9295000000002
 11
1778.7680399999999
 21
2441.9295000000002
  0
LINE
  8
_0-0_通り芯
  6
CONTINUOUS
 62
    7
 10
1706.15129
 20
2441.9295000000002
 11
1706.15129
 21
2741.9294
  0
LINE
  8
_0-0_通り芯
  6
CONTINUOUS
 62
    7
 10
1706.15129
 20
2741.9294
 11
1778.7680399999999
 21
2741.9294
  0
LINE
  8
_0-0_通り芯
  6
CONTINUOUS
 62
    7
 10
1706.15129
 20
2741.9294
 11
1706.15129
 21
2831.9295000000002
  0
LINE
  8
_0-0_通り芯
  6
CONTINUOUS
 62
    7
 10
1706.15129
 20
2831.9295000000002
 11
1778.7680399999999
 21
2831.9295000000002
  0
LINE
  8
_0-0_通り芯
  6
CONTINUOUS
 62
    7
 10
1628.5833600000001
 20
2831.9295000000002
 11
1628.5833600000001
 21
2181.9294
  0
LINE
  8
_0-0_通り芯
  6
CONTINUOUS
 62
    7
 10
1628.5833600000001
 20
2831.9295000000002
 11
1725.95589
 21
2831.9295000000002
  0
LINE
  8
_0-0_通り芯
  6
CONTINUOUS
 62
    7
 10
1628.5833600000001
 20
2181.9294
 11
1725.95589
 21
2181.9294
  0
LINE
  8
_0-0_通り芯
  6
CONTINUOUS
 62
    7
 10
1841.7566200000001
 20
2790.6077
 11
1841.7566200000001
 21
2830.6194
  0
LINE
  8
_0-0_通り芯
  6
CONTINUOUS
 62
    7
 10
1836.75657
 20
2785.7272999999996
 11
1836.75657
 21
2830.6194
  0
LINE
  8
_0-0_通り芯
  6
CONTINUOUS
 62
    7
 10
1841.7566200000001
 20
2830.6194
 11
1796.75659
 21
2831.7097000000003
  0
LINE
  8
_0-0_通り芯
  6
CONTINUOUS
 62
    7
 10
2071.7565999999997
 20
2826.9295000000002
 11
2071.7565999999997
 21
2785.0340000000001
  0
LINE
  8
_0-0_通り芯
  6
CONTINUOUS
 62
    7
 10
1886.7565
 20
2789.5171
 11
1841.7566200000001
 21
2790.6077
  0
LINE
  8
_0-0_通り芯
  6
CONTINUOUS
 62
    7
 10
1886.7565
 20
2784.5156999999999
 11
1886.7565
 21
2789.5171
  0
LINE
  8
_0-0_通り芯
  6
CONTINUOUS
 62
    7
 10
1886.7565
 20
2661.9295000000002
 11
1886.7565
 21
2784.5156999999999
  0
LINE
  8
_0-0_通り芯
  6
CONTINUOUS
 62
    7
 10
2056.7565999999997
 20
2741.9294
 11
1966.7565
 21
2741.9294
  0
LINE
  8
_0-0_通り芯
  6
CONTINUOUS
 62
    7
 10
2071.7565999999997
 20
2785.0340000000001
 11
2056.7565999999997
 21
2785.3976000000002
  0
LINE
  8
_0-0_通り芯
  6
CONTINUOUS
 62
    7
 10
2076.7565999999997
 20
2826.9295000000002
 11
2076.7565999999997
 21
2779.9115999999999
  0
LINE
  8
_0-0_通り芯
  6
CONTINUOUS
 62
    7
 10
2076.7565999999997
 20
2779.9115999999999
 11
2056.7565999999997
 21
2780.3960999999999
  0
LINE
  8
_0-0_通り芯
  6
CONTINUOUS
 62
    7
 10
2056.7565999999997
 20
2785.3976000000002
 11
2056.7565999999997
 21
2780.3960999999999
  0
LINE
  8
_0-0_通り芯
  6
CONTINUOUS
 62
    7
 10
2056.8150000000001
 20
2780.3946000000001
 11
2067.7853
 21
2741.9294
  0
LINE
  8
_0-0_通り芯
  6
CONTINUOUS
 62
    7
 10
2354.5927999999999
 20
2807.9295000000002
 11
2293.9825999999998
 21
2807.9295000000002
  0
LINE
  8
_0-0_通り芯
  6
CONTINUOUS
 62
    7
 10
2354.5927999999999
 20
2807.9295000000002
 11
2354.5927999999999
 21
2802.9295000000002
  0
LINE
  8
_0-0_通り芯
  6
CONTINUOUS
 62
    7
 10
2354.5927999999999
 20
2802.9295000000002
 11
2293.9825999999998
 21
2802.9295000000002
  0
LINE
  8
_0-0_通り芯
  6
CONTINUOUS
 62
    7
 10
2354.5927999999999
 20
2802.9295000000002
 11
2354.5927999999999
 21
2181.9294
  0
LINE
  8
_0-0_通り芯
  6
CONTINUOUS
 62
    7
 10
2354.5927999999999
 20
2181.9294
 11
2293.9825999999998
 21
2181.9294
  0
LINE
  8
_0-0_通り芯
  6
CONTINUOUS
 62
    7
 10
2069.7565
 20
2825.0945000000002
 11
1843.75657
 21
2830.5709000000002
  0
LINE
  8
_0-0_通り芯
  6
CONTINUOUS
 62
    7
 10
2069.7565
 20
2787.0832
 11
1843.75657
 21
2792.5599000000002
  0
LINE
  8
_0-0_通り芯
  6
CONTINUOUS
 62
    7
 10
1843.75657
 20
2792.5599000000002
 11
1843.75657
 21
2830.6194
  0
LINE
  8
_0-0_通り芯
  6
CONTINUOUS
 62
    7
 10
2069.7565
 20
2825.0945000000002
 11
2069.7565
 21
2786.9292999999998
  0
LINE
  8
_0-0_通り芯
  6
CONTINUOUS
 62
    7
 10
1888.9566
 20
2791.4337999999998
 11
1888.9566
 21
2829.5144
  0
LINE
  8
_0-0_通り芯
  6
CONTINUOUS
 62
    7
 10
1934.1565000000001
 20
2790.3076000000001
 11
1934.1565000000001
 21
2828.4092999999993
  0
LINE
  8
_0-0_通り芯
  6
CONTINUOUS
 62
    7
 10
1979.3566000000001
 20
2789.1815000000001
 11
1979.3566000000001
 21
2827.3042999999998
  0
LINE
  8
_0-0_通り芯
  6
CONTINUOUS
 62
    7
 10
2024.5564999999999
 20
2788.0554000000002
 11
2024.5564999999999
 21
2826.1992
  0
LINE
  8
_0-0_通り芯
  6
CONTINUOUS
 62
    7
 10
3311.9207000000001
 20
2631.9294
 11
3111.9209000000001
 21
2631.9294
  0
LINE
  8
_0-0_通り芯
  6
CONTINUOUS
 62
    7
 10
3311.9207000000001
 20
2691.9295000000002
 11
3111.9209000000001
 21
2691.9295000000002
  0
LINE
  8
_0-0_通り芯
  6
CONTINUOUS
 62
    7
 10
3311.9207000000001
 20
2631.9294
 11
3311.9207000000001
 21
2691.9295000000002
  0
LINE
  8
_0-0_通り芯
  6
CONTINUOUS
 62
    7
 10
3111.9209000000001
 20
2631.9294
 11
3111.9209000000001
 21
2691.9295000000002
  0
LINE
  8
_0-0_通り芯
  6
CONTINUOUS
 62
    7
 10
3111.9209000000001
 20
2671.9295000000002
 11
3011.9209000000001
 21
2671.9295000000002
  0
LINE
  8
_0-0_通り芯
  6
CONTINUOUS
 62
    7
 10
3111.9209000000001
 20
2651.9295000000002
 11
3011.9209000000001
 21
2651.9295000000002
  0
LINE
  8
_0-0_通り芯
  6
CONTINUOUS
 62
    7
 10
3301.9207999999999
 20
2681.9294
 11
3121.9209000000001
 21
2681.9294
  0
LINE
  8
_0-0_通り芯
  6
CONTINUOUS
 62
    7
 10
3301.9207999999999
 20
2641.9294
 11
3301.9207999999999
 21
2681.9294
  0
LINE
  8
_0-0_通り芯
  6
CONTINUOUS
 62
    7
 10
3122.4632000000001
 20
2681.6053000000002
 11
3111.9209000000001
 21
2692.2942999999996
  0
LINE
  8
_0-0_通り芯
  6
CONTINUOUS
 62
    7
 10
3301.9207999999999
 20
2641.9294
 11
3121.9209000000001
 21
2641.9294
  0
LINE
  8
_0-0_通り芯
  6
CONTINUOUS
 62
    7
 10
3121.9209000000001
 20
2641.9294
 11
3121.9209000000001
 21
2681.9294
  0
LINE
  8
_0-0_通り芯
  6
CONTINUOUS
 62
    7
 10
3121.7016000000003
 20
2641.9294
 11
3111.9209000000001
 21
2631.6713
  0
LINE
  8
_0-0_通り芯
  6
CONTINUOUS
 62
    7
 10
3301.5023999999999
 20
2681.9294
 11
3311.9207000000001
 21
2691.71
  0
LINE
  8
_0-0_通り芯
  6
CONTINUOUS
 62
    7
 10
3301.9497000000001
 20
2641.9294
 11
3311.1332000000002
 21
2631.9294
  0
LINE
  8
_0-0_通り芯
  6
CONTINUOUS
 62
    7
 10
3421.9207000000001
 20
2854.2869999999998
 11
3601.9207999999999
 21
2854.2869999999998
  0
LINE
  8
_0-0_通り芯
  6
CONTINUOUS
 62
    7
 10
3421.9207000000001
 20
2854.2869999999998
 11
3421.9207000000001
 21
2812.4065000000001
  0
LINE
  8
_0-0_通り芯
  6
CONTINUOUS
 62
    7
 10
3601.9207999999999
 20
2854.2869999999998
 11
3601.9207999999999
 21
2812.4065000000001
  0
LINE
  8
_0-0_通り芯
  6
CONTINUOUS
 62
    7
 10
3436.9209999999998
 20
2707.7541000000001
 11
3586.9209000000001
 21
2707.7541000000001
  0
LINE
  8
_0-0_通り芯
  6
CONTINUOUS
 62
    7
 10
3436.9209999999998
 20
2707.7541000000001
 11
3436.9209999999998
 21
2741.8319000000001
  0
LINE
  8
_0-0_通り芯
  6
CONTINUOUS
 62
    7
 10
3586.9209000000001
 20
2707.7541000000001
 11
3586.9209000000001
 21
2741.8319000000001
  0
LINE
  8
_0-0_通り芯
  6
CONTINUOUS
 62
    7
 10
3652.7602000000002
 20
2807.9295000000002
 11
3652.7602000000002
 21
2747.9294
  0
LINE
  8
_0-0_通り芯
  6
CONTINUOUS
 62
    7
 10
3652.7602000000002
 20
2807.9295000000002
 11
3615.6864
 21
2807.9295000000002
  0
LINE
  8
_0-0_通り芯
  6
CONTINUOUS
 62
    7
 10
3652.7602000000002
 20
2747.9294
 11
3615.6864
 21
2747.9294
  0
LINE
  8
_0-0_通り芯
  6
CONTINUOUS
 62
    7
 10
4011.9209000000001
 20
2181.9294
 11
3011.9209000000001
 21
2181.9294
  0
LINE
  8
_0-0_通り芯
  6
CONTINUOUS
 62
    7
 10
3386.4582999999998
 20
2659.0522000000001
 11
3386.4582999999998
 21
2698.9566000000004
  0
LINE
  8
_0-0_通り芯
  6
CONTINUOUS
 62
    7
 10
3386.4582999999998
 20
2659.0522000000001
 11
3635.8584000000001
 21
2659.0522000000001
  0
LINE
  8
_0-0_通り芯
  6
CONTINUOUS
 62
    7
 10
3635.8584000000001
 20
2659.0522000000001
 11
3635.8584000000001
 21
2698.9566000000004
  0
LINE
  8
_0-0_通り芯
  6
CONTINUOUS
 62
    7
 10
3386.4692999999997
 20
2698.9294
 11
3401.3622999999998
 21
2689.0010000000002
  0
LINE
  8
_0-0_通り芯
  6
CONTINUOUS
 62
    7
 10
3401.3622999999998
 20
2689.0010000000002
 11
3411.1525000000001
 21
2679.0726
  0
LINE
  8
_0-0_通り芯
  6
CONTINUOUS
 62
    7
 10
3411.1525000000001
 20
2679.0726
 11
3386.4692999999997
 21
2659.0777000000003
  0
LINE
  8
_0-0_通り芯
  6
CONTINUOUS
 62
    7
 10
3620.9198999999999
 20
2689.1167999999998
 11
3610.7995999999998
 21
2679.4067
  0
LINE
  8
_0-0_通り芯
  6
CONTINUOUS
 62
    7
 10
3635.6118999999999
 20
2698.9566000000004
 11
3620.9198999999999
 21
2689.1167999999998
  0
LINE
  8
_0-0_通り芯
  6
CONTINUOUS
 62
    7
 10
3401.3928999999998
 20
2688.9803999999999
 11
3620.7164999999995
 21
2688.9803999999999
  0
LINE
  8
_0-0_通り芯
  6
CONTINUOUS
 62
    7
 10
3411.2197000000006
 20
2679.0045
 11
3610.3800000000001
 21
2679.0045
  0
LINE
  8
_0-0_通り芯
  6
CONTINUOUS
 62
    7
 10
3386.4582999999998
 20
2698.9566000000004
 11
3635.8584000000001
 21
2698.9566000000004
  0
LINE
  8
_0-0_通り芯
  6
CONTINUOUS
 62
    7
 10
3610.7995999999998
 20
2679.4067
 11
3635.3888000000002
 21
2659.0522000000001
  0
LINE
  8
_0-0_通り芯
  6
CONTINUOUS
 62
    7
 10
3710.4108999999999
 20
2631.9294
 11
3910.4108999999999
 21
2631.9294
  0
LINE
  8
_0-0_通り芯
  6
CONTINUOUS
 62
    7
 10
3710.4108999999999
 20
2691.9295000000002
 11
3910.4108999999999
 21
2691.9295000000002
  0
LINE
  8
_0-0_通り芯
  6
CONTINUOUS
 62
    7
 10
3710.4108999999999
 20
2631.9294
 11
3710.4108999999999
 21
2691.9295000000002
  0
LINE
  8
_0-0_通り芯
  6
CONTINUOUS
 62
    7
 10
3910.4108999999999
 20
2631.9294
 11
3910.4108999999999
 21
2691.9295000000002
  0
LINE
  8
_0-0_通り芯
  6
CONTINUOUS
 62
    7
 10
3910.4108999999999
 20
2671.9295000000002
 11
4010.4106999999999
 21
2671.9295000000002
  0
LINE
  8
_0-0_通り芯
  6
CONTINUOUS
 62
    7
 10
3910.4108999999999
 20
2651.9295000000002
 11
4010.4106999999999
 21
2651.9295000000002
  0
LINE
  8
_0-0_通り芯
  6
CONTINUOUS
 62
    7
 10
3720.4108999999999
 20
2681.9294
 11
3900.4110000000001
 21
2681.9294
  0
LINE
  8
_0-0_通り芯
  6
CONTINUOUS
 62
    7
 10
3720.4108999999999
 20
2641.9294
 11
3720.4108999999999
 21
2681.9294
  0
LINE
  8
_0-0_通り芯
  6
CONTINUOUS
 62
    7
 10
3899.8683999999998
 20
2681.6053000000002
 11
3910.4108999999999
 21
2692.2942999999996
  0
LINE
  8
_0-0_通り芯
  6
CONTINUOUS
 62
    7
 10
3720.4108999999999
 20
2641.9294
 11
3900.4110000000001
 21
2641.9294
  0
LINE
  8
_0-0_通り芯
  6
CONTINUOUS
 62
    7
 10
3900.4110000000001
 20
2641.9294
 11
3900.4110000000001
 21
2681.9294
  0
LINE
  8
_0-0_通り芯
  6
CONTINUOUS
 62
    7
 10
3900.6300000000001
 20
2641.9294
 11
3910.4108999999999
 21
2631.6713
  0
LINE
  8
_0-0_通り芯
  6
CONTINUOUS
 62
    7
 10
3720.8292999999999
 20
2681.9294
 11
3710.4108999999999
 21
2691.71
  0
LINE
  8
_0-0_通り芯
  6
CONTINUOUS
 62
    7
 10
3720.3820000000001
 20
2641.9294
 11
3711.1984000000002
 21
2631.9294
  0
LINE
  8
_0-0_通り芯
  6
CONTINUOUS
 62
    7
 10
3131.9209000000001
 20
2741.9294
 11
3011.9209000000001
 21
2741.9294
  0
LINE
  8
_0-0_通り芯
  6
CONTINUOUS
 62
    7
 10
4011.9209000000001
 20
2741.9294
 11
3891.9209999999998
 21
2741.9294
  0
LINE
  8
_0-0_通り芯
  6
CONTINUOUS
 62
    7
 10
3110.2338
 20
2441.9295000000002
 11
3011.9209000000001
 21
2441.9295000000002
  0
LINE
  8
_0-0_通り芯
  6
CONTINUOUS
 62
    7
 10
4011.9209000000001
 20
2441.9295000000002
 11
3913.6080000000002
 21
2441.9295000000002
  0
LINE
  8
_0-0_通り芯
  6
CONTINUOUS
 62
    7
 10
3011.9209000000001
 20
2115.6588999999999
 11
3091.9209999999998
 21
2115.6588999999999
  0
LINE
  8
_0-0_通り芯
  6
CONTINUOUS
 62
    7
 10
3011.9209000000001
 20
2115.6588999999999
 11
3011.9209000000001
 21
2168.6087000000002
  0
LINE
  8
_0-0_通り芯
  6
CONTINUOUS
 62
    7
 10
3091.9209999999998
 20
2115.6588999999999
 11
3091.9209999999998
 21
2168.6087000000002
  0
LINE
  8
_0-0_通り芯
  6
CONTINUOUS
 62
    7
 10
3931.9209000000001
 20
2115.6588999999999
 11
4011.9209000000001
 21
2115.6588999999999
  0
LINE
  8
_0-0_通り芯
  6
CONTINUOUS
 62
    7
 10
3931.9209000000001
 20
2115.6588999999999
 11
3931.9209000000001
 21
2168.6087000000002
  0
LINE
  8
_0-0_通り芯
  6
CONTINUOUS
 62
    7
 10
4011.9209000000001
 20
2115.6588999999999
 11
4011.9209000000001
 21
2168.6087000000002
  0
LINE
  8
_0-0_通り芯
  6
CONTINUOUS
 62
    7
 10
3091.9209999999998
 20
2115.6588999999999
 11
3931.9209000000001
 21
2115.6588999999999
  0
LINE
  8
_0-0_通り芯
  6
CONTINUOUS
 62
    7
 10
4011.9209000000001
 20
3112.0765999999999
 11
3891.9209999999998
 21
3112.0765999999999
  0
LINE
  8
_0-0_通り芯
  6
CONTINUOUS
 62
    7
 10
3011.9209000000001
 20
3112.0765999999999
 11
3131.9209000000001
 21
3112.0765999999999
  0
LINE
  8
_0-0_通り芯
  6
CONTINUOUS
 62
    7
 10
3131.9209000000001
 20
3112.0765999999999
 11
3891.9209999999998
 21
3112.0765999999999
  0
LINE
  8
_0-0_通り芯
  6
CONTINUOUS
 62
    7
 10
3011.9209000000001
 20
3187.8598000000002
 11
4011.9209000000001
 21
3187.8598000000002
  0
LINE
  8
_0-0_通り芯
  6
CONTINUOUS
 62
    7
 10
3011.9209000000001
 20
3187.8598000000002
 11
3011.9209000000001
 21
3061.5679
  0
LINE
  8
_0-0_通り芯
  6
CONTINUOUS
 62
    7
 10
4011.9209000000001
 20
3187.8598000000002
 11
4011.9209000000001
 21
3061.5679
  0
LINE
  8
_0-0_通り芯
  6
CONTINUOUS
 62
    7
 10
4011.9209000000001
 20
2807.9295000000002
 11
3511.9207999999999
 21
2807.9295000000002
  0
LINE
  8
_0-0_通り芯
  6
CONTINUOUS
 62
    7
 10
4011.9209000000001
 20
2802.9295000000002
 11
3511.9207999999999
 21
2802.9295000000002
  0
LINE
  8
_0-0_通り芯
  6
CONTINUOUS
 62
    7
 10
3421.9704999999999
 20
2807.9295000000002
 11
3437.0864999999999
 21
2747.9294
  0
LINE
  8
_0-0_通り芯
  6
CONTINUOUS
 62
    7
 10
3586.8987999999999
 20
2747.9294
 11
3437.0864999999999
 21
2747.9294
  0
LINE
  8
_0-0_通り芯
  6
CONTINUOUS
 62
    7
 10
3586.8987999999999
 20
2747.9294
 11
3601.6394
 21
2807.9295000000002
  0
LINE
  8
_0-0_通り芯
  6
CONTINUOUS
 62
    7
 10
3056.9207999999999
 20
2831.9295000000002
 11
3011.9209000000001
 21
2831.9295000000002
  0
LINE
  8
_0-0_通り芯
  6
CONTINUOUS
 62
    7
 10
3051.9207999999999
 20
2786.9292999999998
 11
3051.9207999999999
 21
2831.9295000000002
  0
LINE
  8
_0-0_通り芯
  6
CONTINUOUS
 62
    7
 10
3511.9207999999999
 20
2786.9292999999998
 11
3051.9207999999999
 21
2786.9292999999998
  0
LINE
  8
_0-0_通り芯
  6
CONTINUOUS
 62
    7
 10
3511.9207999999999
 20
2791.9295999999995
 11
3056.9207999999999
 21
2791.9295999999995
  0
LINE
  8
_0-0_通り芯
  6
CONTINUOUS
 62
    7
 10
3056.9207999999999
 20
2791.9295999999995
 11
3056.9207999999999
 21
2831.9295000000002
  0
LINE
  8
_0-0_通り芯
  6
CONTINUOUS
 62
    7
 10
3058.9209000000001
 20
2793.9295000000002
 11
3058.9209000000001
 21
2831.9295000000002
  0
LINE
  8
_0-0_通り芯
  6
CONTINUOUS
 62
    7
 10
3511.9207999999999
 20
2793.9295000000002
 11
3058.9209000000001
 21
2793.9295000000002
  0
LINE
  8
_0-0_通り芯
  6
CONTINUOUS
 62
    7
 10
3511.9207999999999
 20
2831.9295000000002
 11
3058.9209000000001
 21
2831.9295000000002
  0
LINE
  8
_0-0_通り芯
  6
CONTINUOUS
 62
    7
 10
3511.9207999999999
 20
2826.9295000000002
 11
3063.9209000000001
 21
2826.9295000000002
  0
LINE
  8
_0-0_通り芯
  6
CONTINUOUS
 62
    7
 10
3063.9209000000001
 20
2798.9295000000002
 11
3063.9209000000001
 21
2826.9295000000002
  0
LINE
  8
_0-0_通り芯
  6
CONTINUOUS
 62
    7
 10
3511.9207999999999
 20
2798.9295000000002
 11
3063.9209000000001
 21
2798.9295000000002
  0
LINE
  8
_0-0_通り芯
  6
CONTINUOUS
 62
    7
 10
3467.1208000000001
 20
2798.9295000000002
 11
3467.1208000000001
 21
2826.9295000000002
  0
LINE
  8
_0-0_通り芯
  6
CONTINUOUS
 62
    7
 10
3422.3208
 20
2798.9295000000002
 11
3422.3208
 21
2826.9295000000002
  0
LINE
  8
_0-0_通り芯
  6
CONTINUOUS
 62
    7
 10
3377.5207999999998
 20
2798.9295000000002
 11
3377.5207999999998
 21
2826.9295000000002
  0
LINE
  8
_0-0_通り芯
  6
CONTINUOUS
 62
    7
 10
3332.7206999999999
 20
2798.9295000000002
 11
3332.7206999999999
 21
2826.9295000000002
  0
LINE
  8
_0-0_通り芯
  6
CONTINUOUS
 62
    7
 10
3287.9207000000001
 20
2798.9295000000002
 11
3287.9207000000001
 21
2826.9295000000002
  0
LINE
  8
_0-0_通り芯
  6
CONTINUOUS
 62
    7
 10
3243.1210000000001
 20
2798.9295000000002
 11
3243.1210000000001
 21
2826.9295000000002
  0
LINE
  8
_0-0_通り芯
  6
CONTINUOUS
 62
    7
 10
3198.3209999999999
 20
2798.9295000000002
 11
3198.3209999999999
 21
2826.9295000000002
  0
LINE
  8
_0-0_通り芯
  6
CONTINUOUS
 62
    7
 10
3153.5208999999995
 20
2798.9295000000002
 11
3153.5208999999995
 21
2826.9295000000002
  0
LINE
  8
_0-0_通り芯
  6
CONTINUOUS
 62
    7
 10
3108.7208999999993
 20
2798.9295000000002
 11
3108.7208999999993
 21
2826.9295000000002
  0
LINE
  8
_0-0_通り芯
  6
CONTINUOUS
 62
    7
 10
3011.9209000000001
 20
3112.0765999999999
 11
3011.9209000000001
 21
2854.2869999999998
  0
LINE
  8
_0-0_通り芯
  6
CONTINUOUS
 62
    7
 10
3131.9209000000001
 20
3112.0765999999999
 11
3131.9209000000001
 21
2854.2869999999998
  0
LINE
  8
_0-0_通り芯
  6
CONTINUOUS
 62
    7
 10
2929.2006000000001
 20
2181.9294
 11
2929.2006000000001
 21
2441.9295000000002
  0
LINE
  8
_0-0_通り芯
  6
CONTINUOUS
 62
    7
 10
2929.2006000000001
 20
2181.9294
 11
2994.5555000000004
 21
2181.9294
  0
LINE
  8
_0-0_通り芯
  6
CONTINUOUS
 62
    7
 10
2929.2006000000001
 20
2441.9295000000002
 11
2994.5555000000004
 21
2441.9295000000002
  0
LINE
  8
_0-0_通り芯
  6
CONTINUOUS
 62
    7
 10
2929.2006000000001
 20
2441.9295000000002
 11
2929.2006000000001
 21
2741.9294
  0
LINE
  8
_0-0_通り芯
  6
CONTINUOUS
 62
    7
 10
2929.2006000000001
 20
2741.9294
 11
2994.5555000000004
 21
2741.9294
  0
LINE
  8
_0-0_通り芯
  6
CONTINUOUS
 62
    7
 10
2929.2006000000001
 20
2741.9294
 11
2929.2006000000001
 21
2831.9295000000002
  0
LINE
  8
_0-0_通り芯
  6
CONTINUOUS
 62
    7
 10
2929.2006000000001
 20
2831.9295000000002
 11
2994.5555000000004
 21
2831.9295000000002
  0
LINE
  8
_0-0_通り芯
  6
CONTINUOUS
 62
    7
 10
2838.0995000000003
 20
2831.9295000000002
 11
2838.0995000000003
 21
2181.9294
  0
LINE
  8
_0-0_通り芯
  6
CONTINUOUS
 62
    7
 10
2838.0995000000003
 20
2831.9295000000002
 11
2964.8488000000002
 21
2831.9295000000002
  0
LINE
  8
_0-0_通り芯
  6
CONTINUOUS
 62
    7
 10
2838.0995000000003
 20
2181.9294
 11
2964.8488000000002
 21
2181.9294
  0
LINE
  8
_0-0_通り芯
  6
CONTINUOUS
 62
    7
 10
4120.4387000000006
 20
2181.9294
 11
4120.4387000000006
 21
2802.9295000000002
  0
LINE
  8
_0-0_通り芯
  6
CONTINUOUS
 62
    7
 10
4120.4387000000006
 20
2181.9294
 11
4037.3833999999997
 21
2181.9294
  0
LINE
  8
_0-0_通り芯
  6
CONTINUOUS
 62
    7
 10
4120.4387000000006
 20
2802.9295000000002
 11
4037.3833999999997
 21
2802.9295000000002
  0
LINE
  8
_0-0_通り芯
  6
CONTINUOUS
 62
    7
 10
4120.4387000000006
 20
2802.9295000000002
 11
4120.4387000000006
 21
2807.9295000000002
  0
LINE
  8
_0-0_通り芯
  6
CONTINUOUS
 62
    7
 10
4120.4387000000006
 20
2807.9295000000002
 11
4037.3833999999997
 21
2807.9295000000002
  0
LINE
  8
_0-0_通り芯
  6
CONTINUOUS
 62
    7
 10
3011.9209000000001
 20
2181.9294
 11
3011.9209000000001
 21
2831.9295000000002
  0
LINE
  8
_0-0_通り芯
  6
CONTINUOUS
 62
    7
 10
2264.5129000000002
 20
3068.0376999999999
 11
2084.5129000000002
 21
3068.0376999999999
  0
LINE
  8
_0-0_通り芯
  6
CONTINUOUS
 62
    7
 10
2276.7565
 20
2181.9294
 11
2276.7565
 21
2807.9295000000002
  0
LINE
  8
_0-0_通り芯
  6
CONTINUOUS
 62
    7
 10
2236.3876999999998
 20
2977.9294
 11
2112.9626000000003
 21
2977.9294
  0
LINE
  8
_0-0_通り芯
  6
CONTINUOUS
 62
    7
 10
2076.7563999999998
 20
2802.9295000000002
 11
2276.7565
 21
2802.9295000000002
  0
LINE
  8
_0-0_通り芯
  6
CONTINUOUS
 62
    7
 10
2076.7563999999998
 20
2807.9295000000002
 11
2276.7565
 21
2807.9295000000002
  0
LINE
  8
_0-0_通り芯
  6
CONTINUOUS
 62
    7
 10
2082.9918000000002
 20
2949.2512999999999
 11
2076.7590999999998
 21
2807.9295000000002
  0
LINE
  8
_0-0_通り芯
  6
CONTINUOUS
 62
    7
 10
2266.3065000000001
 20
2950.1361000000002
 11
2276.7565
 21
2808.4573999999998
  0
LINE
  8
_0-0_通り芯
  6
CONTINUOUS
 62
    7
 10
2076.7563999999998
 20
2826.9295000000002
 11
2076.7563999999998
 21
2802.9295000000002
  0
LINE
  8
_0-0_通り芯
  6
CONTINUOUS
 62
    7
 10
2276.7565
 20
2808.4573999999998
 11
2276.7565
 21
2802.9295000000002
  0
LINE
  8
_0-0_通り芯
  6
CONTINUOUS
 62
    7
 10
2354.5927999999999
 20
2977.9294
 11
2354.5927999999999
 21
2807.9295000000002
  0
LINE
  8
_0-0_通り芯
  6
CONTINUOUS
 62
    7
 10
2354.5927999999999
 20
2977.9294
 11
2293.9825999999998
 21
2977.9294
  0
LINE
  8
_0-0_通り芯
  6
CONTINUOUS
 62
    7
 10
2354.5927999999999
 20
2807.9295000000002
 11
2293.9825999999998
 21
2807.9295000000002
  0
LINE
  8
_0-0_通り芯
  6
CONTINUOUS
 62
    7
 10
2435.0487000000003
 20
2977.9294
 11
2435.0487000000003
 21
2181.9294
  0
LINE
  8
_0-0_通り芯
  6
CONTINUOUS
 62
    7
 10
2435.0487000000003
 20
2977.9294
 11
2354.5927999999999
 21
2977.9294
  0
LINE
  8
_0-0_通り芯
  6
CONTINUOUS
 62
    7
 10
2435.0487000000003
 20
2181.9294
 11
2354.5927999999999
 21
2181.9294
  0
LINE
  8
_0-0_通り芯
  6
CONTINUOUS
 62
    7
 10
4011.9209000000001
 20
2977.9294
 11
3511.9207999999999
 21
2977.9294
  0
LINE
  8
_0-0_通り芯
  6
CONTINUOUS
 62
    7
 10
4011.9209000000001
 20
2181.9294
 11
4011.9209000000001
 21
2977.9294
  0
LINE
  8
_0-0_通り芯
  6
CONTINUOUS
 62
    7
 10
4120.4387000000006
 20
2977.9294
 11
4120.4387000000006
 21
2807.9295000000002
  0
LINE
  8
_0-0_通り芯
  6
CONTINUOUS
 62
    7
 10
4120.4387000000006
 20
2977.9294
 11
4037.3833999999997
 21
2977.9294
  0
LINE
  8
_0-0_通り芯
  6
CONTINUOUS
 62
    7
 10
4120.4387000000006
 20
2807.9295000000002
 11
4037.3833999999997
 21
2807.9295000000002
  0
LINE
  8
_0-0_通り芯
  6
CONTINUOUS
 62
    7
 10
4184.1363000000001
 20
2977.9294
 11
4184.1363000000001
 21
2181.9294
  0
LINE
  8
_0-0_通り芯
  6
CONTINUOUS
 62
    7
 10
4184.1363000000001
 20
2977.9294
 11
4037.3833999999997
 21
2977.9294
  0
LINE
  8
_0-0_通り芯
  6
CONTINUOUS
 62
    7
 10
4184.1363000000001
 20
2181.9294
 11
4037.3833999999997
 21
2181.9294
  0
LINE
  8
_0-0_通り芯
  6
CONTINUOUS
 62
    7
 10
2071.7565999999997
 20
3118.4494
 11
2071.7565999999997
 21
2988.0378999999998
  0
LINE
  8
_0-0_通り芯
  6
CONTINUOUS
 62
    7
 10
2084.5129000000002
 20
3068.0376999999999
 11
2084.5129000000002
 21
2988.0378999999998
  0
LINE
  8
_0-0_通り芯
  6
CONTINUOUS
 62
    7
 10
2264.5129000000002
 20
3068.0376999999999
 11
2264.5129000000002
 21
2988.0378999999998
  0
LINE
  8
_0-0_通り芯
  6
CONTINUOUS
 62
    7
 10
2276.7565
 20
3118.4494
 11
2276.7565
 21
2988.0378999999998
  0
LINE
  8
_0-0_通り芯
  6
CONTINUOUS
 62
    7
 10
4011.9209000000001
 20
3112.0765999999999
 11
4011.9209000000001
 21
2988.0378999999998
  0
LINE
  8
_0-0_通り芯
  6
CONTINUOUS
 62
    7
 10
3891.9209999999998
 20
3112.0765999999999
 11
3891.9209999999998
 21
2988.0378999999998
  0
CIRCLE
  8
_0-0_通り芯
  6
CONTINUOUS
 62
    7
 10
1841.53566
 20
2661.0735999999997
 40
19.999998999999999
  0
ARC
  8
_0-0_通り芯
  6
CONTINUOUS
 62
    7
 10
1966.7565
 20
2661.9295000000002
 40
79.999995999999996
 50
90
 51
180
  0
ARC
  8
_0-0_通り芯
  6
CONTINUOUS
 62
    7
 10
2106.7565
 20
2661.9295000000002
 40
79.999995999999996
 50
0
 51
90
  0
ARC
  8
_0-0_通り芯
  6
CONTINUOUS
 62
    7
 10
2073.0401000000002
 20
2624.7045000000003
 40
186.06079999999997
 50
177.15304
 51
258.77697000000001
  0
ARC
  8
_0-0_通り芯
  6
CONTINUOUS
 62
    7
 10
2000.473
 20
2624.7045000000003
 40
186.06079999999997
 50
281.22300000000001
 51
2.8469238000000177
  0
CIRCLE
  8
_0-0_通り芯
  6
CONTINUOUS
 62
    7
 10
2233.4067
 20
2661.0735999999997
 40
19.999998999999999
  0
ARC
  8
_0-0_通り芯
  6
CONTINUOUS
 62
    7
 10
2112.9626000000003
 20
2947.9294
 40
30
 50
90
 51
177.47479000000001
  0
ARC
  8
_0-0_通り芯
  6
CONTINUOUS
 62
    7
 10
2236.3876999999998
 20
2947.9294
 40
30
 50
4.2183989999999998
 51
89.999983999999969
  0
POINT
  8
_0-0_通り芯
 62
    7
 10
2276.7565
 20
3118.4494
  0
POINT
  8
_0-0_通り芯
 62
    7
 10
2071.7565999999997
 20
3118.4494
  0
POINT
  8
_0-0_通り芯
 62
    7
 10
2084.2565
 20
2853.3955999999998
  0
POINT
  8
_0-0_通り芯
 62
    7
 10
2264.2563999999998
 20
2853.3955999999998
  0
POINT
  8
_0-0_通り芯
 62
    7
 10
2099.2565
 20
2699.9944999999998
  0
POINT
  8
_0-0_通り芯
 62
    7
 10
2249.2563999999998
 20
2699.9944999999998
  0
POINT
  8
_0-0_通り芯
 62
    7
 10
1796.75659
 20
3176.5500000000002
  0
POINT
  8
_0-0_通り芯
 62
    7
 10
2276.7565
 20
3176.5500000000002
  0
POINT
  8
_0-0_通り芯
 62
    7
 10
1796.75659
 20
2111.3474000000001
  0
POINT
  8
_0-0_通り芯
 62
    7
 10
1876.7566000000002
 20
2111.3474000000001
  0
POINT
  8
_0-0_通り芯
 62
    7
 10
2196.7563999999998
 20
2111.3474000000001
  0
POINT
  8
_0-0_通り芯
 62
    7
 10
2276.7565
 20
2111.3474000000001
  0
POINT
  8
_0-0_通り芯
 62
    7
 10
1796.75659
 20
2053.0477000000001
  0
POINT
  8
_0-0_通り芯
 62
    7
 10
2276.7565
 20
2053.0477000000001
  0
POINT
  8
_0-0_通り芯
 62
    7
 10
1706.15129
 20
2181.9294
  0
POINT
  8
_0-0_通り芯
 62
    7
 10
1706.15129
 20
2441.9295000000002
  0
POINT
  8
_0-0_通り芯
 62
    7
 10
1706.15129
 20
2741.9294
  0
POINT
  8
_0-0_通り芯
 62
    7
 10
1706.15129
 20
2831.9295000000002
  0
POINT
  8
_0-0_通り芯
 62
    7
 10
1628.5833600000001
 20
2831.9295000000002
  0
POINT
  8
_0-0_通り芯
 62
    7
 10
1628.5833600000001
 20
2181.9294
  0
POINT
  8
_0-0_通り芯
 62
    7
 10
2354.5927999999999
 20
2807.9295000000002
  0
POINT
  8
_0-0_通り芯
 62
    7
 10
2354.5927999999999
 20
2802.9295000000002
  0
POINT
  8
_0-0_通り芯
 62
    7
 10
2354.5927999999999
 20
2181.9294
  0
POINT
  8
_0-0_通り芯
 62
    7
 10
3421.9207000000001
 20
2854.2869999999998
  0
POINT
  8
_0-0_通り芯
 62
    7
 10
3601.9207999999999
 20
2854.2869999999998
  0
POINT
  8
_0-0_通り芯
 62
    7
 10
3436.9209999999998
 20
2707.7541000000001
  0
POINT
  8
_0-0_通り芯
 62
    7
 10
3586.9209000000001
 20
2707.7541000000001
  0
POINT
  8
_0-0_通り芯
 62
    7
 10
3652.7602000000002
 20
2807.9295000000002
  0
POINT
  8
_0-0_通り芯
 62
    7
 10
3652.7602000000002
 20
2747.9294
  0
POINT
  8
_0-0_通り芯
 62
    7
 10
3011.9209000000001
 20
2115.6588999999999
  0
POINT
  8
_0-0_通り芯
 62
    7
 10
3091.9209999999998
 20
2115.6588999999999
  0
POINT
  8
_0-0_通り芯
 62
    7
 10
3931.9209000000001
 20
2115.6588999999999
  0
POINT
  8
_0-0_通り芯
 62
    7
 10
4011.9209000000001
 20
2115.6588999999999
  0
POINT
  8
_0-0_通り芯
 62
    7
 10
4011.9209000000001
 20
3112.0765999999999
  0
POINT
  8
_0-0_通り芯
 62
    7
 10
3891.9209999999998
 20
3112.0765999999999
  0
POINT
  8
_0-0_通り芯
 62
    7
 10
3011.9209000000001
 20
3112.0765999999999
  0
POINT
  8
_0-0_通り芯
 62
    7
 10
3131.9209000000001
 20
3112.0765999999999
  0
POINT
  8
_0-0_通り芯
 62
    7
 10
3011.9209000000001
 20
3187.8598000000002
  0
POINT
  8
_0-0_通り芯
 62
    7
 10
4011.9209000000001
 20
3187.8598000000002
  0
POINT
  8
_0-0_通り芯
 62
    7
 10
2929.2006000000001
 20
2181.9294
  0
POINT
  8
_0-0_通り芯
 62
    7
 10
2929.2006000000001
 20
2441.9295000000002
  0
POINT
  8
_0-0_通り芯
 62
    7
 10
2929.2006000000001
 20
2741.9294
  0
POINT
  8
_0-0_通り芯
 62
    7
 10
2929.2006000000001
 20
2831.9295000000002
  0
POINT
  8
_0-0_通り芯
 62
    7
 10
2838.0995000000003
 20
2831.9295000000002
  0
POINT
  8
_0-0_通り芯
 62
    7
 10
2838.0995000000003
 20
2181.9294
  0
POINT
  8
_0-0_通り芯
 62
    7
 10
4120.4387000000006
 20
2181.9294
  0
POINT
  8
_0-0_通り芯
 62
    7
 10
4120.4387000000006
 20
2802.9295000000002
  0
POINT
  8
_0-0_通り芯
 62
    7
 10
4120.4387000000006
 20
2807.9295000000002
  0
POINT
  8
_0-0_通り芯
 62
    7
 10
2264.5129000000002
 20
3068.0376999999999
  0
POINT
  8
_0-0_通り芯
 62
    7
 10
2084.5129000000002
 20
3068.0376999999999
  0
POINT
  8
_0-0_通り芯
 62
    7
 10
2354.5927999999999
 20
2977.9294
  0
POINT
  8
_0-0_通り芯
 62
    7
 10
2354.5927999999999
 20
2807.9295000000002
  0
POINT
  8
_0-0_通り芯
 62
    7
 10
2435.0487000000003
 20
2977.9294
  0
POINT
  8
_0-0_通り芯
 62
    7
 10
2435.0487000000003
 20
2181.9294
  0
POINT
  8
_0-0_通り芯
 62
    7
 10
4120.4387000000006
 20
2977.9294
  0
POINT
  8
_0-0_通り芯
 62
    7
 10
4120.4387000000006
 20
2807.9295000000002
  0
POINT
  8
_0-0_通り芯
 62
    7
 10
4184.1363000000001
 20
2977.9294
  0
POINT
  8
_0-0_通り芯
 62
    7
 10
4184.1363000000001
 20
2181.9294
  0
LINE
  8
_0-0_通り芯
  6
CONTINUOUS
 62
    7
 10
1274.5044499999999
 20
3873.7833999999998
 11
4474.5041000000001
 21
3873.7833999999998
  0
LINE
  8
_0-0_通り芯
  6
CONTINUOUS
 62
    7
 10
1375.0438596491231
 20
1823.7837200000001
 11
1274.5044500000004
 21
1823.7837200000001
  0
LINE
  8
_0-0_通り芯
  6
CONTINUOUS
 62
    7
 10
4474.5041000000001
 20
1723.7837200000001
 11
1375.0438596491231
 21
1723.7837200000001
  0
LINE
  8
_0-0_通り芯
  6
CONTINUOUS
 62
    7
 10
1375.0438596491231
 20
1723.7837200000001
 11
1274.5044500000004
 21
1723.7837200000001
  0
LINE
  8
_0-0_通り芯
  6
CONTINUOUS
 62
    7
 10
1274.5044499999999
 20
1723.7837200000001
 11
1274.5044499999999
 21
3873.7833999999998
  0
LINE
  8
_0-0_通り芯
  6
CONTINUOUS
 62
    7
 10
4474.5041000000001
 20
3873.7833999999998
 11
4474.5041000000001
 21
1723.7837200000001
  0
LINE
  8
_0-0_通り芯
  6
CONTINUOUS
 62
    7
 10
1444.5040300000001
 20
1723.7837200000001
 11
1444.5040300000001
 21
1823.7837200000001
  0
LINE
  8
_0-0_通り芯
  6
CONTINUOUS
 62
    7
 10
2394.5041000000001
 20
1723.7837200000001
 11
2394.5041000000001
 21
1823.7837200000001
  0
LINE
  8
_0-0_通り芯
  6
CONTINUOUS
 62
    7
 10
2774.5038
 20
1723.7837200000001
 11
2774.5038
 21
1823.7837200000001
  0
LINE
  8
_0-0_通り芯
  6
CONTINUOUS
 62
    7
 10
2944.5039000000002
 20
1723.7837200000001
 11
2944.5039000000002
 21
1823.7837200000001
  0
LINE
  8
_0-0_通り芯
  6
CONTINUOUS
 62
    7
 10
2094.5041000000001
 20
1723.7837200000001
 11
2094.5041000000001
 21
1823.7837200000001
  0
TEXT
  8
_0-0_通り芯
 62
    7
 10
2974.605263157895
 20
3426.3157894736842
 40
50
 41
1
 50
0
  1
側  面  図
  0
TEXT
  8
_0-0_通り芯
 62
    7
 10
1964.4702000000002
 20
2663.4528
 40
28
 41
1
 50
0
  1
80
  0
TEXT
  8
_0-0_通り芯
 62
    7
 10
2002.7559999999999
 20
2506.2538999999997
 40
28
 41
1
 50
0
  1
200
  0
TEXT
  8
_0-0_通り芯
 62
    7
 10
2354.7630337421633
 20
2812.1034663626256
 40
28
 41
1
 50
90
  1
5
  0
LINE
  8
_0-0_通り芯
  6
CONTINUOUS
 62
    7
 10
3132.7078999999999
 20
2740.5137999999997
 11
3090.6638032629826
 21
2181.9294
  0
LINE
  8
_0-0_通り芯
  6
CONTINUOUS
 62
    7
 10
3891.1338999999998
 20
2740.5137999999997
 11
3933.1777081556229
 21
2181.9294
  0
TEXT
  8
_0-0_通り芯
 62
    7
 10
4118.7542903987251
 20
2809.0495166932992
 40
28
 41
1
 50
90
  1
5
  0
LINE
  8
_0-0_通り芯
  6
CONTINUOUS
 62
    7
 10
3511.9207999999999
 20
2162.3848843401688
 11
3511.9207999999999
 21
3020.2310015562757
  0
TEXT
  8
_0-0_通り芯
 62
    7
 10
1320.9537369315331
 20
1753.9799698639365
 40
40
 41
1
 50
0
  1
名称
  0
TEXT
  8
_0-0_通り芯
 62
    7
 10
1534.1879014052001
 20
1756.1338503131656
 40
40
 41
1
 50
0
  1
クリーン側溝　300HN
  0
TEXT
  8
_0-0_通り芯
 62
    7
 10
2191.1214384200321
 20
1758.2877307623946
 40
40
 41
1
 50
0
  1
分類
  0
TEXT
  8
_0-0_通り芯
 62
    7
 10
2824.3622904933454
 20
1753.9799698639365
 40
40
 41
1
 50
0
  1
図番
  0
TEXT
  8
_0-0_通り芯
 62
    7
 10
3333.5156966860795
 20
1774.6127770244079
 40
40
 41
1
 50
0
  1
クリーン側溝　345㎏
  0
TEXT
  8
_0-0_通り芯
 62
    7
 10
3426.7308561277105
 20
1729.7573619547506
 40
40
 41
1
 50
0
  1
歩車道　93㎏
  0
TEXT
  8
_0-0_通り芯
 62
    7
 10
3839.7571121405758
 20
1752.2640857582862
 40
40
 41
1
 50
0
  1
岩城ブロック工業株式会社
  0
LINE
  8
_0-0_通り芯
  6
CONTINUOUS
 62
    7
 10
3076.2236229433274
 20
1823.7837200000001
 11
3076.2236229433274
 21
1723.7837200000001
  0
LINE
  8
_0-0_通り芯
  6
CONTINUOUS
 62
    7
 10
3314.9729666762796
 20
1823.7837200000001
 11
3314.9729666762796
 21
1723.7837200000001
  0
LINE
  8
_0-0_通り芯
  6
CONTINUOUS
 62
    7
 10
3781.6685164167111
 20
1823.7837200000001
 11
3781.6685164167111
 21
1723.7837200000001
  0
TEXT
  8
_0-0_通り芯
 62
    7
 10
2518.5112667028334
 20
1749.6722089654786
 40
40
 41
1
 50
0
  1
桝
  0
TEXT
  8
_0-0_通り芯
 62
    7
 10
1763.4210526315792
 20
3426.3157894736842
 40
50
 41
1
 50
0
  1
断  面  図
  0
ENDSEC
  0
EOF
