  0
SECTION
  2
HEADER
  9
$ACADVER
  1
AC1009
  9
$INSBASE
 10
0
 20
0
 30
0
  9
$EXTMIN
 10
0
 20
0
  9
$EXTMAX
 10
5940
 20
4200
  9
$LIMMIN
 10
0
 20
0
  9
$LIMMAX
 10
5940
 20
4200
  9
$LTSCALE
 40
10
  0
ENDSEC
  0
SECTION
  2
TABLES
  0
TABLE
  2
LTYPE
 70
     9
  0
LTYPE
  2
CONTINUOUS
 70
    64
  3
実線
 72
    65
 73
     0
 40
0.0
  0
LTYPE
  2
DASHED1
 70
    64
  3
--  --  --  --  --  --  --  --  
 72
    65
 73
     2
 40
2.5
 49
1.25
 49
-1.25
  0
LTYPE
  2
DASHED2
 70
    64
  3
----    ----    ----    ----    
 72
    65
 73
     2
 40
5.0
 49
2.5
 49
-2.5
  0
LTYPE
  2
DASHED3
 70
    64
  3
------  ------  ------  ------  
 72
    65
 73
     2
 40
5.0
 49
3.75
 49
-1.25
  0
LTYPE
  2
CENTER1
 70
    64
  3
----- - ----- - ----- - ----- - 
 72
    65
 73
     4
 40
10.0
 49
6.25
 49
-1.25
 49
1.25
 49
-1.25
  0
LTYPE
  2
CENTER2
 70
    64
  3
----------  --  ----------  --  
 72
    65
 73
     4
 40
20.0
 49
12.5
 49
-2.5
 49
2.5
 49
-2.5
  0
LTYPE
  2
PHANTOM1
 70
    64
  3
--- - - --- - - --- - - --- - - 
 72
    65
 73
     6
 40
10.0
 49
3.25
 49
-1.25
 49
1.25
 49
-1.25
 49
1.25
 49
-1.25
  0
LTYPE
  2
PHANTOM2
 70
    64
  3
--------  -  -  --------  -  -  
 72
    65
 73
     6
 40
20.0
 49
10.0
 49
-2.5
 49
1.25
 49
-2.5
 49
1.25
 49
-2.5
  0
LTYPE
  2
DOT
 70
    64
  3
-   -   -   -   -   -   -   -   
 72
    65
 73
     2
 40
2.5
 49
0.625
 49
-1.875
  0
LTYPE
  2
DUMMY
 70
    64
  3
ダミー
 72
    65
 73
     0
 40
0.0
  0
LTYPE
  2
RAND1
 70
    64
  3
ランダム線1
 72
    65
 73
     4
 40
10.0
 49
1.0
 49
-2.0
 49
3.0
 49
-4.0
  0
LTYPE
  2
RAND2
 70
    64
  3
ランダム線2
 72
    65
 73
     4
 40
14.0
 49
2.0
 49
-3.0
 49
4.0
 49
-5.0
  0
LTYPE
  2
RAND3
 70
    64
  3
ランダム線3
 72
    65
 73
     4
 40
18.0
 49
3.0
 49
-4.0
 49
5.0
 49
-6.0
  0
LTYPE
  2
RAND4
 70
    64
  3
ランダム線4
 72
    65
 73
     4
 40
22.0
 49
4.0
 49
-5.0
 49
6.0
 49
-7.0
  0
LTYPE
  2
RAND5
 70
    64
  3
ランダム線5
 72
    65
 73
     4
 40
26.0
 49
5.0
 49
-6.0
 49
7.0
 49
-8.0
  0
LTYPE
  2
LONG1
 70
    64
  3
----------  --  ----------  --  
 72
    65
 73
     4
 40
40.0
 49
32.5
 49
-2.5
 49
2.5
 49
-2.5
  0
LTYPE
  2
LONG2
 70
    64
  3
--------  -  -  --------  -  -  
 72
    65
 73
     6
 40
40.0
 49
30.0
 49
-2.5
 49
1.25
 49
-2.5
 49
1.25
 49
-2.5
  0
LTYPE
  2
LONG3
 70
    64
  3
+++++++++++++++..+++++++++++++++
 72
    65
 73
     2
 40
40.0
 49
37.5
 49
-2.5
  0
LTYPE
  2
LONG4
 70
    64
  3
+++++++++++++++..+++++++++++++++
 72
    65
 73
     2
 40
80.0
 49
75.0
 49
-5.0
  0
LTYPE
  2
LONG5
 70
    64
  3
----------  --  ----------  --  
 72
    65
 73
     4
 40
60.0
 49
37.5
 49
-7.5
 49
7.5
 49
-7.5
  0
LTYPE
  2
dashed
 70
   64
  3
-------   -------------   ------
 72
   65
 73
    2
 40
7.5
 49
6
 49
-1.5
  0
LTYPE
  2
dashed_spaced
 70
   64
  3
----        --------        ----
 72
   65
 73
    2
 40
12
 49
6
 49
-6
  0
LTYPE
  2
long_dashed_dotted
 70
   64
  3
------------- --- --------------
 72
   65
 73
    4
 40
15.25
 49
12
 49
-1.5
 49
0.25
 49
-1.5
  0
LTYPE
  2
long_dashed_double-dotted
 70
   64
  3
----------- --- --- ------------
 72
   65
 73
    6
 40
17
 49
12
 49
-1.5
 49
0.25
 49
-1.5
 49
0.25
 49
-1.5
  0
LTYPE
  2
long_dashed_triplicate-dotted
 70
   64
  3
--------- --- --- --- ----------
 72
   65
 73
    8
 40
18.75
 49
12
 49
-1.5
 49
0.25
 49
-1.5
 49
0.25
 49
-1.5
 49
0.25
 49
-1.5
  0
LTYPE
  2
dotted
 70
   64
  3
   -       -       -       -    
 72
   65
 73
    2
 40
1.75
 49
0.25
 49
-1.5
  0
LTYPE
  2
chain
 70
   64
  3
-------------- -- --------------
 72
   65
 73
    4
 40
18.5
 49
12
 49
-1.5
 49
3.5
 49
-1.5
  0
LTYPE
  2
chain_double_dash
 70
   64
  3
------------ -- -- -------------
 72
   65
 73
    6
 40
23.5
 49
12
 49
-1.5
 49
3.5
 49
-1.5
 49
3.5
 49
-1.5
  0
LTYPE
  2
dashed_dotted
 70
   64
  3
-----------     -     ----------
 72
   65
 73
    4
 40
9.25
 49
6
 49
-1.5
 49
0.25
 49
-1.5
  0
LTYPE
  2
double-dashed_dotted
 70
   64
  3
------   -----------   -   -----
 72
   65
 73
    6
 40
16.75
 49
6
 49
-1.5
 49
6
 49
-1.5
 49
0.25
 49
-1.5
  0
LTYPE
  2
dashed_double-dotted
 70
   64
  3
---------    -    -    ---------
 72
   65
 73
    6
 40
11
 49
6
 49
-1.5
 49
0.25
 49
-1.5
 49
0.25
 49
-1.5
  0
LTYPE
  2
double-dashed_double-dotted
 70
   64
  3
-----   ---------   -   -   ----
 72
   65
 73
    8
 40
18.5
 49
6
 49
-1.5
 49
6
 49
-1.5
 49
0.25
 49
-1.5
 49
0.25
 49
-1.5
  0
LTYPE
  2
dashed_triplicate-dotted
 70
   64
  3
-------    -    -    -    ------
 72
   65
 73
    8
 40
12.75
 49
6
 49
-1.5
 49
0.25
 49
-1.5
 49
0.25
 49
-1.5
 49
0.25
 49
-1.5
  0
LTYPE
  2
double-dashed_triplicate-dotted
 70
   64
  3
-----  ---------  -  -  -  -----
 72
   65
 73
   10
 40
20.25
 49
6
 49
-1.5
 49
6
 49
-1.5
 49
0.25
 49
-1.5
 49
0.25
 49
-1.5
 49
0.25
 49
-1.5
  0
LTYPE
  2
undefined
 70
   64
  3
--------------------------------
 72
   65
 73
    0
 40
0
  0
LTYPE
  2
_
 70
   64
  3
                                
 72
   65
 73
    0
 40
0
  0
LTYPE
  2
__18
 70
   64
  3
                                
 72
   65
 73
    0
 40
0
  0
LTYPE
  2
__19
 70
   64
  3
                                
 72
   65
 73
    0
 40
0
  0
LTYPE
  2
__20
 70
   64
  3
                                
 72
   65
 73
    0
 40
0
  0
LTYPE
  2
__21
 70
   64
  3
                                
 72
   65
 73
    0
 40
0
  0
LTYPE
  2
__22
 70
   64
  3
                                
 72
   65
 73
    0
 40
0
  0
LTYPE
  2
__23
 70
   64
  3
                                
 72
   65
 73
    0
 40
0
  0
LTYPE
  2
__24
 70
   64
  3
                                
 72
   65
 73
    0
 40
0
  0
LTYPE
  2
__25
 70
   64
  3
                                
 72
   65
 73
    0
 40
0
  0
LTYPE
  2
__26
 70
   64
  3
                                
 72
   65
 73
    0
 40
0
  0
LTYPE
  2
__27
 70
   64
  3
                                
 72
   65
 73
    0
 40
0
  0
LTYPE
  2
__28
 70
   64
  3
                                
 72
   65
 73
    0
 40
0
  0
LTYPE
  2
__29
 70
   64
  3
                                
 72
   65
 73
    0
 40
0
  0
LTYPE
  2
__30
 70
   64
  3
                                
 72
   65
 73
    0
 40
0
  0
LTYPE
  2
__31
 70
   64
  3
                                
 72
   65
 73
    0
 40
0
  0
LTYPE
  2
__32
 70
   64
  3
                                
 72
   65
 73
    0
 40
0
  0
ENDTAB
  0
TABLE
  2
STYLE
  5
3
100
AcDbSymbolTable
 70
     1
  0
STYLE
  5
10
100
AcDbSymbolTableRecord
100
AcDbTextStyleTableRecord
  2
STANDARD
 70
     0
 40
0.0
 41
1.0
 50
0.0
 71
     0
 42
0.2
  3
txt
  4
bigfont.shx
  0
STYLE
  5
26
100
AcDbSymbolTableRecord
100
AcDbTextStyleTableRecord
  2
TATEGAKI
 70
    68
 40
0.0
 41
1.0
 50
0.0
 71
     0
 42
1.0
  3
txt
  4
bigfont.shx
  0
ENDTAB
  0
TABLE
  2
LAYER
 70
    2
  0
LAYER
  2
_0-0_通り芯
 70
   64
 62
    7
  6
CONTINUOUS
  0
LAYER
  2
ADD_LINE
 70
   64
 62
    7
  6
CONTINUOUS
  0
ENDTAB
  0
ENDSEC
  0
SECTION
  2
BLOCKS
  0
ENDSEC
  0
SECTION
  2
ENTITIES
  0
TEXT
  8
_0-0_通り芯
 62
    7
 10
3108.1148302719675
 20
1251.6206328428914
 40
40
 41
1
 50
0
  1
参考重量
  0
TEXT
  8
_0-0_通り芯
 62
    7
 10
1541.4353000000001
 20
1936.9187999999999
 40
28
 41
1
 50
0
  1
90
  0
TEXT
  8
_0-0_通り芯
 62
    7
 10
1727.6852800000001
 20
1936.9187999999999
 40
28
 41
1
 50
0
  1
300
  0
TEXT
  8
_0-0_通り芯
 62
    7
 10
1931.4351999999999
 20
1936.9187999999999
 40
28
 41
1
 50
0
  1
90
  0
TEXT
  8
_0-0_通り芯
 62
    7
 10
1399.3045099999999
 20
2065.4075000000003
 40
28
 41
1
 50
90
  1
90
  0
TEXT
  8
_0-0_通り芯
 62
    7
 10
1399.3045099999999
 20
2251.6574000000001
 40
28
 41
1
 50
90
  1
300
  0
TEXT
  8
_0-0_通り芯
 62
    7
 10
1399.3045099999999
 20
2455.4075000000003
 40
28
 41
1
 50
90
  1
90
  0
TEXT
  8
_0-0_通り芯
 62
    7
 10
1333.94697
 20
2251.6574000000001
 40
28
 41
1
 50
90
  1
480
  0
TEXT
  8
_0-0_通り芯
 62
    7
 10
1865.1852899999999
 20
2389.7224999999999
 40
28
 41
1
 50
0
  1
150
  0
TEXT
  8
_0-0_通り芯
 62
    7
 10
2107.8127999999997
 20
2477.2426999999998
 40
28
 41
1
 50
90
  1
5
  0
TEXT
  8
_0-0_通り芯
 62
    7
 10
1592.3349800000001
 20
2528.7543999999998
 40
28
 41
1
 50
0
  1
2%
  0
TEXT
  8
_0-0_通り芯
 62
    7
 10
1727.6852800000001
 20
2866.2779999999998
 40
28
 41
1
 50
0
  1
480
  0
TEXT
  8
_0-0_通り芯
 62
    7
 10
2281.6869999999999
 20
2482.6574999999998
 40
28
 41
1
 50
90
  1
5
  0
TEXT
  8
_0-0_通り芯
 62
    7
 10
2845.4236000000001
 20
2544.0149999999999
 40
28
 41
1
 50
0
  1
180
  0
TEXT
  8
_0-0_通り芯
 62
    7
 10
2845.4236000000001
 20
2397.4821999999999
 40
28
 41
1
 50
0
  1
150
  0
TEXT
  8
_0-0_通り芯
 62
    7
 10
3006.2631999999994
 20
2446.4074000000001
 40
28
 41
1
 50
90
  1
60
  0
TEXT
  8
_0-0_通り芯
 62
    7
 10
3845.4236000000001
 20
2544.0149999999999
 40
28
 41
1
 50
0
  1
180
  0
TEXT
  8
_0-0_通り芯
 62
    7
 10
3845.4236000000001
 20
2397.4821999999999
 40
28
 41
1
 50
0
  1
150
  0
TEXT
  8
_0-0_通り芯
 62
    7
 10
4024.0295999999998
 20
2446.4074000000001
 40
28
 41
1
 50
90
  1
60
  0
TEXT
  8
_0-0_通り芯
 62
    7
 10
1865.1852899999999
 20
2772.9009000000001
 40
28
 41
1
 50
0
  1
180
  0
TEXT
  8
_0-0_通り芯
 62
    7
 10
1865.1852899999999
 20
2821.3213000000001
 40
28
 41
1
 50
0
  1
205
  0
TEXT
  8
_0-0_通り芯
 62
    7
 10
3145.4236000000001
 20
2808.5221000000001
 40
28
 41
1
 50
0
  1
400
  0
TEXT
  8
_0-0_通り芯
 62
    7
 10
2645.4237000000003
 20
2808.5221000000001
 40
28
 41
1
 50
0
  1
600
  0
TEXT
  8
_0-0_通り芯
 62
    7
 10
3545.4236000000001
 20
2808.5221000000001
 40
28
 41
1
 50
0
  1
400
  0
TEXT
  8
_0-0_通り芯
 62
    7
 10
4045.4237000000003
 20
2808.5221000000001
 40
28
 41
1
 50
0
  1
600
  0
TEXT
  8
_0-0_通り芯
 62
    7
 10
2827.9237000000003
 20
2897.5052999999998
 40
28
 41
1
 50
0
  1
1,000
  0
TEXT
  8
_0-0_通り芯
 62
    7
 10
3827.9237000000003
 20
2897.5052999999998
 40
28
 41
1
 50
0
  1
1,000
  0
TEXT
  8
_0-0_通り芯
 62
    7
 10
1865.1852899999999
 20
2560.5974000000006
 40
28
 41
1
 50
0
  1
180
  0
TEXT
  8
_0-0_通り芯
 62
    7
 10
1585.1852800000001
 20
2642.4535000000005
 40
28
 41
1
 50
0
  1
195
  0
TEXT
  8
_0-0_通り芯
 62
    7
 10
1731.43532
 20
2642.4535000000005
 40
28
 41
1
 50
0
  1
80
  0
TEXT
  8
_0-0_通り芯
 62
    7
 10
1680.3989099999999
 20
2348.1808000000001
 40
28
 41
1
 50
0
  1
80
  0
TEXT
  8
_0-0_通り芯
 62
    7
 10
1718.68478
 20
2190.982
 40
28
 41
1
 50
0
  1
200
  0
TEXT
  8
_0-0_通り芯
 62
    7
 10
2153.2083000000002
 20
2328.6574999999998
 40
28
 41
1
 50
90
  1
676
  0
TEXT
  8
_0-0_通り芯
 62
    7
 10
2069.7982999999999
 20
2237.1574000000001
 40
28
 41
1
 50
90
  1
451
  0
TEXT
  8
_0-0_通り芯
 62
    7
 10
2111.9274999999998
 20
2556.6574000000001
 40
28
 41
1
 50
90
  1
220
  0
TEXT
  8
_0-0_通り芯
 62
    7
 10
2071.2984000000001
 20
2566.6574000000001
 40
28
 41
1
 50
90
  1
200
  0
TEXT
  8
_0-0_通り芯
 62
    7
 10
2073.0140813293174
 20
2512.0379733088739
 40
28
 41
1
 50
90
  1
20
  0
TEXT
  8
_0-0_通り芯
 62
    7
 10
2283.1871000000001
 20
2556.6575000000003
 40
28
 41
1
 50
90
  1
220
  0
TEXT
  8
_0-0_通り芯
 62
    7
 10
2281.6869999999999
 20
2237.1574000000001
 40
28
 41
1
 50
90
  1
451
  0
TEXT
  8
_0-0_通り芯
 62
    7
 10
2397.3325
 20
1931.9187999999999
 40
28
 41
1
 50
0
  1
100
  0
TEXT
  8
_0-0_通り芯
 62
    7
 10
2480.7918999999997
 20
1931.9187999999999
 40
28
 41
1
 50
0
  1
50
  0
TEXT
  8
_0-0_通り芯
 62
    7
 10
3231.4004500000005
 20
1931.9187999999999
 40
28
 41
1
 50
0
  1
50
  0
TEXT
  8
_0-0_通り芯
 62
    7
 10
3297.4236000000001
 20
1931.9187999999999
 40
28
 41
1
 50
0
  1
100
  0
TEXT
  8
_0-0_通り芯
 62
    7
 10
3397.4236000000001
 20
1931.9187999999999
 40
28
 41
1
 50
0
  1
100
  0
TEXT
  8
_0-0_通り芯
 62
    7
 10
3480.4467500000001
 20
1931.9187999999999
 40
28
 41
1
 50
0
  1
50
  0
TEXT
  8
_0-0_通り芯
 62
    7
 10
4231.0552500000003
 20
1931.9187999999999
 40
28
 41
1
 50
0
  1
50
  0
TEXT
  8
_0-0_通り芯
 62
    7
 10
4297.5147999999999
 20
1931.9187999999999
 40
28
 41
1
 50
0
  1
100
  0
TEXT
  8
_0-0_通り芯
 62
    7
 10
1312.0283215326947
 20
1255.1509787588504
 40
40
 41
1
 50
0
  1
名称
  0
TEXT
  8
_0-0_通り芯
 62
    7
 10
1546.6888796334863
 20
1252.8946272386506
 40
40
 41
1
 50
0
  1
クリーン側溝　300HN
  0
TEXT
  8
_0-0_通り芯
 62
    7
 10
2196.5181174510622
 20
1250.6382757184506
 40
40
 41
1
 50
0
  1
分類
  0
TEXT
  8
_0-0_通り芯
 62
    7
 10
2494.3565181174513
 20
1252.8946272386506
 40
40
 41
1
 50
0
  1
出入口型
  0
TEXT
  8
_0-0_通り芯
 62
    7
 10
2821.5274885464391
 20
1252.8946272386506
 40
40
 41
1
 50
0
  1
図番
  0
TEXT
  8
_0-0_通り芯
 62
    7
 10
3292.6977856963267
 20
1278.2888902762916
 40
40
 41
1
 50
0
  1
クリーン側溝　302㎏
  0
TEXT
  8
_0-0_通り芯
 62
    7
 10
3358.2360353782219
 20
1230.7208058297547
 40
40
 41
1
 50
0
  1
歩車道　54㎏
  0
TEXT
  8
_0-0_通り芯
 62
    7
 10
3919.9421246257389
 20
1254.1461997972754
 40
40
 41
1
 50
0
  1
岩城ブロック工業株式会社
  0
LINE
  8
_0-0_通り芯
  6
CONTINUOUS
 62
    7
 10
1404.3045000000002
 20
2126.6575000000003
 11
1495.28144
 21
2126.6575000000003
  0
LINE
  8
_0-0_通り芯
  6
CONTINUOUS
 62
    7
 10
3370.4236000000001
 20
1793.0083
 11
3370.4236000000001
 21
2976.4827999999998
  0
LINE
  8
_0-0_通り芯
  6
CONTINUOUS
 62
    7
 10
4370.4237000000003
 20
2492.6574999999998
 11
2370.4237000000003
 21
2492.6574999999998
  0
LINE
  8
_0-0_通り芯
  6
CONTINUOUS
 62
    7
 10
1952.6851999999999
 20
2036.6574000000001
 11
1992.6853000000001
 21
2076.6575000000003
  0
LINE
  8
_0-0_通り芯
  6
CONTINUOUS
 62
    7
 10
1274.5044499999999
 20
1223.78387
 11
1274.5044499999999
 21
3373.7833999999998
  0
LINE
  8
_0-0_通り芯
  6
CONTINUOUS
 62
    7
 10
1274.5044499999999
 20
3373.7833999999998
 11
4474.5041000000001
 21
3373.7833999999998
  0
LINE
  8
_0-0_通り芯
  6
CONTINUOUS
 62
    7
 10
4474.5041000000001
 20
3373.7833999999998
 11
4474.5041000000001
 21
1223.78387
  0
LINE
  8
_0-0_通り芯
  6
CONTINUOUS
 62
    7
 10
4474.5041000000001
 20
1223.78387
 11
1274.5044499999999
 21
1223.78387
  0
LINE
  8
_0-0_通り芯
  6
CONTINUOUS
 62
    7
 10
4474.5041000000001
 20
1323.7837200000001
 11
1274.5044499999999
 21
1323.7837200000001
  0
LINE
  8
_0-0_通り芯
  6
CONTINUOUS
 62
    7
 10
2394.5041000000001
 20
1223.78387
 11
2394.5041000000001
 21
1323.7837200000001
  0
LINE
  8
_0-0_通り芯
  6
CONTINUOUS
 62
    7
 10
2944.5039000000002
 20
1223.78387
 11
2944.5039000000002
 21
1323.7837200000001
  0
LINE
  8
_0-0_通り芯
  6
CONTINUOUS
 62
    7
 10
2774.5038
 20
1223.78387
 11
2774.5038
 21
1323.7837200000001
  0
LINE
  8
_0-0_通り芯
  6
CONTINUOUS
 62
    7
 10
1444.5040300000001
 20
1223.78387
 11
1444.5040300000001
 21
1323.7837200000001
  0
LINE
  8
_0-0_通り芯
  6
CONTINUOUS
 62
    7
 10
1432.1486399999999
 20
2036.6574000000001
 11
1498.0873999999999
 21
2036.6574000000001
  0
LINE
  8
_0-0_通り芯
  6
CONTINUOUS
 62
    7
 10
1512.6853099999998
 20
1931.9187999999999
 11
1602.6853000000001
 21
1931.9187999999999
  0
LINE
  8
_0-0_通り芯
  6
CONTINUOUS
 62
    7
 10
1512.6853099999998
 20
1931.9187999999999
 11
1512.6853099999998
 21
2009.3171000000002
  0
LINE
  8
_0-0_通り芯
  6
CONTINUOUS
 62
    7
 10
1602.6853000000001
 20
1931.9187999999999
 11
1602.6853000000001
 21
2009.3171000000002
  0
LINE
  8
_0-0_通り芯
  6
CONTINUOUS
 62
    7
 10
1602.6853000000001
 20
1931.9187999999999
 11
1902.6851999999999
 21
1931.9187999999999
  0
LINE
  8
_0-0_通り芯
  6
CONTINUOUS
 62
    7
 10
1902.6851999999999
 20
1931.9187999999999
 11
1902.6851999999999
 21
2009.3171000000002
  0
LINE
  8
_0-0_通り芯
  6
CONTINUOUS
 62
    7
 10
1902.6851999999999
 20
1931.9187999999999
 11
1992.6853000000001
 21
1931.9187999999999
  0
LINE
  8
_0-0_通り芯
  6
CONTINUOUS
 62
    7
 10
1992.6853000000001
 20
1931.9187999999999
 11
1992.6853000000001
 21
2009.3171000000002
  0
LINE
  8
_0-0_通り芯
  6
CONTINUOUS
 62
    7
 10
1602.6853000000001
 20
2346.6575000000003
 11
1602.6853000000001
 21
2319.3064999999997
  0
LINE
  8
_0-0_通り芯
  6
CONTINUOUS
 62
    7
 10
1902.6851999999999
 20
2346.6575000000003
 11
1902.6851999999999
 21
2319.3064999999997
  0
LINE
  8
_0-0_通り芯
  6
CONTINUOUS
 62
    7
 10
1732.6853299999998
 20
2426.6575000000003
 11
1682.68532
 21
2426.6575000000003
  0
LINE
  8
_0-0_通り芯
  6
CONTINUOUS
 62
    7
 10
1772.6853099999998
 20
2471.6575000000003
 11
1772.6853099999998
 21
2456.6973000000003
  0
LINE
  8
_0-0_通り芯
  6
CONTINUOUS
 62
    7
 10
1822.68532
 20
2426.6575000000003
 11
1772.6853099999998
 21
2426.6575000000003
  0
LINE
  8
_0-0_通り芯
  6
CONTINUOUS
 62
    7
 10
1732.6853299999998
 20
2471.6575000000003
 11
1732.6853299999998
 21
2426.6575000000003
  0
LINE
  8
_0-0_通り芯
  6
CONTINUOUS
 62
    7
 10
1772.6853099999998
 20
2456.6973000000003
 11
1772.6853099999998
 21
2426.6575000000003
  0
LINE
  8
_0-0_通り芯
  6
CONTINUOUS
 62
    7
 10
1772.6853099999998
 20
2450.9497000000001
 11
1772.6853099999998
 21
2426.6575000000003
  0
LINE
  8
_0-0_通り芯
  6
CONTINUOUS
 62
    7
 10
1792.6853299999998
 20
2487.6574000000001
 11
1992.6853000000001
 21
2487.6574000000001
  0
LINE
  8
_0-0_通り芯
  6
CONTINUOUS
 62
    7
 10
1792.6853299999998
 20
2492.6574999999998
 11
1992.6853000000001
 21
2492.6574999999998
  0
LINE
  8
_0-0_通り芯
  6
CONTINUOUS
 62
    7
 10
2074.7982999999999
 20
2036.6574000000001
 11
2074.7982999999999
 21
2487.6574000000001
  0
LINE
  8
_0-0_通り芯
  6
CONTINUOUS
 62
    7
 10
2074.7982999999999
 20
2036.6574000000001
 11
2008.3431
 21
2036.6574000000001
  0
LINE
  8
_0-0_通り芯
  6
CONTINUOUS
 62
    7
 10
2074.7982999999999
 20
2487.6574000000001
 11
2008.3431
 21
2487.6574000000001
  0
LINE
  8
_0-0_通り芯
  6
CONTINUOUS
 62
    7
 10
2074.7982999999999
 20
2487.6574000000001
 11
2074.7982999999999
 21
2492.6574999999998
  0
LINE
  8
_0-0_通り芯
  6
CONTINUOUS
 62
    7
 10
2074.7982999999999
 20
2492.6574999999998
 11
2008.3431
 21
2492.6574999999998
  0
LINE
  8
_0-0_通り芯
  6
CONTINUOUS
 62
    7
 10
2074.7982999999999
 20
2492.6574999999998
 11
2074.7982999999999
 21
2512.6574999999998
  0
LINE
  8
_0-0_通り芯
  6
CONTINUOUS
 62
    7
 10
2074.7982999999999
 20
2512.6574999999998
 11
2008.3431
 21
2512.6574999999998
  0
LINE
  8
_0-0_通り芯
  6
CONTINUOUS
 62
    7
 10
1404.3045000000002
 20
2036.6574000000001
 11
1404.3045000000002
 21
2126.6575000000003
  0
LINE
  8
_0-0_通り芯
  6
CONTINUOUS
 62
    7
 10
1404.3045000000002
 20
2126.6575000000003
 11
1404.3045000000002
 21
2426.6575000000003
  0
LINE
  8
_0-0_通り芯
  6
CONTINUOUS
 62
    7
 10
1404.3045000000002
 20
2426.6575000000003
 11
1404.3045000000002
 21
2516.6575000000003
  0
LINE
  8
_0-0_通り芯
  6
CONTINUOUS
 62
    7
 10
1338.94695
 20
2036.6574000000001
 11
1338.94695
 21
2516.6575000000003
  0
LINE
  8
_0-0_通り芯
  6
CONTINUOUS
 62
    7
 10
1404.3045000000002
 20
2426.6575000000003
 11
1495.28144
 21
2426.6575000000003
  0
LINE
  8
_0-0_通り芯
  6
CONTINUOUS
 62
    7
 10
1338.94695
 20
2516.6575000000003
 11
1495.28144
 21
2516.6575000000003
  0
LINE
  8
_0-0_通り芯
  6
CONTINUOUS
 62
    7
 10
1338.94695
 20
2516.6575000000003
 11
1391.4630400000001
 21
2516.6575000000003
  0
LINE
  8
_0-0_通り芯
  6
CONTINUOUS
 62
    7
 10
1338.94695
 20
2036.6574000000001
 11
1391.4630400000001
 21
2036.6574000000001
  0
LINE
  8
_0-0_通り芯
  6
CONTINUOUS
 62
    7
 10
1338.94695
 20
2036.6574000000001
 11
1495.28144
 21
2036.6574000000001
  0
LINE
  8
_0-0_通り芯
  6
CONTINUOUS
 62
    7
 10
1732.6853299999998
 20
2471.6575000000003
 11
1707.68532
 21
2471.6575000000003
  0
LINE
  8
_0-0_通り芯
  6
CONTINUOUS
 62
    7
 10
1732.6853299999998
 20
2466.6575000000003
 11
1702.6853299999998
 21
2466.6575000000003
  0
LINE
  8
_0-0_通り芯
  6
CONTINUOUS
 62
    7
 10
1707.68532
 20
2511.6574000000001
 11
1707.68532
 21
2471.6575000000003
  0
LINE
  8
_0-0_通り芯
  6
CONTINUOUS
 62
    7
 10
1702.6853299999998
 20
2511.6574000000001
 11
1702.6853299999998
 21
2466.6575000000003
  0
LINE
  8
_0-0_通り芯
  6
CONTINUOUS
 62
    7
 10
1787.6852800000001
 20
2471.6575000000003
 11
1772.6853099999998
 21
2471.6575000000003
  0
LINE
  8
_0-0_通り芯
  6
CONTINUOUS
 62
    7
 10
1787.6852800000001
 20
2511.6574000000001
 11
1787.6852800000001
 21
2471.6575000000003
  0
LINE
  8
_0-0_通り芯
  6
CONTINUOUS
 62
    7
 10
1792.6853299999998
 20
2466.6575000000003
 11
1772.6853099999998
 21
2466.6575000000003
  0
LINE
  8
_0-0_通り芯
  6
CONTINUOUS
 62
    7
 10
1792.6853299999998
 20
2511.6574000000001
 11
1792.6853299999998
 21
2466.6575000000003
  0
LINE
  8
_0-0_通り芯
  6
CONTINUOUS
 62
    7
 10
1992.6853000000001
 20
2803.1774
 11
1992.6853000000001
 21
2722.2972
  0
LINE
  8
_0-0_通り芯
  6
CONTINUOUS
 62
    7
 10
1815.1852800000001
 20
2384.7226000000001
 11
1965.1851999999999
 21
2384.7226000000001
  0
LINE
  8
_0-0_通り芯
  6
CONTINUOUS
 62
    7
 10
1815.1852800000001
 20
2384.7226000000001
 11
1815.1852800000001
 21
2428.6111999999998
  0
LINE
  8
_0-0_通り芯
  6
CONTINUOUS
 62
    7
 10
1965.1851999999999
 20
2384.7226000000001
 11
1965.1851999999999
 21
2428.6111999999998
  0
LINE
  8
_0-0_通り芯
  6
CONTINUOUS
 62
    7
 10
1625.2695899999999
 20
2402.3659000000002
 11
1670.8441199999997
 21
2365.5317
  0
LINE
  8
_0-0_通り芯
  6
CONTINUOUS
 62
    7
 10
1648.9845700000001
 20
2186.8640999999998
 11
1712.3511800000001
 21
2208.8312999999998
  0
LINE
  8
_0-0_通り芯
  6
CONTINUOUS
 62
    7
 10
1709.6852800000001
 20
2511.6574000000001
 11
1709.6852800000001
 21
2473.6574999999998
  0
LINE
  8
_0-0_通り芯
  6
CONTINUOUS
 62
    7
 10
1707.68532
 20
2511.7125000000001
 11
1512.6853099999998
 21
2516.4378999999999
  0
LINE
  8
_0-0_通り芯
  6
CONTINUOUS
 62
    7
 10
1792.6853299999998
 20
2511.6574000000001
 11
1787.6852800000001
 21
2511.6574000000001
  0
LINE
  8
_0-0_通り芯
  6
CONTINUOUS
 62
    7
 10
1785.68532
 20
2511.6574000000001
 11
1709.6852800000001
 21
2511.6574000000001
  0
LINE
  8
_0-0_通り芯
  6
CONTINUOUS
 62
    7
 10
1735.01863
 20
2473.6574999999998
 11
1735.01863
 21
2511.6574000000001
  0
LINE
  8
_0-0_通り芯
  6
CONTINUOUS
 62
    7
 10
1760.3519700000002
 20
2473.6574999999998
 11
1760.3519700000002
 21
2511.6574000000001
  0
LINE
  8
_0-0_通り芯
  6
CONTINUOUS
 62
    7
 10
1785.68532
 20
2511.6574000000001
 11
1785.68532
 21
2473.6574999999998
  0
LINE
  8
_0-0_通り芯
  6
CONTINUOUS
 62
    7
 10
1785.68532
 20
2473.6574999999998
 11
1709.6852800000001
 21
2473.6574999999998
  0
LINE
  8
_0-0_通り芯
  6
CONTINUOUS
 62
    7
 10
1512.6853099999998
 20
2076.6575000000003
 11
1512.6853099999998
 21
2516.6575000000003
  0
LINE
  8
_0-0_通り芯
  6
CONTINUOUS
 62
    7
 10
1512.6853099999998
 20
2076.6575000000003
 11
1552.6852899999999
 21
2036.6574000000001
  0
LINE
  8
_0-0_通り芯
  6
CONTINUOUS
 62
    7
 10
1659.0010200000002
 20
2522.8952999999997
 11
1558.0230200000001
 21
2525.3420999999998
  0
LINE
  8
_0-0_通り芯
  6
CONTINUOUS
 62
    7
 10
1659.13869
 20
2522.7181999999998
 11
1645.9343800000001
 21
2527.6226999999999
  0
LINE
  8
_0-0_通り芯
  6
CONTINUOUS
 62
    7
 10
1512.6853099999998
 20
2861.2781
 11
1512.6853099999998
 21
2582.9324999999999
  0
LINE
  8
_0-0_通り芯
  6
CONTINUOUS
 62
    7
 10
1992.6853000000001
 20
2861.2781
 11
1512.6853099999998
 21
2861.2781
  0
LINE
  8
_0-0_通り芯
  6
CONTINUOUS
 62
    7
 10
1992.6853000000001
 20
2861.2781
 11
1992.6853000000001
 21
2803.1774
  0
LINE
  8
_0-0_通り芯
  6
CONTINUOUS
 62
    7
 10
1952.6851999999999
 20
2036.6574000000001
 11
1552.6852899999999
 21
2036.6574000000001
  0
LINE
  8
_0-0_通り芯
  6
CONTINUOUS
 62
    7
 10
4370.4237000000003
 20
2487.6574000000001
 11
2370.4237000000003
 21
2487.6574000000001
  0
LINE
  8
_0-0_通り芯
  6
CONTINUOUS
 62
    7
 10
2286.6869999999999
 20
2036.6574000000001
 11
2286.6869999999999
 21
2487.6574000000001
  0
LINE
  8
_0-0_通り芯
  6
CONTINUOUS
 62
    7
 10
2286.6869999999999
 20
2036.6574000000001
 11
2350.5155999999997
 21
2036.6574000000001
  0
LINE
  8
_0-0_通り芯
  6
CONTINUOUS
 62
    7
 10
2286.6869999999999
 20
2487.6574000000001
 11
2350.5155999999997
 21
2487.6574000000001
  0
LINE
  8
_0-0_通り芯
  6
CONTINUOUS
 62
    7
 10
2286.6869999999999
 20
2487.6574000000001
 11
2286.6869999999999
 21
2492.6574999999998
  0
LINE
  8
_0-0_通り芯
  6
CONTINUOUS
 62
    7
 10
2286.6869999999999
 20
2492.6574999999998
 11
2350.5155999999997
 21
2492.6574999999998
  0
LINE
  8
_0-0_通り芯
  6
CONTINUOUS
 62
    7
 10
4370.4237000000003
 20
2126.6575000000003
 11
2370.4237000000003
 21
2126.6575000000003
  0
LINE
  8
_0-0_通り芯
  6
CONTINUOUS
 62
    7
 10
4370.4237000000003
 20
2426.6575000000003
 11
2370.4237000000003
 21
2426.6575000000003
  0
LINE
  8
_0-0_通り芯
  6
CONTINUOUS
 62
    7
 10
2370.4237000000003
 20
2076.6575000000003
 11
2410.4236000000001
 21
2036.6574000000001
  0
LINE
  8
_0-0_通り芯
  6
CONTINUOUS
 62
    7
 10
4330.4237999999996
 20
2036.6574000000001
 11
2410.4236000000001
 21
2036.6574000000001
  0
LINE
  8
_0-0_通り芯
  6
CONTINUOUS
 62
    7
 10
4330.4237999999996
 20
2036.6574000000001
 11
4370.4237000000003
 21
2076.6575000000003
  0
LINE
  8
_0-0_通り芯
  6
CONTINUOUS
 62
    7
 10
2670.4236000000001
 20
2316.6574000000001
 11
2470.4237000000003
 21
2316.6574000000001
  0
LINE
  8
_0-0_通り芯
  6
CONTINUOUS
 62
    7
 10
2670.4236000000001
 20
2376.6574000000001
 11
2470.4237000000003
 21
2376.6574000000001
  0
LINE
  8
_0-0_通り芯
  6
CONTINUOUS
 62
    7
 10
2670.4236000000001
 20
2316.6574000000001
 11
2670.4236000000001
 21
2376.6574000000001
  0
LINE
  8
_0-0_通り芯
  6
CONTINUOUS
 62
    7
 10
2470.4237000000003
 20
2316.6574000000001
 11
2470.4237000000003
 21
2376.6574000000001
  0
LINE
  8
_0-0_通り芯
  6
CONTINUOUS
 62
    7
 10
2470.4237000000003
 20
2356.6575000000003
 11
2370.4237000000003
 21
2356.6575000000003
  0
LINE
  8
_0-0_通り芯
  6
CONTINUOUS
 62
    7
 10
2470.4237000000003
 20
2336.6574000000001
 11
2370.4237000000003
 21
2336.6574000000001
  0
LINE
  8
_0-0_通り芯
  6
CONTINUOUS
 62
    7
 10
2660.4237000000003
 20
2366.6575000000003
 11
2480.4237000000003
 21
2366.6575000000003
  0
LINE
  8
_0-0_通り芯
  6
CONTINUOUS
 62
    7
 10
2660.4237000000003
 20
2326.6574000000001
 11
2660.4237000000003
 21
2366.6575000000003
  0
LINE
  8
_0-0_通り芯
  6
CONTINUOUS
 62
    7
 10
2480.9659999999999
 20
2366.3334
 11
2470.4237000000003
 21
2377.0222000000003
  0
LINE
  8
_0-0_通り芯
  6
CONTINUOUS
 62
    7
 10
2660.4237000000003
 20
2326.6574000000001
 11
2480.4237000000003
 21
2326.6574000000001
  0
LINE
  8
_0-0_通り芯
  6
CONTINUOUS
 62
    7
 10
2480.4237000000003
 20
2326.6574000000001
 11
2480.4237000000003
 21
2366.6575000000003
  0
LINE
  8
_0-0_通り芯
  6
CONTINUOUS
 62
    7
 10
2480.2046
 20
2326.6574000000001
 11
2470.4237000000003
 21
2316.3993999999998
  0
LINE
  8
_0-0_通り芯
  6
CONTINUOUS
 62
    7
 10
2660.0050000000001
 20
2366.6575000000003
 11
2670.4236000000001
 21
2376.4380999999998
  0
LINE
  8
_0-0_通り芯
  6
CONTINUOUS
 62
    7
 10
2660.4525000000003
 20
2326.6574000000001
 11
2669.6361000000002
 21
2316.6574000000001
  0
LINE
  8
_0-0_通り芯
  6
CONTINUOUS
 62
    7
 10
4070.4236000000001
 20
2316.6574000000001
 11
4270.4236000000001
 21
2316.6574000000001
  0
LINE
  8
_0-0_通り芯
  6
CONTINUOUS
 62
    7
 10
4070.4236000000001
 20
2376.6574000000001
 11
4270.4236000000001
 21
2376.6574000000001
  0
LINE
  8
_0-0_通り芯
  6
CONTINUOUS
 62
    7
 10
4070.4236000000001
 20
2316.6574000000001
 11
4070.4236000000001
 21
2376.6574000000001
  0
LINE
  8
_0-0_通り芯
  6
CONTINUOUS
 62
    7
 10
4270.4236000000001
 20
2316.6574000000001
 11
4270.4236000000001
 21
2376.6574000000001
  0
LINE
  8
_0-0_通り芯
  6
CONTINUOUS
 62
    7
 10
4270.4236000000001
 20
2356.6575000000003
 11
4370.4237000000003
 21
2356.6575000000003
  0
LINE
  8
_0-0_通り芯
  6
CONTINUOUS
 62
    7
 10
4270.4236000000001
 20
2336.6574000000001
 11
4370.4237000000003
 21
2336.6574000000001
  0
LINE
  8
_0-0_通り芯
  6
CONTINUOUS
 62
    7
 10
4080.4236000000001
 20
2366.6575000000003
 11
4260.4237000000003
 21
2366.6575000000003
  0
LINE
  8
_0-0_通り芯
  6
CONTINUOUS
 62
    7
 10
4080.4236000000001
 20
2326.6574000000001
 11
4080.4236000000001
 21
2366.6575000000003
  0
LINE
  8
_0-0_通り芯
  6
CONTINUOUS
 62
    7
 10
4259.8811000000005
 20
2366.3334
 11
4270.4236000000001
 21
2377.0222000000003
  0
LINE
  8
_0-0_通り芯
  6
CONTINUOUS
 62
    7
 10
4080.4236000000001
 20
2326.6574000000001
 11
4260.4237000000003
 21
2326.6574000000001
  0
LINE
  8
_0-0_通り芯
  6
CONTINUOUS
 62
    7
 10
4260.4237000000003
 20
2326.6574000000001
 11
4260.4237000000003
 21
2366.6575000000003
  0
LINE
  8
_0-0_通り芯
  6
CONTINUOUS
 62
    7
 10
4260.6426999999994
 20
2326.6574000000001
 11
4270.4236000000001
 21
2316.3993999999998
  0
LINE
  8
_0-0_通り芯
  6
CONTINUOUS
 62
    7
 10
4080.8422
 20
2366.6575000000003
 11
4070.4236000000001
 21
2376.4380999999998
  0
LINE
  8
_0-0_通り芯
  6
CONTINUOUS
 62
    7
 10
4080.3949000000002
 20
2326.6574000000001
 11
4071.2111
 21
2316.6574000000001
  0
LINE
  8
_0-0_通り芯
  6
CONTINUOUS
 62
    7
 10
2780.4237000000003
 20
2539.0149999999999
 11
2960.4237999999996
 21
2539.0149999999999
  0
LINE
  8
_0-0_通り芯
  6
CONTINUOUS
 62
    7
 10
2780.4237000000003
 20
2539.0149999999999
 11
2780.4237000000003
 21
2497.1345000000001
  0
LINE
  8
_0-0_通り芯
  6
CONTINUOUS
 62
    7
 10
2960.4237999999996
 20
2539.0149999999999
 11
2960.4237999999996
 21
2497.1345000000001
  0
LINE
  8
_0-0_通り芯
  6
CONTINUOUS
 62
    7
 10
2795.4236000000001
 20
2392.4821999999999
 11
2945.4237000000003
 21
2392.4821999999999
  0
LINE
  8
_0-0_通り芯
  6
CONTINUOUS
 62
    7
 10
2795.4236000000001
 20
2392.4821999999999
 11
2795.4236000000001
 21
2426.5600999999997
  0
LINE
  8
_0-0_通り芯
  6
CONTINUOUS
 62
    7
 10
2945.4237000000003
 20
2392.4821999999999
 11
2945.4237000000003
 21
2426.5600999999997
  0
LINE
  8
_0-0_通り芯
  6
CONTINUOUS
 62
    7
 10
3011.2631999999994
 20
2492.6574999999998
 11
3011.2631999999994
 21
2432.6574000000001
  0
LINE
  8
_0-0_通り芯
  6
CONTINUOUS
 62
    7
 10
3011.2631999999994
 20
2492.6574999999998
 11
2974.1893
 21
2492.6574999999998
  0
LINE
  8
_0-0_通り芯
  6
CONTINUOUS
 62
    7
 10
3011.2631999999994
 20
2432.6574000000001
 11
2974.1893
 21
2432.6574000000001
  0
LINE
  8
_0-0_通り芯
  6
CONTINUOUS
 62
    7
 10
3960.4236000000001
 20
2539.0149999999999
 11
3780.4237000000003
 21
2539.0149999999999
  0
LINE
  8
_0-0_通り芯
  6
CONTINUOUS
 62
    7
 10
3960.4236000000001
 20
2539.0149999999999
 11
3960.4236000000001
 21
2497.1345000000001
  0
LINE
  8
_0-0_通り芯
  6
CONTINUOUS
 62
    7
 10
3780.4237000000003
 20
2539.0149999999999
 11
3780.4237000000003
 21
2497.1345000000001
  0
LINE
  8
_0-0_通り芯
  6
CONTINUOUS
 62
    7
 10
3945.4236000000001
 20
2392.4821999999999
 11
3795.4237000000003
 21
2392.4821999999999
  0
LINE
  8
_0-0_通り芯
  6
CONTINUOUS
 62
    7
 10
3945.4236000000001
 20
2392.4821999999999
 11
3945.4236000000001
 21
2426.5600999999997
  0
LINE
  8
_0-0_通り芯
  6
CONTINUOUS
 62
    7
 10
3795.4237000000003
 20
2392.4821999999999
 11
3795.4237000000003
 21
2426.5600999999997
  0
LINE
  8
_0-0_通り芯
  6
CONTINUOUS
 62
    7
 10
4029.0295999999998
 20
2492.6574999999998
 11
4029.0295999999998
 21
2432.6574000000001
  0
LINE
  8
_0-0_通り芯
  6
CONTINUOUS
 62
    7
 10
4029.0295999999998
 20
2492.6574999999998
 11
3978.5081
 21
2492.6574999999998
  0
LINE
  8
_0-0_通り芯
  6
CONTINUOUS
 62
    7
 10
4029.0295999999998
 20
2432.6574000000001
 11
3978.5081
 21
2432.6574000000001
  0
LINE
  8
_0-0_通り芯
  6
CONTINUOUS
 62
    7
 10
1513.5198500000001
 20
2246.1061999999997
 11
1631.9038599999999
 21
2036.6574000000001
  0
LINE
  8
_0-0_通り芯
  6
CONTINUOUS
 62
    7
 10
1991.8507
 20
2246.1061999999997
 11
1873.4666999999999
 21
2036.6574000000001
  0
LINE
  8
_0-0_通り芯
  6
CONTINUOUS
 62
    7
 10
1800.3414699999998
 20
2492.6574999999998
 11
1814.9569099999999
 21
2432.6574000000001
  0
LINE
  8
_0-0_通り芯
  6
CONTINUOUS
 62
    7
 10
1814.9569099999999
 20
2432.6574000000001
 11
1965.213
 21
2432.6574000000001
  0
LINE
  8
_0-0_通り芯
  6
CONTINUOUS
 62
    7
 10
1980.1221
 20
2492.6574999999998
 11
1965.213
 21
2432.6574000000001
  0
LINE
  8
_0-0_通り芯
  6
CONTINUOUS
 62
    7
 10
1800.1853099999998
 20
2767.9009000000001
 11
1980.1853000000001
 21
2767.9009000000001
  0
LINE
  8
_0-0_通り芯
  6
CONTINUOUS
 62
    7
 10
1992.6853000000001
 20
2816.3213000000001
 11
1787.6852800000001
 21
2816.3213000000001
  0
LINE
  8
_0-0_通り芯
  6
CONTINUOUS
 62
    7
 10
2470.2412999999997
 20
2249.7864
 11
2520.3424999999997
 21
2036.6574000000001
  0
LINE
  8
_0-0_通り芯
  6
CONTINUOUS
 62
    7
 10
3271.0286999999998
 20
2246.6575000000003
 11
2470.2412999999997
 21
2246.6575000000003
  0
LINE
  8
_0-0_通り芯
  6
CONTINUOUS
 62
    7
 10
3271.0286999999998
 20
2246.6575000000003
 11
3221.3773000000001
 21
2036.6574000000001
  0
LINE
  8
_0-0_通り芯
  6
CONTINUOUS
 62
    7
 10
2470.2412999999997
 20
2036.6574000000001
 11
2470.2412999999997
 21
2246.6575000000003
  0
LINE
  8
_0-0_通り芯
  6
CONTINUOUS
 62
    7
 10
4270.6058999999996
 20
2249.7864
 11
4220.5046000000002
 21
2036.6574000000001
  0
LINE
  8
_0-0_通り芯
  6
CONTINUOUS
 62
    7
 10
3469.8188
 20
2246.6575000000003
 11
4270.6058999999996
 21
2246.6575000000003
  0
LINE
  8
_0-0_通り芯
  6
CONTINUOUS
 62
    7
 10
3469.8188
 20
2246.6575000000003
 11
3519.4699000000001
 21
2036.6574000000001
  0
LINE
  8
_0-0_通り芯
  6
CONTINUOUS
 62
    7
 10
4270.6058999999996
 20
2036.6574000000001
 11
4270.6058999999996
 21
2246.6575000000003
  0
LINE
  8
_0-0_通り芯
  6
CONTINUOUS
 62
    7
 10
3270.4236000000001
 20
2036.6574000000001
 11
3270.4236000000001
 21
2246.6575000000003
  0
LINE
  8
_0-0_通り芯
  6
CONTINUOUS
 62
    7
 10
3470.4236000000001
 20
2036.6574000000001
 11
3470.4236000000001
 21
2246.6575000000003
  0
LINE
  8
_0-0_通り芯
  6
CONTINUOUS
 62
    7
 10
3370.4236000000001
 20
2803.5221000000001
 11
2970.4237000000003
 21
2803.5221000000001
  0
LINE
  8
_0-0_通り芯
  6
CONTINUOUS
 62
    7
 10
3370.4236000000001
 20
2803.5221000000001
 11
3370.4236000000001
 21
2731.2235000000001
  0
LINE
  8
_0-0_通り芯
  6
CONTINUOUS
 62
    7
 10
2970.4237000000003
 20
2803.5221000000001
 11
2370.4237000000003
 21
2803.5221000000001
  0
LINE
  8
_0-0_通り芯
  6
CONTINUOUS
 62
    7
 10
3370.4236000000001
 20
2803.5221000000001
 11
3770.4237000000003
 21
2803.5221000000001
  0
LINE
  8
_0-0_通り芯
  6
CONTINUOUS
 62
    7
 10
3770.4237000000003
 20
2803.5221000000001
 11
4370.4237000000003
 21
2803.5221000000001
  0
LINE
  8
_0-0_通り芯
  6
CONTINUOUS
 62
    7
 10
2370.4237000000003
 20
2892.5052999999998
 11
3370.4236000000001
 21
2892.5052999999998
  0
LINE
  8
_0-0_通り芯
  6
CONTINUOUS
 62
    7
 10
2370.4237000000003
 20
2892.5052999999998
 11
2370.4237000000003
 21
2781.2763
  0
LINE
  8
_0-0_通り芯
  6
CONTINUOUS
 62
    7
 10
3370.4236000000001
 20
2892.5052999999998
 11
3370.4236000000001
 21
2781.2763
  0
LINE
  8
_0-0_通り芯
  6
CONTINUOUS
 62
    7
 10
3370.4236000000001
 20
2892.5052999999998
 11
4370.4237000000003
 21
2892.5052999999998
  0
LINE
  8
_0-0_通り芯
  6
CONTINUOUS
 62
    7
 10
4370.4237000000003
 20
2892.5052999999998
 11
4370.4237000000003
 21
2781.2763
  0
LINE
  8
_0-0_通り芯
  6
CONTINUOUS
 62
    7
 10
1802.5800899999999
 20
2522.6468
 11
1793.64167
 21
2512.7012
  0
LINE
  8
_0-0_通り芯
  6
CONTINUOUS
 62
    7
 10
1793.64167
 20
2512.7012
 11
1793.2039199999999
 21
2492.6574999999998
  0
LINE
  8
_0-0_通り芯
  6
CONTINUOUS
 62
    7
 10
1800.1853099999998
 20
2555.5974999999999
 11
1980.1853000000001
 21
2555.5974999999999
  0
LINE
  8
_0-0_通り芯
  6
CONTINUOUS
 62
    7
 10
1512.6853099999998
 20
2637.4535000000005
 11
1707.68532
 21
2637.4535000000005
  0
LINE
  8
_0-0_通り芯
  6
CONTINUOUS
 62
    7
 10
1512.6853099999998
 20
2637.4535000000005
 11
1512.6853099999998
 21
2539.297
  0
LINE
  8
_0-0_通り芯
  6
CONTINUOUS
 62
    7
 10
1707.68532
 20
2637.4535000000005
 11
1707.68532
 21
2539.297
  0
LINE
  8
_0-0_通り芯
  6
CONTINUOUS
 62
    7
 10
1707.68532
 20
2637.4535000000005
 11
1787.6852800000001
 21
2637.4535000000005
  0
LINE
  8
_0-0_通り芯
  6
CONTINUOUS
 62
    7
 10
1787.6852800000001
 20
2637.4535000000005
 11
1787.6852800000001
 21
2539.297
  0
LINE
  8
_0-0_通り芯
  6
CONTINUOUS
 62
    7
 10
2780.4730999999997
 20
2492.6574999999998
 11
2795.5895
 21
2432.6574000000001
  0
LINE
  8
_0-0_通り芯
  6
CONTINUOUS
 62
    7
 10
2945.4016999999999
 20
2432.6574000000001
 11
2795.5895
 21
2432.6574000000001
  0
LINE
  8
_0-0_通り芯
  6
CONTINUOUS
 62
    7
 10
2945.4016999999999
 20
2432.6574000000001
 11
2960.1421
 21
2492.6574999999998
  0
LINE
  8
_0-0_通り芯
  6
CONTINUOUS
 62
    7
 10
3795.4454999999998
 20
2432.6574000000001
 11
3780.7049000000002
 21
2492.6574999999998
  0
LINE
  8
_0-0_通り芯
  6
CONTINUOUS
 62
    7
 10
3795.4454999999998
 20
2432.6574000000001
 11
3945.2577999999999
 21
2432.6574000000001
  0
LINE
  8
_0-0_通り芯
  6
CONTINUOUS
 62
    7
 10
3960.3741
 20
2492.6574999999998
 11
3945.2577999999999
 21
2432.6574000000001
  0
LINE
  8
_0-0_通り芯
  6
CONTINUOUS
 62
    7
 10
1992.6853000000001
 20
2076.6575000000003
 11
1992.6853000000001
 21
2487.6574000000001
  0
LINE
  8
_0-0_通り芯
  6
CONTINUOUS
 62
    7
 10
1952.3166000000001
 20
2662.6574000000001
 11
1828.8914
 21
2662.6574000000001
  0
LINE
  8
_0-0_通り芯
  6
CONTINUOUS
 62
    7
 10
1792.6853299999998
 20
2487.6574000000001
 11
1992.6853000000001
 21
2487.6574000000001
  0
LINE
  8
_0-0_通り芯
  6
CONTINUOUS
 62
    7
 10
1792.6853299999998
 20
2492.6574999999998
 11
1992.6853000000001
 21
2492.6574999999998
  0
LINE
  8
_0-0_通り芯
  6
CONTINUOUS
 62
    7
 10
1798.92055
 20
2633.9791999999998
 11
1792.6880200000001
 21
2492.6574999999998
  0
LINE
  8
_0-0_通り芯
  6
CONTINUOUS
 62
    7
 10
1982.2353000000001
 20
2634.8640999999998
 11
1992.6853000000001
 21
2493.1853000000001
  0
LINE
  8
_0-0_通り芯
  6
CONTINUOUS
 62
    7
 10
1792.6853299999998
 20
2511.6574000000001
 11
1792.6853299999998
 21
2487.6574000000001
  0
LINE
  8
_0-0_通り芯
  6
CONTINUOUS
 62
    7
 10
1992.6853000000001
 20
2493.1853000000001
 11
1992.6853000000001
 21
2487.6574000000001
  0
LINE
  8
_0-0_通り芯
  6
CONTINUOUS
 62
    7
 10
1989.0749000000001
 20
2542.134
 11
1802.5800899999999
 21
2522.6468
  0
LINE
  8
_0-0_通り芯
  6
CONTINUOUS
 62
    7
 10
2074.7982999999999
 20
2662.6574000000001
 11
2074.7982999999999
 21
2512.6574999999998
  0
LINE
  8
_0-0_通り芯
  6
CONTINUOUS
 62
    7
 10
2074.7982999999999
 20
2662.6574000000001
 11
2008.3431
 21
2662.6574000000001
  0
LINE
  8
_0-0_通り芯
  6
CONTINUOUS
 62
    7
 10
2074.7982999999999
 20
2512.6574999999998
 11
2008.3431
 21
2512.6574999999998
  0
LINE
  8
_0-0_通り芯
  6
CONTINUOUS
 62
    7
 10
2115.4274
 20
2662.6574000000001
 11
2115.4274
 21
2492.6574999999998
  0
LINE
  8
_0-0_通り芯
  6
CONTINUOUS
 62
    7
 10
2115.4274
 20
2662.6574000000001
 11
2074.7982999999999
 21
2662.6574000000001
  0
LINE
  8
_0-0_通り芯
  6
CONTINUOUS
 62
    7
 10
2115.4274
 20
2492.6574999999998
 11
2074.7982999999999
 21
2492.6574999999998
  0
LINE
  8
_0-0_通り芯
  6
CONTINUOUS
 62
    7
 10
2156.7084
 20
2662.6574000000001
 11
2156.7084
 21
2036.6574000000001
  0
LINE
  8
_0-0_通り芯
  6
CONTINUOUS
 62
    7
 10
2156.7084
 20
2662.6574000000001
 11
2074.7982999999999
 21
2662.6574000000001
  0
LINE
  8
_0-0_通り芯
  6
CONTINUOUS
 62
    7
 10
2156.7084
 20
2036.6574000000001
 11
2074.7982999999999
 21
2036.6574000000001
  0
LINE
  8
_0-0_通り芯
  6
CONTINUOUS
 62
    7
 10
2970.4237000000003
 20
2492.6574999999998
 11
2970.4237000000003
 21
2662.6574000000001
  0
LINE
  8
_0-0_通り芯
  6
CONTINUOUS
 62
    7
 10
3770.4237000000003
 20
2492.6574999999998
 11
3770.4237000000003
 21
2662.6574000000001
  0
LINE
  8
_0-0_通り芯
  6
CONTINUOUS
 62
    7
 10
3770.4237000000003
 20
2662.6574000000001
 11
2970.4237000000003
 21
2662.6574000000001
  0
LINE
  8
_0-0_通り芯
  6
CONTINUOUS
 62
    7
 10
2286.6869999999999
 20
2662.6574000000001
 11
2286.6869999999999
 21
2492.6574999999998
  0
LINE
  8
_0-0_通り芯
  6
CONTINUOUS
 62
    7
 10
2286.6869999999999
 20
2662.6574000000001
 11
2350.5155999999997
 21
2662.6574000000001
  0
LINE
  8
_0-0_通り芯
  6
CONTINUOUS
 62
    7
 10
2286.6869999999999
 20
2492.6574999999998
 11
2350.5155999999997
 21
2492.6574999999998
  0
LINE
  8
_0-0_通り芯
  6
CONTINUOUS
 62
    7
 10
1800.1853099999998
 20
2555.5974999999999
 11
1800.1853099999998
 21
2492.6574999999998
  0
LINE
  8
_0-0_通り芯
  6
CONTINUOUS
 62
    7
 10
1980.1853000000001
 20
2555.5974999999999
 11
1980.1853000000001
 21
2492.6574999999998
  0
LINE
  8
_0-0_通り芯
  6
CONTINUOUS
 62
    7
 10
1787.6852800000001
 20
2816.3213000000001
 11
1787.6852800000001
 21
2687.9007999999999
  0
LINE
  8
_0-0_通り芯
  6
CONTINUOUS
 62
    7
 10
1800.1853099999998
 20
2767.9009000000001
 11
1800.1853099999998
 21
2687.9007999999999
  0
LINE
  8
_0-0_通り芯
  6
CONTINUOUS
 62
    7
 10
1980.1853000000001
 20
2767.9009000000001
 11
1980.1853000000001
 21
2687.9007999999999
  0
LINE
  8
_0-0_通り芯
  6
CONTINUOUS
 62
    7
 10
1992.6853000000001
 20
2752.7656999999999
 11
1992.6853000000001
 21
2687.9007999999999
  0
LINE
  8
_0-0_通り芯
  6
CONTINUOUS
 62
    7
 10
2370.4237000000003
 20
2803.5221000000001
 11
2370.4237000000003
 21
2687.9007999999999
  0
LINE
  8
_0-0_通り芯
  6
CONTINUOUS
 62
    7
 10
2970.4237000000003
 20
2803.5221000000001
 11
2970.4237000000003
 21
2687.9007999999999
  0
LINE
  8
_0-0_通り芯
  6
CONTINUOUS
 62
    7
 10
3770.4237000000003
 20
2803.5221000000001
 11
3770.4237000000003
 21
2687.9007999999999
  0
LINE
  8
_0-0_通り芯
  6
CONTINUOUS
 62
    7
 10
4370.4237000000003
 20
2803.5221000000001
 11
4370.4237000000003
 21
2687.9007999999999
  0
CIRCLE
  8
_0-0_通り芯
  6
CONTINUOUS
 62
    7
 10
1557.4643799999999
 20
2345.8016000000002
 40
19.999998999999999
  0
ARC
  8
_0-0_通り芯
  6
CONTINUOUS
 62
    7
 10
1682.68532
 20
2346.6575000000003
 40
79.999995999999996
 50
90
 51
180
  0
ARC
  8
_0-0_通り芯
  6
CONTINUOUS
 62
    7
 10
1822.68532
 20
2346.6575000000003
 40
79.999995999999996
 50
0
 51
90
  0
ARC
  8
_0-0_通り芯
  6
CONTINUOUS
 62
    7
 10
1788.96883
 20
2309.4326000000001
 40
186.06079999999997
 50
177.15304
 51
258.77697000000001
  0
ARC
  8
_0-0_通り芯
  6
CONTINUOUS
 62
    7
 10
1716.40175
 20
2309.4326000000001
 40
186.06079999999997
 50
281.22300000000001
 51
2.8469238000000177
  0
CIRCLE
  8
_0-0_通り芯
  6
CONTINUOUS
 62
    7
 10
1949.3354999999999
 20
2345.8016000000002
 40
19.999998999999999
  0
ARC
  8
_0-0_通り芯
  6
CONTINUOUS
 62
    7
 10
1828.8914
 20
2632.6573000000003
 40
30
 50
90
 51
177.47479000000001
  0
ARC
  8
_0-0_通り芯
  6
CONTINUOUS
 62
    7
 10
1952.3166000000001
 20
2632.6573000000003
 40
30
 50
4.2183989999999998
 51
89.999983999999955
  0
POINT
  8
_0-0_通り芯
 62
    7
 10
1512.6853099999998
 20
1931.9187999999999
  0
POINT
  8
_0-0_通り芯
 62
    7
 10
1602.6853000000001
 20
1931.9187999999999
  0
POINT
  8
_0-0_通り芯
 62
    7
 10
1902.6851999999999
 20
1931.9187999999999
  0
POINT
  8
_0-0_通り芯
 62
    7
 10
1992.6853000000001
 20
1931.9187999999999
  0
POINT
  8
_0-0_通り芯
 62
    7
 10
2074.7982999999999
 20
2036.6574000000001
  0
POINT
  8
_0-0_通り芯
 62
    7
 10
2074.7982999999999
 20
2487.6574000000001
  0
POINT
  8
_0-0_通り芯
 62
    7
 10
2074.7982999999999
 20
2492.6574999999998
  0
POINT
  8
_0-0_通り芯
 62
    7
 10
2074.7982999999999
 20
2512.6574999999998
  0
POINT
  8
_0-0_通り芯
 62
    7
 10
1404.3045000000002
 20
2036.6574000000001
  0
POINT
  8
_0-0_通り芯
 62
    7
 10
1404.3045000000002
 20
2126.6575000000003
  0
POINT
  8
_0-0_通り芯
 62
    7
 10
1404.3045000000002
 20
2426.6575000000003
  0
POINT
  8
_0-0_通り芯
 62
    7
 10
1404.3045000000002
 20
2516.6575000000003
  0
POINT
  8
_0-0_通り芯
 62
    7
 10
1338.94695
 20
2036.6574000000001
  0
POINT
  8
_0-0_通り芯
 62
    7
 10
1338.94695
 20
2516.6575000000003
  0
POINT
  8
_0-0_通り芯
 62
    7
 10
1815.1852800000001
 20
2384.7226000000001
  0
POINT
  8
_0-0_通り芯
 62
    7
 10
1965.1851999999999
 20
2384.7226000000001
  0
POINT
  8
_0-0_通り芯
 62
    7
 10
1512.6853099999998
 20
2861.2781
  0
POINT
  8
_0-0_通り芯
 62
    7
 10
1992.6853000000001
 20
2861.2781
  0
POINT
  8
_0-0_通り芯
 62
    7
 10
2286.6869999999999
 20
2036.6574000000001
  0
POINT
  8
_0-0_通り芯
 62
    7
 10
2286.6869999999999
 20
2487.6574000000001
  0
POINT
  8
_0-0_通り芯
 62
    7
 10
2286.6869999999999
 20
2492.6574999999998
  0
POINT
  8
_0-0_通り芯
 62
    7
 10
2780.4237000000003
 20
2539.0149999999999
  0
POINT
  8
_0-0_通り芯
 62
    7
 10
2960.4237999999996
 20
2539.0149999999999
  0
POINT
  8
_0-0_通り芯
 62
    7
 10
2795.4236000000001
 20
2392.4821999999999
  0
POINT
  8
_0-0_通り芯
 62
    7
 10
2945.4237000000003
 20
2392.4821999999999
  0
POINT
  8
_0-0_通り芯
 62
    7
 10
3011.2631999999994
 20
2492.6574999999998
  0
POINT
  8
_0-0_通り芯
 62
    7
 10
3011.2631999999994
 20
2432.6574000000001
  0
POINT
  8
_0-0_通り芯
 62
    7
 10
3960.4236000000001
 20
2539.0149999999999
  0
POINT
  8
_0-0_通り芯
 62
    7
 10
3780.4237000000003
 20
2539.0149999999999
  0
POINT
  8
_0-0_通り芯
 62
    7
 10
3945.4236000000001
 20
2392.4821999999999
  0
POINT
  8
_0-0_通り芯
 62
    7
 10
3795.4237000000003
 20
2392.4821999999999
  0
POINT
  8
_0-0_通り芯
 62
    7
 10
4029.0295999999998
 20
2492.6574999999998
  0
POINT
  8
_0-0_通り芯
 62
    7
 10
4029.0295999999998
 20
2432.6574000000001
  0
POINT
  8
_0-0_通り芯
 62
    7
 10
1800.1853099999998
 20
2767.9009000000001
  0
POINT
  8
_0-0_通り芯
 62
    7
 10
1980.1853000000001
 20
2767.9009000000001
  0
POINT
  8
_0-0_通り芯
 62
    7
 10
1992.6853000000001
 20
2816.3213000000001
  0
POINT
  8
_0-0_通り芯
 62
    7
 10
1787.6852800000001
 20
2816.3213000000001
  0
POINT
  8
_0-0_通り芯
 62
    7
 10
3370.4236000000001
 20
2803.5221000000001
  0
POINT
  8
_0-0_通り芯
 62
    7
 10
2970.4237000000003
 20
2803.5221000000001
  0
POINT
  8
_0-0_通り芯
 62
    7
 10
2370.4237000000003
 20
2803.5221000000001
  0
POINT
  8
_0-0_通り芯
 62
    7
 10
3770.4237000000003
 20
2803.5221000000001
  0
POINT
  8
_0-0_通り芯
 62
    7
 10
4370.4237000000003
 20
2803.5221000000001
  0
POINT
  8
_0-0_通り芯
 62
    7
 10
2370.4237000000003
 20
2892.5052999999998
  0
POINT
  8
_0-0_通り芯
 62
    7
 10
3370.4236000000001
 20
2892.5052999999998
  0
POINT
  8
_0-0_通り芯
 62
    7
 10
4370.4237000000003
 20
2892.5052999999998
  0
POINT
  8
_0-0_通り芯
 62
    7
 10
1800.1853099999998
 20
2555.5974999999999
  0
POINT
  8
_0-0_通り芯
 62
    7
 10
1980.1853000000001
 20
2555.5974999999999
  0
POINT
  8
_0-0_通り芯
 62
    7
 10
1512.6853099999998
 20
2637.4535000000005
  0
POINT
  8
_0-0_通り芯
 62
    7
 10
1707.68532
 20
2637.4535000000005
  0
POINT
  8
_0-0_通り芯
 62
    7
 10
1787.6852800000001
 20
2637.4535000000005
  0
POINT
  8
_0-0_通り芯
 62
    7
 10
2074.7982999999999
 20
2662.6574000000001
  0
POINT
  8
_0-0_通り芯
 62
    7
 10
2074.7982999999999
 20
2512.6574999999998
  0
POINT
  8
_0-0_通り芯
 62
    7
 10
2115.4274
 20
2662.6574000000001
  0
POINT
  8
_0-0_通り芯
 62
    7
 10
2115.4274
 20
2492.6574999999998
  0
POINT
  8
_0-0_通り芯
 62
    7
 10
2156.7084
 20
2662.6574000000001
  0
POINT
  8
_0-0_通り芯
 62
    7
 10
2156.7084
 20
2036.6574000000001
  0
POINT
  8
_0-0_通り芯
 62
    7
 10
2286.6869999999999
 20
2662.6574000000001
  0
POINT
  8
_0-0_通り芯
 62
    7
 10
2286.6869999999999
 20
2492.6574999999998
  0
LINE
  8
_0-0_通り芯
  6
CONTINUOUS
 62
    7
 10
2370.4237000000003
 20
2544.6575000000003
 11
2970.4237000000003
 21
2662.6574000000001
  0
LINE
  8
_0-0_通り芯
  6
CONTINUOUS
 62
    7
 10
2370.4237000000003
 20
2544.6575000000003
 11
2370.4237000000003
 21
2076.6575000000003
  0
LINE
  8
_0-0_通り芯
  6
CONTINUOUS
 62
    7
 10
2370.4237000000003
 20
2522.6574000000001
 11
2970.4237000000003
 21
2662.6574000000001
  0
LINE
  8
_0-0_通り芯
  6
CONTINUOUS
 62
    7
 10
4370.4237000000003
 20
2544.6575000000003
 11
3770.4237000000003
 21
2662.6574000000001
  0
LINE
  8
_0-0_通り芯
  6
CONTINUOUS
 62
    7
 10
4370.4237000000003
 20
2544.6575000000003
 11
4370.4237000000003
 21
2076.6575000000003
  0
LINE
  8
_0-0_通り芯
  6
CONTINUOUS
 62
    7
 10
4370.4237000000003
 20
2522.6574000000001
 11
3770.4237000000003
 21
2662.6574000000001
  0
LINE
  8
_0-0_通り芯
  6
CONTINUOUS
 62
    7
 10
1512.6853099999998
 20
2516.6575000000003
 11
1756.15914
 21
2516.6575000000003
  0
LINE
  8
_0-0_通り芯
  6
CONTINUOUS
 62
    7
 10
1447.5920999999998
 20
2516.6575000000003
 11
1495.28144
 21
2516.6575000000003
  0
LINE
  8
_0-0_通り芯
  6
CONTINUOUS
 62
    7
 10
2370.4237000000003
 20
2736.3461000000002
 11
2370.4237000000003
 21
2687.9007999999999
  0
LINE
  8
_0-0_通り芯
  6
CONTINUOUS
 62
    7
 10
4370.4237000000003
 20
2736.3461000000002
 11
4370.4237000000003
 21
2687.9007999999999
  0
LINE
  8
_0-0_通り芯
  6
CONTINUOUS
 62
    7
 10
1512.6853099999998
 20
1976.1463000000001
 11
1512.6853099999998
 21
2009.3171000000002
  0
LINE
  8
_0-0_通り芯
  6
CONTINUOUS
 62
    7
 10
1992.6853000000001
 20
1976.1463000000001
 11
1992.6853000000001
 21
2009.3171000000002
  0
LINE
  8
_0-0_通り芯
  6
CONTINUOUS
 62
    7
 10
2370.4237000000003
 20
1931.9187999999999
 11
2470.2412999999997
 21
1931.9187999999999
  0
POINT
  8
_0-0_通り芯
 62
    7
 10
2370.4237000000003
 20
1931.9187999999999
  0
POINT
  8
_0-0_通り芯
 62
    7
 10
2470.2412999999997
 20
1931.9187999999999
  0
LINE
  8
_0-0_通り芯
  6
CONTINUOUS
 62
    7
 10
2370.4237000000003
 20
1931.9187999999999
 11
2370.4237000000003
 21
2009.3171000000002
  0
LINE
  8
_0-0_通り芯
  6
CONTINUOUS
 62
    7
 10
2470.2412999999997
 20
1931.9187999999999
 11
2470.2412999999997
 21
2009.3171000000002
  0
LINE
  8
_0-0_通り芯
  6
CONTINUOUS
 62
    7
 10
2470.2412999999997
 20
1931.9187999999999
 11
2520.3424999999997
 21
1931.9187999999999
  0
POINT
  8
_0-0_通り芯
 62
    7
 10
2520.3424999999997
 20
1931.9187999999999
  0
LINE
  8
_0-0_通り芯
  6
CONTINUOUS
 62
    7
 10
2520.3424999999997
 20
1931.9187999999999
 11
2520.3424999999997
 21
2009.3171000000002
  0
POINT
  8
_0-0_通り芯
 62
    7
 10
3221.3773000000001
 20
1931.9187999999999
  0
LINE
  8
_0-0_通り芯
  6
CONTINUOUS
 62
    7
 10
3221.3773000000001
 20
1931.9187999999999
 11
3221.3773000000001
 21
2009.3171000000002
  0
LINE
  8
_0-0_通り芯
  6
CONTINUOUS
 62
    7
 10
3221.3773000000001
 20
1931.9187999999999
 11
3270.4236000000001
 21
1931.9187999999999
  0
POINT
  8
_0-0_通り芯
 62
    7
 10
3270.4236000000001
 20
1931.9187999999999
  0
LINE
  8
_0-0_通り芯
  6
CONTINUOUS
 62
    7
 10
3270.4236000000001
 20
1931.9187999999999
 11
3270.4236000000001
 21
2009.3171000000002
  0
LINE
  8
_0-0_通り芯
  6
CONTINUOUS
 62
    7
 10
3270.4236000000001
 20
1931.9187999999999
 11
3370.4236000000001
 21
1931.9187999999999
  0
POINT
  8
_0-0_通り芯
 62
    7
 10
3370.4236000000001
 20
1931.9187999999999
  0
LINE
  8
_0-0_通り芯
  6
CONTINUOUS
 62
    7
 10
3370.4236000000001
 20
1931.9187999999999
 11
3370.4236000000001
 21
2009.3171000000002
  0
LINE
  8
_0-0_通り芯
  6
CONTINUOUS
 62
    7
 10
3370.4236000000001
 20
1931.9187999999999
 11
3470.4236000000001
 21
1931.9187999999999
  0
POINT
  8
_0-0_通り芯
 62
    7
 10
3470.4236000000001
 20
1931.9187999999999
  0
LINE
  8
_0-0_通り芯
  6
CONTINUOUS
 62
    7
 10
3470.4236000000001
 20
1931.9187999999999
 11
3470.4236000000001
 21
2009.3171000000002
  0
LINE
  8
_0-0_通り芯
  6
CONTINUOUS
 62
    7
 10
3470.4236000000001
 20
1931.9187999999999
 11
3519.4699000000001
 21
1931.9187999999999
  0
POINT
  8
_0-0_通り芯
 62
    7
 10
3519.4699000000001
 20
1931.9187999999999
  0
LINE
  8
_0-0_通り芯
  6
CONTINUOUS
 62
    7
 10
3519.4699000000001
 20
1931.9187999999999
 11
3519.4699000000001
 21
2009.3171000000002
  0
POINT
  8
_0-0_通り芯
 62
    7
 10
4220.5046000000002
 20
1931.9187999999999
  0
LINE
  8
_0-0_通り芯
  6
CONTINUOUS
 62
    7
 10
4220.5046000000002
 20
1931.9187999999999
 11
4220.5046000000002
 21
2009.3171000000002
  0
LINE
  8
_0-0_通り芯
  6
CONTINUOUS
 62
    7
 10
4220.5046000000002
 20
1931.9187999999999
 11
4270.6058999999996
 21
1931.9187999999999
  0
POINT
  8
_0-0_通り芯
 62
    7
 10
4270.6058999999996
 20
1931.9187999999999
  0
LINE
  8
_0-0_通り芯
  6
CONTINUOUS
 62
    7
 10
4270.6058999999996
 20
1931.9187999999999
 11
4270.6058999999996
 21
2009.3171000000002
  0
LINE
  8
_0-0_通り芯
  6
CONTINUOUS
 62
    7
 10
4270.6058999999996
 20
1931.9187999999999
 11
4370.4237000000003
 21
1931.9187999999999
  0
POINT
  8
_0-0_通り芯
 62
    7
 10
4370.4237000000003
 20
1931.9187999999999
  0
LINE
  8
_0-0_通り芯
  6
CONTINUOUS
 62
    7
 10
4370.4237000000003
 20
1931.9187999999999
 11
4370.4237000000003
 21
2009.3171000000002
  0
LINE
  8
_0-0_通り芯
  6
CONTINUOUS
 62
    7
 10
2094.5041000000001
 20
1223.78387
 11
2094.5041000000001
 21
1323.7837200000001
  0
LINE
  8
_0-0_通り芯
  6
CONTINUOUS
 62
    7
 10
3092.5381199197209
 20
1323.7837200000001
 11
3092.5381199197209
 21
1223.78387
  0
LINE
  8
_0-0_通り芯
  6
CONTINUOUS
 62
    7
 10
3284.2369663662621
 20
1323.7837200000001
 11
3284.2369663662621
 21
1223.78387
  0
LINE
  8
_0-0_通り芯
  6
CONTINUOUS
 62
    7
 10
3831.6757214998329
 20
1323.7837200000001
 11
3831.6757214998329
 21
1223.78387
  0
TEXT
  8
_0-0_通り芯
 62
    7
 10
1471.5630900000001
 20
3069.9151000000002
 40
50
 41
1
 50
0
  1
断  面  図
  0
TEXT
  8
_0-0_通り芯
 62
    7
 10
2378.2627000000002
 20
3069.9151000000002
 40
50
 41
1
 50
0
  1
側  面  図
  0
ENDSEC
  0
EOF
