  0
SECTION
  2
HEADER
  9
$ACADVER
  1
AC1009
  9
$INSBASE
 10
0
 20
0
 30
0
  9
$EXTMIN
 10
0
 20
0
  9
$EXTMAX
 10
5887
 20
4158
  9
$LIMMIN
 10
0
 20
0
  9
$LIMMAX
 10
5887
 20
4158
  9
$LTSCALE
 40
7
  0
ENDSEC
  0
SECTION
  2
TABLES
  0
TABLE
  2
LTYPE
 70
     9
  0
LTYPE
  2
CONTINUOUS
 70
    64
  3
実線
 72
    65
 73
     0
 40
0.0
  0
LTYPE
  2
DASHED1
 70
    64
  3
--  --  --  --  --  --  --  --  
 72
    65
 73
     2
 40
2.5
 49
1.25
 49
-1.25
  0
LTYPE
  2
DASHED2
 70
    64
  3
----    ----    ----    ----    
 72
    65
 73
     2
 40
5.0
 49
2.5
 49
-2.5
  0
LTYPE
  2
DASHED3
 70
    64
  3
------  ------  ------  ------  
 72
    65
 73
     2
 40
5.0
 49
3.75
 49
-1.25
  0
LTYPE
  2
CENTER1
 70
    64
  3
----- - ----- - ----- - ----- - 
 72
    65
 73
     4
 40
10.0
 49
6.25
 49
-1.25
 49
1.25
 49
-1.25
  0
LTYPE
  2
CENTER2
 70
    64
  3
----------  --  ----------  --  
 72
    65
 73
     4
 40
20.0
 49
12.5
 49
-2.5
 49
2.5
 49
-2.5
  0
LTYPE
  2
PHANTOM1
 70
    64
  3
--- - - --- - - --- - - --- - - 
 72
    65
 73
     6
 40
10.0
 49
3.25
 49
-1.25
 49
1.25
 49
-1.25
 49
1.25
 49
-1.25
  0
LTYPE
  2
PHANTOM2
 70
    64
  3
--------  -  -  --------  -  -  
 72
    65
 73
     6
 40
20.0
 49
10.0
 49
-2.5
 49
1.25
 49
-2.5
 49
1.25
 49
-2.5
  0
LTYPE
  2
DOT
 70
    64
  3
-   -   -   -   -   -   -   -   
 72
    65
 73
     2
 40
2.5
 49
0.625
 49
-1.875
  0
LTYPE
  2
DUMMY
 70
    64
  3
ダミー
 72
    65
 73
     0
 40
0.0
  0
LTYPE
  2
RAND1
 70
    64
  3
ランダム線1
 72
    65
 73
     4
 40
10.0
 49
1.0
 49
-2.0
 49
3.0
 49
-4.0
  0
LTYPE
  2
RAND2
 70
    64
  3
ランダム線2
 72
    65
 73
     4
 40
14.0
 49
2.0
 49
-3.0
 49
4.0
 49
-5.0
  0
LTYPE
  2
RAND3
 70
    64
  3
ランダム線3
 72
    65
 73
     4
 40
18.0
 49
3.0
 49
-4.0
 49
5.0
 49
-6.0
  0
LTYPE
  2
RAND4
 70
    64
  3
ランダム線4
 72
    65
 73
     4
 40
22.0
 49
4.0
 49
-5.0
 49
6.0
 49
-7.0
  0
LTYPE
  2
RAND5
 70
    64
  3
ランダム線5
 72
    65
 73
     4
 40
26.0
 49
5.0
 49
-6.0
 49
7.0
 49
-8.0
  0
LTYPE
  2
LONG1
 70
    64
  3
----------  --  ----------  --  
 72
    65
 73
     4
 40
40.0
 49
32.5
 49
-2.5
 49
2.5
 49
-2.5
  0
LTYPE
  2
LONG2
 70
    64
  3
--------  -  -  --------  -  -  
 72
    65
 73
     6
 40
40.0
 49
30.0
 49
-2.5
 49
1.25
 49
-2.5
 49
1.25
 49
-2.5
  0
LTYPE
  2
LONG3
 70
    64
  3
+++++++++++++++..+++++++++++++++
 72
    65
 73
     2
 40
40.0
 49
37.5
 49
-2.5
  0
LTYPE
  2
LONG4
 70
    64
  3
+++++++++++++++..+++++++++++++++
 72
    65
 73
     2
 40
80.0
 49
75.0
 49
-5.0
  0
LTYPE
  2
LONG5
 70
    64
  3
----------  --  ----------  --  
 72
    65
 73
     4
 40
60.0
 49
37.5
 49
-7.5
 49
7.5
 49
-7.5
  0
LTYPE
  2
dashed
 70
   64
  3
-------   -------------   ------
 72
   65
 73
    2
 40
7.5
 49
6
 49
-1.5
  0
LTYPE
  2
dashed_spaced
 70
   64
  3
----        --------        ----
 72
   65
 73
    2
 40
12
 49
6
 49
-6
  0
LTYPE
  2
long_dashed_dotted
 70
   64
  3
------------- --- --------------
 72
   65
 73
    4
 40
15.25
 49
12
 49
-1.5
 49
0.25
 49
-1.5
  0
LTYPE
  2
long_dashed_double-dotted
 70
   64
  3
----------- --- --- ------------
 72
   65
 73
    6
 40
17
 49
12
 49
-1.5
 49
0.25
 49
-1.5
 49
0.25
 49
-1.5
  0
LTYPE
  2
long_dashed_triplicate-dotted
 70
   64
  3
--------- --- --- --- ----------
 72
   65
 73
    8
 40
18.75
 49
12
 49
-1.5
 49
0.25
 49
-1.5
 49
0.25
 49
-1.5
 49
0.25
 49
-1.5
  0
LTYPE
  2
dotted
 70
   64
  3
   -       -       -       -    
 72
   65
 73
    2
 40
1.75
 49
0.25
 49
-1.5
  0
LTYPE
  2
chain
 70
   64
  3
-------------- -- --------------
 72
   65
 73
    4
 40
18.5
 49
12
 49
-1.5
 49
3.5
 49
-1.5
  0
LTYPE
  2
chain_double_dash
 70
   64
  3
------------ -- -- -------------
 72
   65
 73
    6
 40
23.5
 49
12
 49
-1.5
 49
3.5
 49
-1.5
 49
3.5
 49
-1.5
  0
LTYPE
  2
dashed_dotted
 70
   64
  3
-----------     -     ----------
 72
   65
 73
    4
 40
9.25
 49
6
 49
-1.5
 49
0.25
 49
-1.5
  0
LTYPE
  2
double-dashed_dotted
 70
   64
  3
------   -----------   -   -----
 72
   65
 73
    6
 40
16.75
 49
6
 49
-1.5
 49
6
 49
-1.5
 49
0.25
 49
-1.5
  0
LTYPE
  2
dashed_double-dotted
 70
   64
  3
---------    -    -    ---------
 72
   65
 73
    6
 40
11
 49
6
 49
-1.5
 49
0.25
 49
-1.5
 49
0.25
 49
-1.5
  0
LTYPE
  2
double-dashed_double-dotted
 70
   64
  3
-----   ---------   -   -   ----
 72
   65
 73
    8
 40
18.5
 49
6
 49
-1.5
 49
6
 49
-1.5
 49
0.25
 49
-1.5
 49
0.25
 49
-1.5
  0
LTYPE
  2
dashed_triplicate-dotted
 70
   64
  3
-------    -    -    -    ------
 72
   65
 73
    8
 40
12.75
 49
6
 49
-1.5
 49
0.25
 49
-1.5
 49
0.25
 49
-1.5
 49
0.25
 49
-1.5
  0
LTYPE
  2
double-dashed_triplicate-dotted
 70
   64
  3
-----  ---------  -  -  -  -----
 72
   65
 73
   10
 40
20.25
 49
6
 49
-1.5
 49
6
 49
-1.5
 49
0.25
 49
-1.5
 49
0.25
 49
-1.5
 49
0.25
 49
-1.5
  0
LTYPE
  2
undefined
 70
   64
  3
--------------------------------
 72
   65
 73
    0
 40
0
  0
ENDTAB
  0
TABLE
  2
STYLE
  5
3
100
AcDbSymbolTable
 70
     1
  0
STYLE
  5
10
100
AcDbSymbolTableRecord
100
AcDbTextStyleTableRecord
  2
STANDARD
 70
     0
 40
0.0
 41
1.0
 50
0.0
 71
     0
 42
0.2
  3
txt
  4
bigfont.shx
  0
STYLE
  5
26
100
AcDbSymbolTableRecord
100
AcDbTextStyleTableRecord
  2
TATEGAKI
 70
    68
 40
0.0
 41
1.0
 50
0.0
 71
     0
 42
1.0
  3
txt
  4
bigfont.shx
  0
ENDTAB
  0
TABLE
  2
LAYER
 70
    2
  0
LAYER
  2
_0-0_通り芯
 70
   64
 62
    7
  6
CONTINUOUS
  0
LAYER
  2
ADD_LINE
 70
   64
 62
    7
  6
CONTINUOUS
  0
ENDTAB
  0
ENDSEC
  0
SECTION
  2
BLOCKS
  0
ENDSEC
  0
SECTION
  2
ENTITIES
  0
LINE
  8
_0-0_通り芯
  6
CONTINUOUS
 62
    7
 10
1377.8045000000002
 20
2405.6575000000003
 11
1468.78144
 21
2405.6575000000003
  0
TEXT
  8
_0-0_通り芯
 62
    7
 10
1514.9353000000001
 20
1915.9187999999997
 40
28
 41
1
 50
0
  1
90
  0
TEXT
  8
_0-0_通り芯
 62
    7
 10
1701.1852800000001
 20
1915.9187999999997
 40
28
 41
1
 50
0
  1
300
  0
TEXT
  8
_0-0_通り芯
 62
    7
 10
1904.9351999999999
 20
1915.9187999999997
 40
28
 41
1
 50
0
  1
90
  0
TEXT
  8
_0-0_通り芯
 62
    7
 10
2043.2982999999999
 20
2216.1574000000001
 40
28
 41
1
 50
90
  1
451
  0
TEXT
  8
_0-0_通り芯
 62
    7
 10
1372.8045099999999
 20
2044.4075000000003
 40
28
 41
1
 50
90
  1
90
  0
TEXT
  8
_0-0_通り芯
 62
    7
 10
1372.8045099999999
 20
2230.6574000000001
 40
28
 41
1
 50
90
  1
300
  0
TEXT
  8
_0-0_通り芯
 62
    7
 10
1372.8045099999999
 20
2434.4075000000003
 40
28
 41
1
 50
90
  1
90
  0
TEXT
  8
_0-0_通り芯
 62
    7
 10
1307.44697
 20
2230.6574000000001
 40
28
 41
1
 50
90
  1
480
  0
TEXT
  8
_0-0_通り芯
 62
    7
 10
1561.1852699999999
 20
2583.7379999999998
 40
28
 41
1
 50
0
  1
200
  0
TEXT
  8
_0-0_通り芯
 62
    7
 10
1709.9353099999998
 20
2583.7379999999998
 40
28
 41
1
 50
0
  1
80
  0
TEXT
  8
_0-0_通り芯
 62
    7
 10
1838.6852899999999
 20
2522.1237000000001
 40
28
 41
1
 50
0
  1
180
  0
TEXT
  8
_0-0_通り芯
 62
    7
 10
1838.6852899999999
 20
2368.7224999999999
 40
28
 41
1
 50
0
  1
150
  0
TEXT
  8
_0-0_通り芯
 62
    7
 10
2081.3127999999997
 20
2456.2426999999998
 40
28
 41
1
 50
90
  1
5
  0
TEXT
  8
_0-0_通り芯
 62
    7
 10
1565.8349800000001
 20
2507.7543999999998
 40
28
 41
1
 50
0
  1
2%
  0
TEXT
  8
_0-0_通り芯
 62
    7
 10
1701.1852800000001
 20
2845.2779999999998
 40
28
 41
1
 50
0
  1
480
  0
TEXT
  8
_0-0_通り芯
 62
    7
 10
2418.9236000000001
 20
1912.4247
 40
28
 41
1
 50
0
  1
200
  0
TEXT
  8
_0-0_通り芯
 62
    7
 10
2552.6737000000003
 20
1912.4247
 40
28
 41
1
 50
0
  1
50
  0
TEXT
  8
_0-0_通り芯
 62
    7
 10
4102.6737000000003
 20
1912.4247
 40
28
 41
1
 50
0
  1
50
  0
TEXT
  8
_0-0_通り芯
 62
    7
 10
4218.9236000000001
 20
1912.4247
 40
28
 41
1
 50
0
  1
200
  0
TEXT
  8
_0-0_通り芯
 62
    7
 10
2255.1869999999999
 20
2216.1574000000001
 40
28
 41
1
 50
90
  1
451
  0
TEXT
  8
_0-0_通り芯
 62
    7
 10
2255.1869999999999
 20
2461.6574999999998
 40
28
 41
1
 50
90
  1
5
  0
TEXT
  8
_0-0_通り芯
 62
    7
 10
2818.9236000000001
 20
2523.0149999999999
 40
28
 41
1
 50
0
  1
180
  0
TEXT
  8
_0-0_通り芯
 62
    7
 10
2818.9236000000001
 20
2376.4821999999999
 40
28
 41
1
 50
0
  1
150
  0
TEXT
  8
_0-0_通り芯
 62
    7
 10
2979.7631999999994
 20
2425.4074000000001
 40
28
 41
1
 50
90
  1
60
  0
TEXT
  8
_0-0_通り芯
 62
    7
 10
3818.9235999999996
 20
2523.0149999999999
 40
28
 41
1
 50
0
  1
180
  0
TEXT
  8
_0-0_通り芯
 62
    7
 10
3818.9235999999996
 20
2376.4821999999999
 40
28
 41
1
 50
0
  1
150
  0
TEXT
  8
_0-0_通り芯
 62
    7
 10
3997.5295999999998
 20
2425.4074000000001
 40
28
 41
1
 50
90
  1
60
  0
TEXT
  8
_0-0_通り芯
 62
    7
 10
3301.4234999999999
 20
2844.4279999999999
 40
28
 41
1
 50
0
  1
2,000
  0
TEXT
  8
_0-0_通り芯
 62
    7
 10
1838.6852899999999
 20
2751.9008999999996
 40
28
 41
1
 50
0
  1
180
  0
TEXT
  8
_0-0_通り芯
 62
    7
 10
1838.6852899999999
 20
2800.3213000000001
 40
28
 41
1
 50
0
  1
205
  0
TEXT
  8
_0-0_通り芯
 62
    7
 10
2044.7984000000001
 20
2545.6574000000001
 40
28
 41
1
 50
90
  1
150
  0
TEXT
  8
_0-0_通り芯
 62
    7
 10
2104.4301999999998
 20
2535.6575000000003
 40
28
 41
1
 50
90
  1
170
  0
TEXT
  8
_0-0_通り芯
 62
    7
 10
2141.4872
 20
2307.6574000000001
 40
28
 41
1
 50
90
  1
626
  0
TEXT
  8
_0-0_通り芯
 62
    7
 10
2256.6871000000001
 20
2535.6575000000003
 40
28
 41
1
 50
90
  1
170
  0
TEXT
  8
_0-0_通り芯
 62
    7
 10
2451.4237000000003
 20
2742.2089000000001
 40
28
 41
1
 50
0
  1
250
  0
TEXT
  8
_0-0_通り芯
 62
    7
 10
2826.4237000000003
 20
2742.2089000000001
 40
28
 41
1
 50
0
  1
500
  0
TEXT
  8
_0-0_通り芯
 62
    7
 10
3326.4237000000003
 20
2742.2089000000001
 40
28
 41
1
 50
0
  1
500
  0
TEXT
  8
_0-0_通り芯
 62
    7
 10
3826.4237000000007
 20
2742.2089000000001
 40
28
 41
1
 50
0
  1
500
  0
TEXT
  8
_0-0_通り芯
 62
    7
 10
4201.4237000000003
 20
2742.2089000000001
 40
28
 41
1
 50
0
  1
250
  0
LINE
  8
_0-0_通り芯
  6
CONTINUOUS
 62
    7
 10
1925.8166000000001
 20
2641.6574000000001
 11
1802.3914
 21
2641.6574000000001
  0
LINE
  8
_0-0_通り芯
  6
CONTINUOUS
 62
    7
 10
1926.1851999999999
 20
2015.6574000000001
 11
1966.1853000000001
 21
2055.6575000000003
  0
LINE
  8
_0-0_通り芯
  6
CONTINUOUS
 62
    7
 10
1248.0044499999999
 20
1202.78387
 11
1248.0044499999999
 21
3352.7833999999993
  0
LINE
  8
_0-0_通り芯
  6
CONTINUOUS
 62
    7
 10
1248.0044499999999
 20
3352.7833999999993
 11
4448.0041000000001
 21
3352.7833999999993
  0
LINE
  8
_0-0_通り芯
  6
CONTINUOUS
 62
    7
 10
4448.0041000000001
 20
3352.7833999999993
 11
4448.0041000000001
 21
1202.78387
  0
LINE
  8
_0-0_通り芯
  6
CONTINUOUS
 62
    7
 10
4448.0041000000001
 20
1202.78387
 11
1248.0044499999999
 21
1202.78387
  0
LINE
  8
_0-0_通り芯
  6
CONTINUOUS
 62
    7
 10
4448.0041000000001
 20
1302.7837200000001
 11
1248.0044499999999
 21
1302.7837200000001
  0
LINE
  8
_0-0_通り芯
  6
CONTINUOUS
 62
    7
 10
3548.0036
 20
1202.78387
 11
3548.0036
 21
1302.7837200000001
  0
LINE
  8
_0-0_通り芯
  6
CONTINUOUS
 62
    7
 10
2748.0038
 20
1202.78387
 11
2748.0038
 21
1302.7837200000001
  0
LINE
  8
_0-0_通り芯
  6
CONTINUOUS
 62
    7
 10
1418.0040300000001
 20
1202.78387
 11
1418.0040300000001
 21
1302.7837200000001
  0
LINE
  8
_0-0_通り芯
  6
CONTINUOUS
 62
    7
 10
1405.6486399999999
 20
2015.6574000000001
 11
1471.5873999999999
 21
2015.6574000000001
  0
LINE
  8
_0-0_通り芯
  6
CONTINUOUS
 62
    7
 10
1486.1853099999998
 20
1910.9188000000001
 11
1576.1853000000001
 21
1910.9188000000001
  0
LINE
  8
_0-0_通り芯
  6
CONTINUOUS
 62
    7
 10
1486.1853099999998
 20
1910.9188000000001
 11
1486.1853099999998
 21
1988.3171000000004
  0
LINE
  8
_0-0_通り芯
  6
CONTINUOUS
 62
    7
 10
1576.1853000000001
 20
1910.9188000000001
 11
1576.1853000000001
 21
1988.3171000000004
  0
LINE
  8
_0-0_通り芯
  6
CONTINUOUS
 62
    7
 10
1576.1853000000001
 20
1910.9188000000001
 11
1876.1851999999999
 21
1910.9188000000001
  0
LINE
  8
_0-0_通り芯
  6
CONTINUOUS
 62
    7
 10
1876.1851999999999
 20
1910.9188000000001
 11
1876.1851999999999
 21
1988.3171000000004
  0
LINE
  8
_0-0_通り芯
  6
CONTINUOUS
 62
    7
 10
1876.1851999999999
 20
1910.9188000000001
 11
1966.1853000000001
 21
1910.9188000000001
  0
LINE
  8
_0-0_通り芯
  6
CONTINUOUS
 62
    7
 10
1966.1853000000001
 20
1910.9188000000001
 11
1966.1853000000001
 21
1988.3171000000004
  0
LINE
  8
_0-0_通り芯
  6
CONTINUOUS
 62
    7
 10
1576.1853000000001
 20
2325.6575000000003
 11
1576.1853000000001
 21
2298.3064999999997
  0
LINE
  8
_0-0_通り芯
  6
CONTINUOUS
 62
    7
 10
1876.1851999999999
 20
2325.6575000000003
 11
1876.1851999999999
 21
2298.3064999999997
  0
LINE
  8
_0-0_通り芯
  6
CONTINUOUS
 62
    7
 10
1706.1853299999998
 20
2405.6575000000003
 11
1656.18532
 21
2405.6575000000003
  0
LINE
  8
_0-0_通り芯
  6
CONTINUOUS
 62
    7
 10
1746.1853099999998
 20
2450.6575000000003
 11
1746.1853099999998
 21
2435.6973000000003
  0
LINE
  8
_0-0_通り芯
  6
CONTINUOUS
 62
    7
 10
1796.18532
 20
2405.6575000000003
 11
1746.1853099999998
 21
2405.6575000000003
  0
LINE
  8
_0-0_通り芯
  6
CONTINUOUS
 62
    7
 10
1706.1853299999998
 20
2450.6575000000003
 11
1706.1853299999998
 21
2405.6575000000003
  0
LINE
  8
_0-0_通り芯
  6
CONTINUOUS
 62
    7
 10
1746.1853099999998
 20
2435.6973000000003
 11
1746.1853099999998
 21
2405.6575000000003
  0
LINE
  8
_0-0_通り芯
  6
CONTINUOUS
 62
    7
 10
1746.1853099999998
 20
2429.9497000000001
 11
1746.1853099999998
 21
2405.6575000000003
  0
LINE
  8
_0-0_通り芯
  6
CONTINUOUS
 62
    7
 10
1766.1853299999998
 20
2466.6574000000001
 11
1966.1853000000001
 21
2466.6574000000001
  0
LINE
  8
_0-0_通り芯
  6
CONTINUOUS
 62
    7
 10
1766.1853299999998
 20
2471.6574999999998
 11
1966.1853000000001
 21
2471.6574999999998
  0
LINE
  8
_0-0_通り芯
  6
CONTINUOUS
 62
    7
 10
2048.2982999999999
 20
2015.6574000000001
 11
2048.2982999999999
 21
2466.6574000000001
  0
LINE
  8
_0-0_通り芯
  6
CONTINUOUS
 62
    7
 10
2048.2982999999999
 20
2015.6574000000001
 11
1981.8431
 21
2015.6574000000001
  0
LINE
  8
_0-0_通り芯
  6
CONTINUOUS
 62
    7
 10
2048.2982999999999
 20
2466.6574000000001
 11
1981.8431
 21
2466.6574000000001
  0
LINE
  8
_0-0_通り芯
  6
CONTINUOUS
 62
    7
 10
2048.2982999999999
 20
2466.6574000000001
 11
2048.2982999999999
 21
2471.6574999999998
  0
LINE
  8
_0-0_通り芯
  6
CONTINUOUS
 62
    7
 10
2048.2982999999999
 20
2471.6574999999998
 11
1981.8431
 21
2471.6574999999998
  0
LINE
  8
_0-0_通り芯
  6
CONTINUOUS
 62
    7
 10
2048.2982999999999
 20
2471.6574999999998
 11
2048.2982999999999
 21
2491.6574999999998
  0
LINE
  8
_0-0_通り芯
  6
CONTINUOUS
 62
    7
 10
1377.8045000000002
 20
2015.6574000000001
 11
1377.8045000000002
 21
2105.6575000000003
  0
LINE
  8
_0-0_通り芯
  6
CONTINUOUS
 62
    7
 10
1377.8045000000002
 20
2105.6575000000003
 11
1377.8045000000002
 21
2405.6575000000003
  0
LINE
  8
_0-0_通り芯
  6
CONTINUOUS
 62
    7
 10
1377.8045000000002
 20
2405.6575000000003
 11
1377.8045000000002
 21
2495.6575000000003
  0
LINE
  8
_0-0_通り芯
  6
CONTINUOUS
 62
    7
 10
1312.44695
 20
2015.6574000000001
 11
1312.44695
 21
2495.6575000000003
  0
LINE
  8
_0-0_通り芯
  6
CONTINUOUS
 62
    7
 10
1377.8045000000002
 20
2105.6575000000003
 11
1468.78144
 21
2105.6575000000003
  0
LINE
  8
_0-0_通り芯
  6
CONTINUOUS
 62
    7
 10
1312.44695
 20
2495.6575000000003
 11
1468.78144
 21
2495.6575000000003
  0
LINE
  8
_0-0_通り芯
  6
CONTINUOUS
 62
    7
 10
1312.44695
 20
2495.6575000000003
 11
1364.9630400000001
 21
2495.6575000000003
  0
LINE
  8
_0-0_通り芯
  6
CONTINUOUS
 62
    7
 10
1312.44695
 20
2015.6574000000001
 11
1364.9630400000001
 21
2015.6574000000001
  0
LINE
  8
_0-0_通り芯
  6
CONTINUOUS
 62
    7
 10
1312.44695
 20
2015.6574000000001
 11
1468.78144
 21
2015.6574000000001
  0
LINE
  8
_0-0_通り芯
  6
CONTINUOUS
 62
    7
 10
1486.1853099999998
 20
2578.7379000000001
 11
1686.1853099999998
 21
2578.7379000000001
  0
LINE
  8
_0-0_通り芯
  6
CONTINUOUS
 62
    7
 10
1486.1853099999998
 20
2578.7379000000001
 11
1486.1853099999998
 21
2526.0828000000001
  0
LINE
  8
_0-0_通り芯
  6
CONTINUOUS
 62
    7
 10
1686.1853099999998
 20
2578.7379000000001
 11
1686.1853099999998
 21
2526.0828000000001
  0
LINE
  8
_0-0_通り芯
  6
CONTINUOUS
 62
    7
 10
1686.1853099999998
 20
2578.7379000000001
 11
1766.1853299999998
 21
2578.7379000000001
  0
LINE
  8
_0-0_通り芯
  6
CONTINUOUS
 62
    7
 10
1766.1853299999998
 20
2578.7379000000001
 11
1766.1853299999998
 21
2526.0828000000001
  0
LINE
  8
_0-0_通り芯
  6
CONTINUOUS
 62
    7
 10
1706.1853299999998
 20
2450.6575000000003
 11
1681.18532
 21
2450.6575000000003
  0
LINE
  8
_0-0_通り芯
  6
CONTINUOUS
 62
    7
 10
1706.1853299999998
 20
2445.6575000000003
 11
1676.1853299999998
 21
2445.6575000000003
  0
LINE
  8
_0-0_通り芯
  6
CONTINUOUS
 62
    7
 10
1681.18532
 20
2490.6574000000001
 11
1681.18532
 21
2450.6575000000003
  0
LINE
  8
_0-0_通り芯
  6
CONTINUOUS
 62
    7
 10
1676.1853299999998
 20
2490.6574000000001
 11
1676.1853299999998
 21
2445.6575000000003
  0
LINE
  8
_0-0_通り芯
  6
CONTINUOUS
 62
    7
 10
1761.1852800000001
 20
2450.6575000000003
 11
1746.1853099999998
 21
2450.6575000000003
  0
LINE
  8
_0-0_通り芯
  6
CONTINUOUS
 62
    7
 10
1761.1852800000001
 20
2490.6574000000001
 11
1761.1852800000001
 21
2450.6575000000003
  0
LINE
  8
_0-0_通り芯
  6
CONTINUOUS
 62
    7
 10
1766.1853299999998
 20
2445.6575000000003
 11
1746.1853099999998
 21
2445.6575000000003
  0
LINE
  8
_0-0_通り芯
  6
CONTINUOUS
 62
    7
 10
1766.1853299999998
 20
2490.6574000000001
 11
1766.1853299999998
 21
2445.6575000000003
  0
LINE
  8
_0-0_通り芯
  6
CONTINUOUS
 62
    7
 10
1966.1853000000001
 20
2782.1774
 11
1966.1853000000001
 21
2701.2972
  0
LINE
  8
_0-0_通り芯
  6
CONTINUOUS
 62
    7
 10
1773.6853099999998
 20
2517.1237000000001
 11
1953.6852999999999
 21
2517.1237000000001
  0
LINE
  8
_0-0_通り芯
  6
CONTINUOUS
 62
    7
 10
1773.6853099999998
 20
2517.1237000000001
 11
1773.6853099999998
 21
2479.5048999999999
  0
LINE
  8
_0-0_通り芯
  6
CONTINUOUS
 62
    7
 10
1953.6852999999999
 20
2517.1237000000001
 11
1953.6852999999999
 21
2479.5048999999999
  0
LINE
  8
_0-0_通り芯
  6
CONTINUOUS
 62
    7
 10
1788.6852800000001
 20
2363.7226000000001
 11
1938.6851999999999
 21
2363.7226000000001
  0
LINE
  8
_0-0_通り芯
  6
CONTINUOUS
 62
    7
 10
1788.6852800000001
 20
2363.7226000000001
 11
1788.6852800000001
 21
2407.6111999999998
  0
LINE
  8
_0-0_通り芯
  6
CONTINUOUS
 62
    7
 10
1938.6851999999999
 20
2363.7226000000001
 11
1938.6851999999999
 21
2407.6111999999998
  0
LINE
  8
_0-0_通り芯
  6
CONTINUOUS
 62
    7
 10
1598.7695899999999
 20
2381.3659000000002
 11
1644.3441199999997
 21
2344.5317
  0
LINE
  8
_0-0_通り芯
  6
CONTINUOUS
 62
    7
 10
1622.4845700000001
 20
2165.8640999999998
 11
1685.8511800000001
 21
2187.8312999999998
  0
LINE
  8
_0-0_通り芯
  6
CONTINUOUS
 62
    7
 10
1683.1852800000001
 20
2490.6574000000001
 11
1683.1852800000001
 21
2452.6574999999998
  0
LINE
  8
_0-0_通り芯
  6
CONTINUOUS
 62
    7
 10
1681.18532
 20
2490.7125000000001
 11
1486.1853099999998
 21
2495.4378999999999
  0
LINE
  8
_0-0_通り芯
  6
CONTINUOUS
 62
    7
 10
1766.1853299999998
 20
2490.6574000000001
 11
1761.1852800000001
 21
2490.6574000000001
  0
LINE
  8
_0-0_通り芯
  6
CONTINUOUS
 62
    7
 10
1759.18532
 20
2490.6574000000001
 11
1683.1852800000001
 21
2490.6574000000001
  0
LINE
  8
_0-0_通り芯
  6
CONTINUOUS
 62
    7
 10
1708.51863
 20
2452.6574999999998
 11
1708.51863
 21
2490.6574000000001
  0
LINE
  8
_0-0_通り芯
  6
CONTINUOUS
 62
    7
 10
1733.8519700000002
 20
2452.6574999999998
 11
1733.8519700000002
 21
2490.6574000000001
  0
LINE
  8
_0-0_通り芯
  6
CONTINUOUS
 62
    7
 10
1759.18532
 20
2490.6574000000001
 11
1759.18532
 21
2452.6574999999998
  0
LINE
  8
_0-0_通り芯
  6
CONTINUOUS
 62
    7
 10
1759.18532
 20
2452.6574999999998
 11
1683.1852800000001
 21
2452.6574999999998
  0
LINE
  8
_0-0_通り芯
  6
CONTINUOUS
 62
    7
 10
1486.1853099999998
 20
2055.6575000000003
 11
1486.1853099999998
 21
2495.6575000000003
  0
LINE
  8
_0-0_通り芯
  6
CONTINUOUS
 62
    7
 10
1486.1853099999998
 20
2055.6575000000003
 11
1526.1852899999999
 21
2015.6574000000001
  0
LINE
  8
_0-0_通り芯
  6
CONTINUOUS
 62
    7
 10
1632.5010200000002
 20
2501.8952999999997
 11
1531.5230200000001
 21
2504.3420999999998
  0
LINE
  8
_0-0_通り芯
  6
CONTINUOUS
 62
    7
 10
1632.63869
 20
2501.7181999999998
 11
1619.4343800000001
 21
2506.6226999999999
  0
LINE
  8
_0-0_通り芯
  6
CONTINUOUS
 62
    7
 10
1486.1853099999998
 20
2840.2781
 11
1486.1853099999998
 21
2561.9324999999999
  0
LINE
  8
_0-0_通り芯
  6
CONTINUOUS
 62
    7
 10
1966.1853000000001
 20
2840.2781
 11
1486.1853099999998
 21
2840.2781
  0
LINE
  8
_0-0_通り芯
  6
CONTINUOUS
 62
    7
 10
1966.1853000000001
 20
2840.2781
 11
1966.1853000000001
 21
2782.1774
  0
LINE
  8
_0-0_通り芯
  6
CONTINUOUS
 62
    7
 10
1926.1851999999999
 20
2015.6574000000001
 11
1526.1852899999999
 21
2015.6574000000001
  0
LINE
  8
_0-0_通り芯
  6
CONTINUOUS
 62
    7
 10
2343.9237000000003
 20
1907.4247
 11
2543.9236000000001
 21
1907.4247
  0
LINE
  8
_0-0_通り芯
  6
CONTINUOUS
 62
    7
 10
2343.9237000000003
 20
1907.4247
 11
2343.9237000000003
 21
1993.5705
  0
LINE
  8
_0-0_通り芯
  6
CONTINUOUS
 62
    7
 10
2543.9236000000001
 20
1907.4247
 11
2543.9236000000001
 21
1993.5705
  0
LINE
  8
_0-0_通り芯
  6
CONTINUOUS
 62
    7
 10
2543.9236000000001
 20
1907.4247
 11
2593.9236000000001
 21
1907.4247
  0
LINE
  8
_0-0_通り芯
  6
CONTINUOUS
 62
    7
 10
2593.9236000000001
 20
1907.4247
 11
2593.9236000000001
 21
1993.5705
  0
LINE
  8
_0-0_通り芯
  6
CONTINUOUS
 62
    7
 10
4093.9237000000003
 20
1907.4247
 11
4143.9236000000001
 21
1907.4247
  0
LINE
  8
_0-0_通り芯
  6
CONTINUOUS
 62
    7
 10
4093.9237000000003
 20
1907.4247
 11
4093.9237000000003
 21
1993.5705
  0
LINE
  8
_0-0_通り芯
  6
CONTINUOUS
 62
    7
 10
4143.9236000000001
 20
1907.4247
 11
4143.9236000000001
 21
1993.5705
  0
LINE
  8
_0-0_通り芯
  6
CONTINUOUS
 62
    7
 10
4143.9236000000001
 20
1907.4247
 11
4343.9237000000012
 21
1907.4247
  0
LINE
  8
_0-0_通り芯
  6
CONTINUOUS
 62
    7
 10
4343.9237000000012
 20
1907.4247
 11
4343.9237000000012
 21
1993.5705
  0
LINE
  8
_0-0_通り芯
  6
CONTINUOUS
 62
    7
 10
4145.8494999999994
 20
2225.6575000000003
 11
2544.6590999999999
 21
2225.6575000000003
  0
LINE
  8
_0-0_通り芯
  6
CONTINUOUS
 62
    7
 10
4143.9236000000001
 20
2015.6574000000001
 11
4143.9236000000001
 21
2225.6575000000003
  0
LINE
  8
_0-0_通り芯
  6
CONTINUOUS
 62
    7
 10
2543.9236000000001
 20
2015.6574000000001
 11
2543.9236000000001
 21
2225.6575000000003
  0
LINE
  8
_0-0_通り芯
  6
CONTINUOUS
 62
    7
 10
2543.9236000000001
 20
2228.7864
 11
2594.0248000000001
 21
2015.6574000000001
  0
LINE
  8
_0-0_通り芯
  6
CONTINUOUS
 62
    7
 10
4145.4794000000002
 20
2224.1441
 11
4094.4991
 21
2015.6574000000001
  0
LINE
  8
_0-0_通り芯
  6
CONTINUOUS
 62
    7
 10
4343.9237000000012
 20
2466.6574000000001
 11
2343.9237000000003
 21
2466.6574000000001
  0
LINE
  8
_0-0_通り芯
  6
CONTINUOUS
 62
    7
 10
4343.9237000000012
 20
2471.6574999999998
 11
2343.9237000000003
 21
2471.6574999999998
  0
LINE
  8
_0-0_通り芯
  6
CONTINUOUS
 62
    7
 10
2260.1869999999999
 20
2015.6574000000001
 11
2260.1869999999999
 21
2466.6574000000001
  0
LINE
  8
_0-0_通り芯
  6
CONTINUOUS
 62
    7
 10
2260.1869999999999
 20
2015.6574000000001
 11
2324.0155999999997
 21
2015.6574000000001
  0
LINE
  8
_0-0_通り芯
  6
CONTINUOUS
 62
    7
 10
2260.1869999999999
 20
2466.6574000000001
 11
2324.0155999999997
 21
2466.6574000000001
  0
LINE
  8
_0-0_通り芯
  6
CONTINUOUS
 62
    7
 10
2260.1869999999999
 20
2466.6574000000001
 11
2260.1869999999999
 21
2471.6574999999998
  0
LINE
  8
_0-0_通り芯
  6
CONTINUOUS
 62
    7
 10
2260.1869999999999
 20
2471.6574999999998
 11
2324.0155999999997
 21
2471.6574999999998
  0
LINE
  8
_0-0_通り芯
  6
CONTINUOUS
 62
    7
 10
4343.9237000000012
 20
2105.6575000000003
 11
2343.9237000000003
 21
2105.6575000000003
  0
LINE
  8
_0-0_通り芯
  6
CONTINUOUS
 62
    7
 10
4343.9237000000012
 20
2405.6575000000003
 11
2343.9237000000003
 21
2405.6575000000003
  0
LINE
  8
_0-0_通り芯
  6
CONTINUOUS
 62
    7
 10
2343.9237000000003
 20
2055.6575000000003
 11
2383.9236000000001
 21
2015.6574000000001
  0
LINE
  8
_0-0_通り芯
  6
CONTINUOUS
 62
    7
 10
4303.9237999999996
 20
2015.6574000000001
 11
2383.9236000000001
 21
2015.6574000000001
  0
LINE
  8
_0-0_通り芯
  6
CONTINUOUS
 62
    7
 10
4303.9237999999996
 20
2015.6574000000001
 11
4343.9237000000012
 21
2055.6575000000003
  0
LINE
  8
_0-0_通り芯
  6
CONTINUOUS
 62
    7
 10
3220.1017000000002
 20
2347.6252999999997
 11
3220.1017000000002
 21
2387.5295999999998
  0
LINE
  8
_0-0_通り芯
  6
CONTINUOUS
 62
    7
 10
3220.1017000000002
 20
2347.6252999999997
 11
3469.5019999999995
 21
2347.6252999999997
  0
LINE
  8
_0-0_通り芯
  6
CONTINUOUS
 62
    7
 10
3469.5019999999995
 20
2347.6252999999997
 11
3469.5019999999995
 21
2387.5295999999998
  0
LINE
  8
_0-0_通り芯
  6
CONTINUOUS
 62
    7
 10
3220.1127000000001
 20
2387.5025000000001
 11
3235.0056
 21
2377.5740000000001
  0
LINE
  8
_0-0_通り芯
  6
CONTINUOUS
 62
    7
 10
3235.0056
 20
2377.5740000000001
 11
3244.7962000000007
 21
2367.6457
  0
LINE
  8
_0-0_通り芯
  6
CONTINUOUS
 62
    7
 10
3244.7962000000007
 20
2367.6457
 11
3220.1127000000001
 21
2347.6507000000001
  0
LINE
  8
_0-0_通り芯
  6
CONTINUOUS
 62
    7
 10
3454.5631999999996
 20
2377.6898000000001
 11
3444.4430000000002
 21
2367.9797000000003
  0
LINE
  8
_0-0_通り芯
  6
CONTINUOUS
 62
    7
 10
3469.2552999999998
 20
2387.5295999999998
 11
3454.5631999999996
 21
2377.6898000000001
  0
LINE
  8
_0-0_通り芯
  6
CONTINUOUS
 62
    7
 10
3235.0362
 20
2377.5533
 11
3454.3598999999999
 21
2377.5533
  0
LINE
  8
_0-0_通り芯
  6
CONTINUOUS
 62
    7
 10
3244.8630000000003
 20
2367.5776000000001
 11
3444.0232999999998
 21
2367.5776000000001
  0
LINE
  8
_0-0_通り芯
  6
CONTINUOUS
 62
    7
 10
3220.1017000000002
 20
2387.5295999999998
 11
3469.5019999999995
 21
2387.5295999999998
  0
LINE
  8
_0-0_通り芯
  6
CONTINUOUS
 62
    7
 10
3444.4430000000002
 20
2367.9797000000003
 11
3469.0320999999999
 21
2347.6252999999997
  0
LINE
  8
_0-0_通り芯
  6
CONTINUOUS
 62
    7
 10
2643.9236000000001
 20
2295.6574000000001
 11
2443.9237000000003
 21
2295.6574000000001
  0
LINE
  8
_0-0_通り芯
  6
CONTINUOUS
 62
    7
 10
2643.9236000000001
 20
2355.6574000000001
 11
2443.9237000000003
 21
2355.6574000000001
  0
LINE
  8
_0-0_通り芯
  6
CONTINUOUS
 62
    7
 10
2643.9236000000001
 20
2295.6574000000001
 11
2643.9236000000001
 21
2355.6574000000001
  0
LINE
  8
_0-0_通り芯
  6
CONTINUOUS
 62
    7
 10
2443.9237000000003
 20
2295.6574000000001
 11
2443.9237000000003
 21
2355.6574000000001
  0
LINE
  8
_0-0_通り芯
  6
CONTINUOUS
 62
    7
 10
2443.9237000000003
 20
2335.6575000000003
 11
2343.9237000000003
 21
2335.6575000000003
  0
LINE
  8
_0-0_通り芯
  6
CONTINUOUS
 62
    7
 10
2443.9237000000003
 20
2315.6574000000001
 11
2343.9237000000003
 21
2315.6574000000001
  0
LINE
  8
_0-0_通り芯
  6
CONTINUOUS
 62
    7
 10
2633.9237000000003
 20
2345.6575000000003
 11
2453.9237000000003
 21
2345.6575000000003
  0
LINE
  8
_0-0_通り芯
  6
CONTINUOUS
 62
    7
 10
2633.9237000000003
 20
2305.6574000000001
 11
2633.9237000000003
 21
2345.6575000000003
  0
LINE
  8
_0-0_通り芯
  6
CONTINUOUS
 62
    7
 10
2454.4659999999999
 20
2345.3334
 11
2443.9237000000003
 21
2356.0222000000003
  0
LINE
  8
_0-0_通り芯
  6
CONTINUOUS
 62
    7
 10
2633.9237000000003
 20
2305.6574000000001
 11
2453.9237000000003
 21
2305.6574000000001
  0
LINE
  8
_0-0_通り芯
  6
CONTINUOUS
 62
    7
 10
2453.9237000000003
 20
2305.6574000000001
 11
2453.9237000000003
 21
2345.6575000000003
  0
LINE
  8
_0-0_通り芯
  6
CONTINUOUS
 62
    7
 10
2453.7046
 20
2305.6574000000001
 11
2443.9237000000003
 21
2295.3993999999998
  0
LINE
  8
_0-0_通り芯
  6
CONTINUOUS
 62
    7
 10
2633.5050000000001
 20
2345.6575000000003
 11
2643.9236000000001
 21
2355.4380999999998
  0
LINE
  8
_0-0_通り芯
  6
CONTINUOUS
 62
    7
 10
2633.9525000000003
 20
2305.6574000000001
 11
2643.1361000000002
 21
2295.6574000000001
  0
LINE
  8
_0-0_通り芯
  6
CONTINUOUS
 62
    7
 10
4043.9236000000001
 20
2295.6574000000001
 11
4243.9236000000001
 21
2295.6574000000001
  0
LINE
  8
_0-0_通り芯
  6
CONTINUOUS
 62
    7
 10
4043.9236000000001
 20
2355.6574000000001
 11
4243.9236000000001
 21
2355.6574000000001
  0
LINE
  8
_0-0_通り芯
  6
CONTINUOUS
 62
    7
 10
4043.9236000000001
 20
2295.6574000000001
 11
4043.9236000000001
 21
2355.6574000000001
  0
LINE
  8
_0-0_通り芯
  6
CONTINUOUS
 62
    7
 10
4243.9236000000001
 20
2295.6574000000001
 11
4243.9236000000001
 21
2355.6574000000001
  0
LINE
  8
_0-0_通り芯
  6
CONTINUOUS
 62
    7
 10
4243.9236000000001
 20
2335.6575000000003
 11
4343.9237000000012
 21
2335.6575000000003
  0
LINE
  8
_0-0_通り芯
  6
CONTINUOUS
 62
    7
 10
4243.9236000000001
 20
2315.6574000000001
 11
4343.9237000000012
 21
2315.6574000000001
  0
LINE
  8
_0-0_通り芯
  6
CONTINUOUS
 62
    7
 10
4053.9235999999996
 20
2345.6575000000003
 11
4233.9237000000003
 21
2345.6575000000003
  0
LINE
  8
_0-0_通り芯
  6
CONTINUOUS
 62
    7
 10
4053.9235999999996
 20
2305.6574000000001
 11
4053.9235999999996
 21
2345.6575000000003
  0
LINE
  8
_0-0_通り芯
  6
CONTINUOUS
 62
    7
 10
4233.3811000000005
 20
2345.3334
 11
4243.9236000000001
 21
2356.0222000000003
  0
LINE
  8
_0-0_通り芯
  6
CONTINUOUS
 62
    7
 10
4053.9235999999996
 20
2305.6574000000001
 11
4233.9237000000003
 21
2305.6574000000001
  0
LINE
  8
_0-0_通り芯
  6
CONTINUOUS
 62
    7
 10
4233.9237000000003
 20
2305.6574000000001
 11
4233.9237000000003
 21
2345.6575000000003
  0
LINE
  8
_0-0_通り芯
  6
CONTINUOUS
 62
    7
 10
4234.1426999999994
 20
2305.6574000000001
 11
4243.9236000000001
 21
2295.3993999999998
  0
LINE
  8
_0-0_通り芯
  6
CONTINUOUS
 62
    7
 10
4054.3421999999996
 20
2345.6575000000003
 11
4043.9236000000001
 21
2355.4380999999998
  0
LINE
  8
_0-0_通り芯
  6
CONTINUOUS
 62
    7
 10
4053.8949000000002
 20
2305.6574000000001
 11
4044.7111
 21
2295.6574000000001
  0
LINE
  8
_0-0_通り芯
  6
CONTINUOUS
 62
    7
 10
2753.9237000000003
 20
2518.0149999999999
 11
2933.9237999999996
 21
2518.0149999999999
  0
LINE
  8
_0-0_通り芯
  6
CONTINUOUS
 62
    7
 10
2753.9237000000003
 20
2518.0149999999999
 11
2753.9237000000003
 21
2476.1345000000001
  0
LINE
  8
_0-0_通り芯
  6
CONTINUOUS
 62
    7
 10
2933.9237999999996
 20
2518.0149999999999
 11
2933.9237999999996
 21
2476.1345000000001
  0
LINE
  8
_0-0_通り芯
  6
CONTINUOUS
 62
    7
 10
2768.9236000000001
 20
2371.4821999999999
 11
2918.9237000000003
 21
2371.4821999999999
  0
LINE
  8
_0-0_通り芯
  6
CONTINUOUS
 62
    7
 10
2768.9236000000001
 20
2371.4821999999999
 11
2768.9236000000001
 21
2405.5600999999997
  0
LINE
  8
_0-0_通り芯
  6
CONTINUOUS
 62
    7
 10
2918.9237000000003
 20
2371.4821999999999
 11
2918.9237000000003
 21
2405.5600999999997
  0
LINE
  8
_0-0_通り芯
  6
CONTINUOUS
 62
    7
 10
2984.7631999999994
 20
2471.6574999999998
 11
2984.7631999999994
 21
2411.6574000000001
  0
LINE
  8
_0-0_通り芯
  6
CONTINUOUS
 62
    7
 10
2984.7631999999994
 20
2471.6574999999998
 11
2947.6893
 21
2471.6574999999998
  0
LINE
  8
_0-0_通り芯
  6
CONTINUOUS
 62
    7
 10
2984.7631999999994
 20
2411.6574000000001
 11
2947.6893
 21
2411.6574000000001
  0
LINE
  8
_0-0_通り芯
  6
CONTINUOUS
 62
    7
 10
3933.9236000000001
 20
2518.0149999999999
 11
3753.9237000000003
 21
2518.0149999999999
  0
LINE
  8
_0-0_通り芯
  6
CONTINUOUS
 62
    7
 10
3933.9236000000001
 20
2518.0149999999999
 11
3933.9236000000001
 21
2476.1345000000001
  0
LINE
  8
_0-0_通り芯
  6
CONTINUOUS
 62
    7
 10
3753.9237000000003
 20
2518.0149999999999
 11
3753.9237000000003
 21
2476.1345000000001
  0
LINE
  8
_0-0_通り芯
  6
CONTINUOUS
 62
    7
 10
3918.9236000000001
 20
2371.4821999999999
 11
3768.9237000000003
 21
2371.4821999999999
  0
LINE
  8
_0-0_通り芯
  6
CONTINUOUS
 62
    7
 10
3918.9236000000001
 20
2371.4821999999999
 11
3918.9236000000001
 21
2405.5600999999997
  0
LINE
  8
_0-0_通り芯
  6
CONTINUOUS
 62
    7
 10
3768.9237000000003
 20
2371.4821999999999
 11
3768.9237000000003
 21
2405.5600999999997
  0
LINE
  8
_0-0_通り芯
  6
CONTINUOUS
 62
    7
 10
4002.5295999999998
 20
2471.6574999999998
 11
4002.5295999999998
 21
2411.6574000000001
  0
LINE
  8
_0-0_通り芯
  6
CONTINUOUS
 62
    7
 10
4002.5295999999998
 20
2471.6574999999998
 11
3952.0080999999996
 21
2471.6574999999998
  0
LINE
  8
_0-0_通り芯
  6
CONTINUOUS
 62
    7
 10
4002.5295999999998
 20
2411.6574000000001
 11
3952.0080999999996
 21
2411.6574000000001
  0
LINE
  8
_0-0_通り芯
  6
CONTINUOUS
 62
    7
 10
2343.9237000000003
 20
2839.4279999999999
 11
4343.9237000000012
 21
2839.4279999999999
  0
LINE
  8
_0-0_通り芯
  6
CONTINUOUS
 62
    7
 10
1487.0198500000001
 20
2225.1061999999997
 11
1605.4038599999999
 21
2015.6574000000001
  0
LINE
  8
_0-0_通り芯
  6
CONTINUOUS
 62
    7
 10
1965.3507
 20
2225.1061999999997
 11
1846.9666999999997
 21
2015.6574000000001
  0
LINE
  8
_0-0_通り芯
  6
CONTINUOUS
 62
    7
 10
1773.8414699999998
 20
2471.6574999999998
 11
1788.4569099999999
 21
2411.6574000000001
  0
LINE
  8
_0-0_通り芯
  6
CONTINUOUS
 62
    7
 10
1788.4569099999999
 20
2411.6574000000001
 11
1938.713
 21
2411.6574000000001
  0
LINE
  8
_0-0_通り芯
  6
CONTINUOUS
 62
    7
 10
1953.6221
 20
2471.6574999999998
 11
1938.713
 21
2411.6574000000001
  0
LINE
  8
_0-0_通り芯
  6
CONTINUOUS
 62
    7
 10
1773.6853099999998
 20
2746.9009000000001
 11
1953.6852999999999
 21
2746.9009000000001
  0
LINE
  8
_0-0_通り芯
  6
CONTINUOUS
 62
    7
 10
1966.1853000000001
 20
2795.3213000000001
 11
1761.1852800000001
 21
2795.3213000000001
  0
LINE
  8
_0-0_通り芯
  6
CONTINUOUS
 62
    7
 10
2753.9730999999997
 20
2471.6574999999998
 11
2769.0895
 21
2411.6574000000001
  0
LINE
  8
_0-0_通り芯
  6
CONTINUOUS
 62
    7
 10
2918.9016999999999
 20
2411.6574000000001
 11
2769.0895
 21
2411.6574000000001
  0
LINE
  8
_0-0_通り芯
  6
CONTINUOUS
 62
    7
 10
2918.9016999999999
 20
2411.6574000000001
 11
2933.6421
 21
2471.6574999999998
  0
LINE
  8
_0-0_通り芯
  6
CONTINUOUS
 62
    7
 10
3768.9454999999998
 20
2411.6574000000001
 11
3754.2049000000002
 21
2471.6574999999998
  0
LINE
  8
_0-0_通り芯
  6
CONTINUOUS
 62
    7
 10
3768.9454999999998
 20
2411.6574000000001
 11
3918.7577999999999
 21
2411.6574000000001
  0
LINE
  8
_0-0_通り芯
  6
CONTINUOUS
 62
    7
 10
3933.8741
 20
2471.6574999999998
 11
3918.7577999999999
 21
2411.6574000000001
  0
LINE
  8
_0-0_通り芯
  6
CONTINUOUS
 62
    7
 10
1966.1853000000001
 20
2055.6575000000003
 11
1966.1853000000001
 21
2471.6574999999998
  0
LINE
  8
_0-0_通り芯
  6
CONTINUOUS
 62
    7
 10
2048.2982999999999
 20
2491.6574999999998
 11
1981.8431
 21
2491.6574999999998
  0
LINE
  8
_0-0_通り芯
  6
CONTINUOUS
 62
    7
 10
1772.42055
 20
2612.9791999999998
 11
1766.1880200000001
 21
2471.6574999999998
  0
LINE
  8
_0-0_通り芯
  6
CONTINUOUS
 62
    7
 10
1955.7353000000003
 20
2613.8640999999998
 11
1966.1853000000001
 21
2472.1853000000001
  0
LINE
  8
_0-0_通り芯
  6
CONTINUOUS
 62
    7
 10
2048.2982999999999
 20
2491.6574999999998
 11
2048.2982999999999
 21
2641.6574000000001
  0
LINE
  8
_0-0_通り芯
  6
CONTINUOUS
 62
    7
 10
2048.2982999999999
 20
2491.6574999999998
 11
1981.8431
 21
2491.6574999999998
  0
LINE
  8
_0-0_通り芯
  6
CONTINUOUS
 62
    7
 10
2048.2982999999999
 20
2641.6574000000001
 11
1981.8431
 21
2641.6574000000001
  0
LINE
  8
_0-0_通り芯
  6
CONTINUOUS
 62
    7
 10
2107.9301
 20
2471.6574999999998
 11
2107.9301
 21
2641.6574000000001
  0
LINE
  8
_0-0_通り芯
  6
CONTINUOUS
 62
    7
 10
2107.9301
 20
2471.6574999999998
 11
2048.2982999999999
 21
2471.6574999999998
  0
LINE
  8
_0-0_通り芯
  6
CONTINUOUS
 62
    7
 10
2107.9301
 20
2641.6574000000001
 11
2048.2982999999999
 21
2641.6574000000001
  0
LINE
  8
_0-0_通り芯
  6
CONTINUOUS
 62
    7
 10
2144.9870999999998
 20
2641.6574000000001
 11
2144.9870999999998
 21
2015.6574000000001
  0
LINE
  8
_0-0_通り芯
  6
CONTINUOUS
 62
    7
 10
2144.9870999999998
 20
2641.6574000000001
 11
2107.9301
 21
2641.6574000000001
  0
LINE
  8
_0-0_通り芯
  6
CONTINUOUS
 62
    7
 10
2144.9870999999998
 20
2015.6574000000001
 11
2048.2982999999999
 21
2015.6574000000001
  0
LINE
  8
_0-0_通り芯
  6
CONTINUOUS
 62
    7
 10
4343.9237000000012
 20
2641.6575000000003
 11
2343.9237000000003
 21
2641.6575000000003
  0
LINE
  8
_0-0_通り芯
  6
CONTINUOUS
 62
    7
 10
2343.9237000000003
 20
2055.6575000000003
 11
2343.9237000000003
 21
2641.6575000000003
  0
LINE
  8
_0-0_通り芯
  6
CONTINUOUS
 62
    7
 10
4343.9237000000012
 20
2055.6575000000003
 11
4343.9237000000012
 21
2641.6575000000003
  0
LINE
  8
_0-0_通り芯
  6
CONTINUOUS
 62
    7
 10
2260.1869999999999
 20
2641.6575000000003
 11
2260.1869999999999
 21
2471.6574999999998
  0
LINE
  8
_0-0_通り芯
  6
CONTINUOUS
 62
    7
 10
2260.1869999999999
 20
2641.6575000000003
 11
2324.0155999999997
 21
2641.6575000000003
  0
LINE
  8
_0-0_通り芯
  6
CONTINUOUS
 62
    7
 10
2260.1869999999999
 20
2471.6574999999998
 11
2324.0155999999997
 21
2471.6574999999998
  0
LINE
  8
_0-0_通り芯
  6
CONTINUOUS
 62
    7
 10
1761.1852800000001
 20
2795.3213000000001
 11
1761.1852800000001
 21
2666.9007999999999
  0
LINE
  8
_0-0_通り芯
  6
CONTINUOUS
 62
    7
 10
1773.6853099999998
 20
2746.9009000000001
 11
1773.6853099999998
 21
2666.9007999999999
  0
LINE
  8
_0-0_通り芯
  6
CONTINUOUS
 62
    7
 10
1953.6852999999999
 20
2746.9009000000001
 11
1953.6852999999999
 21
2666.9007999999999
  0
LINE
  8
_0-0_通り芯
  6
CONTINUOUS
 62
    7
 10
1966.1853000000001
 20
2731.7656999999999
 11
1966.1853000000001
 21
2666.9007999999999
  0
LINE
  8
_0-0_通り芯
  6
CONTINUOUS
 62
    7
 10
2343.9237000000003
 20
2839.4279999999999
 11
2343.9237000000003
 21
2666.9007999999999
  0
LINE
  8
_0-0_通り芯
  6
CONTINUOUS
 62
    7
 10
4343.9237000000012
 20
2839.4279999999999
 11
4343.9237000000012
 21
2666.9007999999999
  0
CIRCLE
  8
_0-0_通り芯
  6
CONTINUOUS
 62
    7
 10
1530.9643799999999
 20
2324.8016000000002
 40
19.999998999999999
  0
ARC
  8
_0-0_通り芯
  6
CONTINUOUS
 62
    7
 10
1656.18532
 20
2325.6575000000003
 40
79.999995999999996
 50
90
 51
180
  0
ARC
  8
_0-0_通り芯
  6
CONTINUOUS
 62
    7
 10
1796.18532
 20
2325.6575000000003
 40
79.999995999999996
 50
0
 51
90
  0
ARC
  8
_0-0_通り芯
  6
CONTINUOUS
 62
    7
 10
1762.46883
 20
2288.4326000000001
 40
186.06079999999997
 50
177.15304
 51
258.77697000000001
  0
ARC
  8
_0-0_通り芯
  6
CONTINUOUS
 62
    7
 10
1689.90175
 20
2288.4326000000001
 40
186.06079999999997
 50
281.22300000000001
 51
2.8469238000000177
  0
CIRCLE
  8
_0-0_通り芯
  6
CONTINUOUS
 62
    7
 10
1922.8354999999999
 20
2324.8016000000002
 40
19.999998999999999
  0
ARC
  8
_0-0_通り芯
  6
CONTINUOUS
 62
    7
 10
1802.3914
 20
2611.6573000000008
 40
30
 50
90
 51
177.47479000000001
  0
ARC
  8
_0-0_通り芯
  6
CONTINUOUS
 62
    7
 10
1925.8166000000001
 20
2611.6573000000008
 40
30
 50
4.2183989999999998
 51
89.999983999999955
  0
POINT
  8
_0-0_通り芯
 62
    7
 10
1486.1853099999998
 20
1910.9188000000001
  0
POINT
  8
_0-0_通り芯
 62
    7
 10
1576.1853000000001
 20
1910.9188000000001
  0
POINT
  8
_0-0_通り芯
 62
    7
 10
1876.1851999999999
 20
1910.9188000000001
  0
POINT
  8
_0-0_通り芯
 62
    7
 10
1966.1853000000001
 20
1910.9188000000001
  0
POINT
  8
_0-0_通り芯
 62
    7
 10
2048.2982999999999
 20
2015.6574000000001
  0
POINT
  8
_0-0_通り芯
 62
    7
 10
2048.2982999999999
 20
2466.6574000000001
  0
POINT
  8
_0-0_通り芯
 62
    7
 10
2048.2982999999999
 20
2471.6574999999998
  0
POINT
  8
_0-0_通り芯
 62
    7
 10
2048.2982999999999
 20
2491.6574999999998
  0
POINT
  8
_0-0_通り芯
 62
    7
 10
1377.8045000000002
 20
2015.6574000000001
  0
POINT
  8
_0-0_通り芯
 62
    7
 10
1377.8045000000002
 20
2105.6575000000003
  0
POINT
  8
_0-0_通り芯
 62
    7
 10
1377.8045000000002
 20
2405.6575000000003
  0
POINT
  8
_0-0_通り芯
 62
    7
 10
1377.8045000000002
 20
2495.6575000000003
  0
POINT
  8
_0-0_通り芯
 62
    7
 10
1312.44695
 20
2015.6574000000001
  0
POINT
  8
_0-0_通り芯
 62
    7
 10
1312.44695
 20
2495.6575000000003
  0
POINT
  8
_0-0_通り芯
 62
    7
 10
1486.1853099999998
 20
2578.7379000000001
  0
POINT
  8
_0-0_通り芯
 62
    7
 10
1686.1853099999998
 20
2578.7379000000001
  0
POINT
  8
_0-0_通り芯
 62
    7
 10
1766.1853299999998
 20
2578.7379000000001
  0
POINT
  8
_0-0_通り芯
 62
    7
 10
1773.6853099999998
 20
2517.1237000000001
  0
POINT
  8
_0-0_通り芯
 62
    7
 10
1953.6852999999999
 20
2517.1237000000001
  0
POINT
  8
_0-0_通り芯
 62
    7
 10
1788.6852800000001
 20
2363.7226000000001
  0
POINT
  8
_0-0_通り芯
 62
    7
 10
1938.6851999999999
 20
2363.7226000000001
  0
POINT
  8
_0-0_通り芯
 62
    7
 10
1486.1853099999998
 20
2840.2781
  0
POINT
  8
_0-0_通り芯
 62
    7
 10
1966.1853000000001
 20
2840.2781
  0
POINT
  8
_0-0_通り芯
 62
    7
 10
2343.9237000000003
 20
1907.4247
  0
POINT
  8
_0-0_通り芯
 62
    7
 10
2543.9236000000001
 20
1907.4247
  0
POINT
  8
_0-0_通り芯
 62
    7
 10
2593.9236000000001
 20
1907.4247
  0
POINT
  8
_0-0_通り芯
 62
    7
 10
4093.9237000000003
 20
1907.4247
  0
POINT
  8
_0-0_通り芯
 62
    7
 10
4143.9236000000001
 20
1907.4247
  0
POINT
  8
_0-0_通り芯
 62
    7
 10
4343.9237000000012
 20
1907.4247
  0
POINT
  8
_0-0_通り芯
 62
    7
 10
2260.1869999999999
 20
2015.6574000000001
  0
POINT
  8
_0-0_通り芯
 62
    7
 10
2260.1869999999999
 20
2466.6574000000001
  0
POINT
  8
_0-0_通り芯
 62
    7
 10
2260.1869999999999
 20
2471.6574999999998
  0
POINT
  8
_0-0_通り芯
 62
    7
 10
2753.9237000000003
 20
2518.0149999999999
  0
POINT
  8
_0-0_通り芯
 62
    7
 10
2933.9237999999996
 20
2518.0149999999999
  0
POINT
  8
_0-0_通り芯
 62
    7
 10
2768.9236000000001
 20
2371.4821999999999
  0
POINT
  8
_0-0_通り芯
 62
    7
 10
2918.9237000000003
 20
2371.4821999999999
  0
POINT
  8
_0-0_通り芯
 62
    7
 10
2984.7631999999994
 20
2471.6574999999998
  0
POINT
  8
_0-0_通り芯
 62
    7
 10
2984.7631999999994
 20
2411.6574000000001
  0
POINT
  8
_0-0_通り芯
 62
    7
 10
3933.9236000000001
 20
2518.0149999999999
  0
POINT
  8
_0-0_通り芯
 62
    7
 10
3753.9237000000003
 20
2518.0149999999999
  0
POINT
  8
_0-0_通り芯
 62
    7
 10
3918.9236000000001
 20
2371.4821999999999
  0
POINT
  8
_0-0_通り芯
 62
    7
 10
3768.9237000000003
 20
2371.4821999999999
  0
POINT
  8
_0-0_通り芯
 62
    7
 10
4002.5295999999998
 20
2471.6574999999998
  0
POINT
  8
_0-0_通り芯
 62
    7
 10
4002.5295999999998
 20
2411.6574000000001
  0
POINT
  8
_0-0_通り芯
 62
    7
 10
2343.9237000000003
 20
2839.4279999999999
  0
POINT
  8
_0-0_通り芯
 62
    7
 10
4343.9237000000012
 20
2839.4279999999999
  0
POINT
  8
_0-0_通り芯
 62
    7
 10
1773.6853099999998
 20
2746.9009000000001
  0
POINT
  8
_0-0_通り芯
 62
    7
 10
1953.6852999999999
 20
2746.9009000000001
  0
POINT
  8
_0-0_通り芯
 62
    7
 10
1966.1853000000001
 20
2795.3213000000001
  0
POINT
  8
_0-0_通り芯
 62
    7
 10
1761.1852800000001
 20
2795.3213000000001
  0
POINT
  8
_0-0_通り芯
 62
    7
 10
2048.2982999999999
 20
2491.6574999999998
  0
POINT
  8
_0-0_通り芯
 62
    7
 10
2048.2982999999999
 20
2641.6574000000001
  0
POINT
  8
_0-0_通り芯
 62
    7
 10
2107.9301
 20
2471.6574999999998
  0
POINT
  8
_0-0_通り芯
 62
    7
 10
2107.9301
 20
2641.6574000000001
  0
POINT
  8
_0-0_通り芯
 62
    7
 10
2144.9870999999998
 20
2641.6574000000001
  0
POINT
  8
_0-0_通り芯
 62
    7
 10
2144.9870999999998
 20
2015.6574000000001
  0
POINT
  8
_0-0_通り芯
 62
    7
 10
2260.1869999999999
 20
2641.6575000000003
  0
POINT
  8
_0-0_通り芯
 62
    7
 10
2260.1869999999999
 20
2471.6574999999998
  0
LINE
  8
_0-0_通り芯
  6
CONTINUOUS
 62
    7
 10
1429.46414
 20
2495.6575000000003
 11
1468.78144
 21
2495.6575000000003
  0
LINE
  8
_0-0_通り芯
  6
CONTINUOUS
 62
    7
 10
2343.9237000000003
 20
2737.2089000000001
 11
2593.9237000000003
 21
2737.2089000000001
  0
POINT
  8
_0-0_通り芯
 62
    7
 10
2343.9237000000003
 20
2737.2089000000001
  0
POINT
  8
_0-0_通り芯
 62
    7
 10
2593.9237000000003
 20
2737.2089000000001
  0
LINE
  8
_0-0_通り芯
  6
CONTINUOUS
 62
    7
 10
2343.9237000000003
 20
2737.2089000000001
 11
2343.9237000000003
 21
2666.9007999999999
  0
LINE
  8
_0-0_通り芯
  6
CONTINUOUS
 62
    7
 10
2593.9237000000003
 20
2737.2089000000001
 11
2593.9237000000003
 21
2666.9007999999999
  0
LINE
  8
_0-0_通り芯
  6
CONTINUOUS
 62
    7
 10
2593.9237000000003
 20
2737.2089000000001
 11
3093.9237000000003
 21
2737.2089000000001
  0
POINT
  8
_0-0_通り芯
 62
    7
 10
3093.9237000000003
 20
2737.2089000000001
  0
LINE
  8
_0-0_通り芯
  6
CONTINUOUS
 62
    7
 10
3093.9237000000003
 20
2737.2089000000001
 11
3093.9237000000003
 21
2666.9007999999999
  0
LINE
  8
_0-0_通り芯
  6
CONTINUOUS
 62
    7
 10
3093.9237000000003
 20
2737.2089000000001
 11
3593.9237000000003
 21
2737.2089000000001
  0
POINT
  8
_0-0_通り芯
 62
    7
 10
3593.9237000000003
 20
2737.2089000000001
  0
LINE
  8
_0-0_通り芯
  6
CONTINUOUS
 62
    7
 10
3593.9237000000003
 20
2737.2089000000001
 11
3593.9237000000003
 21
2666.9007999999999
  0
LINE
  8
_0-0_通り芯
  6
CONTINUOUS
 62
    7
 10
3593.9237000000003
 20
2737.2089000000001
 11
4093.9237000000003
 21
2737.2089000000001
  0
POINT
  8
_0-0_通り芯
 62
    7
 10
4093.9237000000003
 20
2737.2089000000001
  0
LINE
  8
_0-0_通り芯
  6
CONTINUOUS
 62
    7
 10
4093.9237000000003
 20
2737.2089000000001
 11
4093.9237000000003
 21
2666.9007999999999
  0
LINE
  8
_0-0_通り芯
  6
CONTINUOUS
 62
    7
 10
4093.9237000000003
 20
2737.2089000000001
 11
4343.9237000000012
 21
2737.2089000000001
  0
POINT
  8
_0-0_通り芯
 62
    7
 10
4343.9237000000012
 20
2737.2089000000001
  0
LINE
  8
_0-0_通り芯
  6
CONTINUOUS
 62
    7
 10
4343.9237000000012
 20
2737.2089000000001
 11
4343.9237000000012
 21
2666.9007999999999
  0
TEXT
  8
_0-0_通り芯
 62
    7
 10
1653.8989099999999
 20
2327.1808000000001
 40
28
 41
1
 50
0
  1
80
  0
TEXT
  8
_0-0_通り芯
 62
    7
 10
1692.18478
 20
2169.982
 40
28
 41
1
 50
0
  1
200
  0
LINE
  8
_0-0_通り芯
  6
CONTINUOUS
 62
    7
 10
1486.1853099999998
 20
1955.1463000000003
 11
1486.1853099999998
 21
1988.3171000000004
  0
LINE
  8
_0-0_通り芯
  6
CONTINUOUS
 62
    7
 10
1966.1853000000001
 20
1955.1463000000003
 11
1966.1853000000001
 21
1988.3171000000004
  0
TEXT
  8
_0-0_通り芯
 62
    7
 10
2046.5136131109177
 20
2492.4121451855599
 40
28
 41
1
 50
90
  1
20
  0
LINE
  8
_0-0_通り芯
  6
CONTINUOUS
 62
    7
 10
2068.0041000000001
 20
1202.78387
 11
2068.0041000000001
 21
1302.7837200000001
  0
LINE
  8
_0-0_通り芯
  6
CONTINUOUS
 62
    7
 10
2548.0038
 20
1202.78387
 11
2548.0038
 21
1302.7837200000001
  0
LINE
  8
_0-0_通り芯
  6
CONTINUOUS
 62
    7
 10
2310.055226798886
 20
1302.7837200000001
 11
2310.055226798886
 21
1202.78387
  0
TEXT
  8
_0-0_通り芯
 62
    7
 10
1445.0630900000001
 20
3048.9151000000002
 40
50
 41
1
 50
0
  1
断  面  図
  0
TEXT
  8
_0-0_通り芯
 62
    7
 10
2351.7626999999998
 20
3048.9151000000002
 40
50
 41
1
 50
0
  1
側  面  図
  0
TEXT
  8
_0-0_通り芯
 62
    7
 10
1283.2050583307059
 20
1231.9965316877619
 40
40
 41
1
 50
0
  1
名称
  0
TEXT
  8
_0-0_通り芯
 62
    7
 10
2138.0048806526338
 20
1235.6261910174553
 40
40
 41
1
 50
0
  1
分類
  0
TEXT
  8
_0-0_通り芯
 62
    7
 10
2367.2312337418748
 20
1231.9302232973387
 40
40
 41
1
 50
0
  1
標準型
  0
TEXT
  8
_0-0_通り芯
 62
    7
 10
2605.1331023505854
 20
1233.1725307052172
 40
40
 41
1
 50
0
  1
図番
  0
TEXT
  8
_0-0_通り芯
 62
    7
 10
2917.3808160956096
 20
1233.2190130125925
 40
40
 41
1
 50
0
  1
参考重量
  0
TEXT
  8
_0-0_通り芯
 62
    7
 10
3163.5609776697056
 20
1253.8126172007912
 40
40
 41
1
 50
0
  1
ｸﾘｰﾝ側溝　604㎏
  0
TEXT
  8
_0-0_通り芯
 62
    7
 10
3200.0326142795093
 20
1209.474549165343
 40
40
 41
1
 50
0
  1
歩車道　189㎏
  0
TEXT
  8
_0-0_通り芯
 62
    7
 10
3595.4995759505236
 20
1231.6435831830672
 40
40
 41
1
 50
0
  1
岩城ブロック工業株式会社
  0
LINE
  8
_0-0_通り芯
  6
CONTINUOUS
 62
    7
 10
3112.8716438207298
 20
1302.7837200000001
 11
3112.8716438207298
 21
1202.78387
  0
LINE
  8
_0-0_通り芯
  6
CONTINUOUS
 62
    7
 10
2900.4633406193975
 20
1302.7837200000001
 11
2900.4633406193975
 21
1202.78387
  0
TEXT
  8
_0-0_通り芯
 62
    7
 10
1534.5277915409215
 20
1230.3430926534843
 40
40
 41
1
 50
0
  1
クリーン側溝　300HN
  0
ENDSEC
  0
EOF
