  0
SECTION
  2
HEADER
  9
$ACADVER
  1
AC1009
  9
$INSBASE
 10
0
 20
0
 30
0
  9
$EXTMIN
 10
0
 20
0
  9
$EXTMAX
 10
5887
 20
4158
  9
$LIMMIN
 10
0
 20
0
  9
$LIMMAX
 10
5887
 20
4158
  9
$LTSCALE
 40
7
  0
ENDSEC
  0
SECTION
  2
TABLES
  0
TABLE
  2
LTYPE
 70
     9
  0
LTYPE
  2
CONTINUOUS
 70
    64
  3
実線
 72
    65
 73
     0
 40
0.0
  0
LTYPE
  2
DASHED1
 70
    64
  3
--  --  --  --  --  --  --  --  
 72
    65
 73
     2
 40
2.5
 49
1.25
 49
-1.25
  0
LTYPE
  2
DASHED2
 70
    64
  3
----    ----    ----    ----    
 72
    65
 73
     2
 40
5.0
 49
2.5
 49
-2.5
  0
LTYPE
  2
DASHED3
 70
    64
  3
------  ------  ------  ------  
 72
    65
 73
     2
 40
5.0
 49
3.75
 49
-1.25
  0
LTYPE
  2
CENTER1
 70
    64
  3
----- - ----- - ----- - ----- - 
 72
    65
 73
     4
 40
10.0
 49
6.25
 49
-1.25
 49
1.25
 49
-1.25
  0
LTYPE
  2
CENTER2
 70
    64
  3
----------  --  ----------  --  
 72
    65
 73
     4
 40
20.0
 49
12.5
 49
-2.5
 49
2.5
 49
-2.5
  0
LTYPE
  2
PHANTOM1
 70
    64
  3
--- - - --- - - --- - - --- - - 
 72
    65
 73
     6
 40
10.0
 49
3.25
 49
-1.25
 49
1.25
 49
-1.25
 49
1.25
 49
-1.25
  0
LTYPE
  2
PHANTOM2
 70
    64
  3
--------  -  -  --------  -  -  
 72
    65
 73
     6
 40
20.0
 49
10.0
 49
-2.5
 49
1.25
 49
-2.5
 49
1.25
 49
-2.5
  0
LTYPE
  2
DOT
 70
    64
  3
-   -   -   -   -   -   -   -   
 72
    65
 73
     2
 40
2.5
 49
0.625
 49
-1.875
  0
LTYPE
  2
DUMMY
 70
    64
  3
ダミー
 72
    65
 73
     0
 40
0.0
  0
LTYPE
  2
RAND1
 70
    64
  3
ランダム線1
 72
    65
 73
     4
 40
10.0
 49
1.0
 49
-2.0
 49
3.0
 49
-4.0
  0
LTYPE
  2
RAND2
 70
    64
  3
ランダム線2
 72
    65
 73
     4
 40
14.0
 49
2.0
 49
-3.0
 49
4.0
 49
-5.0
  0
LTYPE
  2
RAND3
 70
    64
  3
ランダム線3
 72
    65
 73
     4
 40
18.0
 49
3.0
 49
-4.0
 49
5.0
 49
-6.0
  0
LTYPE
  2
RAND4
 70
    64
  3
ランダム線4
 72
    65
 73
     4
 40
22.0
 49
4.0
 49
-5.0
 49
6.0
 49
-7.0
  0
LTYPE
  2
RAND5
 70
    64
  3
ランダム線5
 72
    65
 73
     4
 40
26.0
 49
5.0
 49
-6.0
 49
7.0
 49
-8.0
  0
LTYPE
  2
LONG1
 70
    64
  3
----------  --  ----------  --  
 72
    65
 73
     4
 40
40.0
 49
32.5
 49
-2.5
 49
2.5
 49
-2.5
  0
LTYPE
  2
LONG2
 70
    64
  3
--------  -  -  --------  -  -  
 72
    65
 73
     6
 40
40.0
 49
30.0
 49
-2.5
 49
1.25
 49
-2.5
 49
1.25
 49
-2.5
  0
LTYPE
  2
LONG3
 70
    64
  3
+++++++++++++++..+++++++++++++++
 72
    65
 73
     2
 40
40.0
 49
37.5
 49
-2.5
  0
LTYPE
  2
LONG4
 70
    64
  3
+++++++++++++++..+++++++++++++++
 72
    65
 73
     2
 40
80.0
 49
75.0
 49
-5.0
  0
LTYPE
  2
LONG5
 70
    64
  3
----------  --  ----------  --  
 72
    65
 73
     4
 40
60.0
 49
37.5
 49
-7.5
 49
7.5
 49
-7.5
  0
LTYPE
  2
dashed
 70
   64
  3
-------   -------------   ------
 72
   65
 73
    2
 40
7.5
 49
6
 49
-1.5
  0
LTYPE
  2
dashed_spaced
 70
   64
  3
----        --------        ----
 72
   65
 73
    2
 40
12
 49
6
 49
-6
  0
LTYPE
  2
long_dashed_dotted
 70
   64
  3
------------- --- --------------
 72
   65
 73
    4
 40
15.25
 49
12
 49
-1.5
 49
0.25
 49
-1.5
  0
LTYPE
  2
long_dashed_double-dotted
 70
   64
  3
----------- --- --- ------------
 72
   65
 73
    6
 40
17
 49
12
 49
-1.5
 49
0.25
 49
-1.5
 49
0.25
 49
-1.5
  0
LTYPE
  2
long_dashed_triplicate-dotted
 70
   64
  3
--------- --- --- --- ----------
 72
   65
 73
    8
 40
18.75
 49
12
 49
-1.5
 49
0.25
 49
-1.5
 49
0.25
 49
-1.5
 49
0.25
 49
-1.5
  0
LTYPE
  2
dotted
 70
   64
  3
   -       -       -       -    
 72
   65
 73
    2
 40
1.75
 49
0.25
 49
-1.5
  0
LTYPE
  2
chain
 70
   64
  3
-------------- -- --------------
 72
   65
 73
    4
 40
18.5
 49
12
 49
-1.5
 49
3.5
 49
-1.5
  0
LTYPE
  2
chain_double_dash
 70
   64
  3
------------ -- -- -------------
 72
   65
 73
    6
 40
23.5
 49
12
 49
-1.5
 49
3.5
 49
-1.5
 49
3.5
 49
-1.5
  0
LTYPE
  2
dashed_dotted
 70
   64
  3
-----------     -     ----------
 72
   65
 73
    4
 40
9.25
 49
6
 49
-1.5
 49
0.25
 49
-1.5
  0
LTYPE
  2
double-dashed_dotted
 70
   64
  3
------   -----------   -   -----
 72
   65
 73
    6
 40
16.75
 49
6
 49
-1.5
 49
6
 49
-1.5
 49
0.25
 49
-1.5
  0
LTYPE
  2
dashed_double-dotted
 70
   64
  3
---------    -    -    ---------
 72
   65
 73
    6
 40
11
 49
6
 49
-1.5
 49
0.25
 49
-1.5
 49
0.25
 49
-1.5
  0
LTYPE
  2
double-dashed_double-dotted
 70
   64
  3
-----   ---------   -   -   ----
 72
   65
 73
    8
 40
18.5
 49
6
 49
-1.5
 49
6
 49
-1.5
 49
0.25
 49
-1.5
 49
0.25
 49
-1.5
  0
LTYPE
  2
dashed_triplicate-dotted
 70
   64
  3
-------    -    -    -    ------
 72
   65
 73
    8
 40
12.75
 49
6
 49
-1.5
 49
0.25
 49
-1.5
 49
0.25
 49
-1.5
 49
0.25
 49
-1.5
  0
LTYPE
  2
double-dashed_triplicate-dotted
 70
   64
  3
-----  ---------  -  -  -  -----
 72
   65
 73
   10
 40
20.25
 49
6
 49
-1.5
 49
6
 49
-1.5
 49
0.25
 49
-1.5
 49
0.25
 49
-1.5
 49
0.25
 49
-1.5
  0
LTYPE
  2
undefined
 70
   64
  3
--------------------------------
 72
   65
 73
    0
 40
0
  0
ENDTAB
  0
TABLE
  2
STYLE
  5
3
100
AcDbSymbolTable
 70
     1
  0
STYLE
  5
10
100
AcDbSymbolTableRecord
100
AcDbTextStyleTableRecord
  2
STANDARD
 70
     0
 40
0.0
 41
1.0
 50
0.0
 71
     0
 42
0.2
  3
txt
  4
bigfont.shx
  0
STYLE
  5
26
100
AcDbSymbolTableRecord
100
AcDbTextStyleTableRecord
  2
TATEGAKI
 70
    68
 40
0.0
 41
1.0
 50
0.0
 71
     0
 42
1.0
  3
txt
  4
bigfont.shx
  0
ENDTAB
  0
TABLE
  2
LAYER
 70
    2
  0
LAYER
  2
_0-0_通り芯
 70
   64
 62
    7
  6
CONTINUOUS
  0
LAYER
  2
ADD_LINE
 70
   64
 62
    7
  6
CONTINUOUS
  0
ENDTAB
  0
ENDSEC
  0
SECTION
  2
BLOCKS
  0
ENDSEC
  0
SECTION
  2
ENTITIES
  0
TEXT
  8
_0-0_通り芯
 62
    7
 10
1995.0369841684944
 20
2480.113541510997
 40
28
 41
1
 50
0
  1
2%
  0
TEXT
  8
_0-0_通り芯
 62
    7
 10
2267.887294168494
 20
2658.6380619332813
 40
28
 41
1
 50
0
  1
180
  0
TEXT
  8
_0-0_通り芯
 62
    7
 10
2267.887294168494
 20
2707.0584619332813
 40
28
 41
1
 50
0
  1
205
  0
TEXT
  8
_0-0_通り芯
 62
    7
 10
1989.954224277983
 20
2556.0970415109969
 40
28
 41
1
 50
0
  1
195
  0
TEXT
  8
_0-0_通り芯
 62
    7
 10
2135.9542192779836
 20
2556.0970415109969
 40
28
 41
1
 50
0
  1
80
  0
TEXT
  8
_0-0_通り芯
 62
    7
 10
3061.6398200988287
 20
2430.0166415109961
 40
28
 41
1
 50
90
  1
5
  0
TEXT
  8
_0-0_通り芯
 62
    7
 10
3063.139920098829
 20
2504.016641510997
 40
28
 41
1
 50
90
  1
170
  0
TEXT
  8
_0-0_通り芯
 62
    7
 10
1821.9893009051993
 20
2990.6895788188981
 40
35
 41
1
 50
0
  1
断  面  図
  0
TEXT
  8
_0-0_通り芯
 62
    7
 10
2996.3364037677084
 20
2996.1643904872549
 40
35
 41
1
 50
0
  1
側  面  図
  0
TEXT
  8
_0-0_通り芯
 62
    7
 10
3391.0015200988291
 20
2749.5152619332812
 40
28
 41
1
 50
0
  1
500
  0
TEXT
  8
_0-0_通り芯
 62
    7
 10
2116.3867741684944
 20
2132.3411415109967
 40
28
 41
1
 50
0
  1
200
  0
TEXT
  8
_0-0_通り芯
 62
    7
 10
2078.1009041684938
 20
2289.5399415109969
 40
28
 41
1
 50
0
  1
80
  0
TEXT
  8
_0-0_通り芯
 62
    7
 10
2194.2885793700443
 20
2496.409443213242
 40
28
 41
1
 50
0
  1
62.5
  0
TEXT
  8
_0-0_通り芯
 62
    7
 10
2277.7400984500414
 20
2496.0257580680463
 40
28
 41
1
 50
0
  1
80
  0
TEXT
  8
_0-0_通り芯
 62
    7
 10
2334.1418147937629
 20
2495.8339154954488
 40
28
 41
1
 50
0
  1
62.5
  0
TEXT
  8
_0-0_通り芯
 62
    7
 10
2130.3872841684943
 20
2752.0151619332814
 40
28
 41
1
 50
0
  1
480
  0
TEXT
  8
_0-0_通り芯
 62
    7
 10
2683.4448157181509
 20
2281.2947422532311
 40
28
 41
1
 50
90
  1
626
  0
TEXT
  8
_0-0_通り芯
 62
    7
 10
2615.4661133640079
 20
2506.063032295157
 40
28
 41
1
 50
90
  1
170
  0
TEXT
  8
_0-0_通り芯
 62
    7
 10
2525.1816810613195
 20
2506.909216060164
 40
28
 41
1
 50
90
  1
150
  0
TEXT
  8
_0-0_通り芯
 62
    7
 10
2529.3043535450256
 20
2441.535409532823
 40
28
 41
1
 50
90
  1
20
  0
TEXT
  8
_0-0_通り芯
 62
    7
 10
2477.7709474986987
 20
2424.161289780061
 40
28
 41
1
 50
90
  1
5
  0
TEXT
  8
_0-0_通り芯
 62
    7
 10
2478.2335848663979
 20
2194.7625400896331
 40
28
 41
1
 50
90
  1
451
  0
TEXT
  8
_0-0_通り芯
 62
    7
 10
1945.4703117930223
 20
1931.8078922365985
 40
28
 41
1
 50
0
  1
90
  0
TEXT
  8
_0-0_通り芯
 62
    7
 10
2333.8015034662358
 20
1931.8078922365985
 40
28
 41
1
 50
0
  1
90
  0
TEXT
  8
_0-0_通り芯
 62
    7
 10
2139.2521811556435
 20
1931.8078922365985
 40
28
 41
1
 50
0
  1
300
  0
TEXT
  8
_0-0_通り芯
 62
    7
 10
1820.4569009436239
 20
2398.1327118061768
 40
28
 41
1
 50
90
  1
90
  0
TEXT
  8
_0-0_通り芯
 62
    7
 10
1820.4569009436239
 20
2010.5624045146992
 40
28
 41
1
 50
90
  1
90
  0
TEXT
  8
_0-0_通り芯
 62
    7
 10
1820.4569009436239
 20
2221.7259221929662
 40
28
 41
1
 50
90
  1
300
  0
TEXT
  8
_0-0_通り芯
 62
    7
 10
1741.1066349837786
 20
2214.5122616511617
 40
28
 41
1
 50
90
  1
480
  0
TEXT
  8
_0-0_通り芯
 62
    7
 10
3061.6398200988287
 20
2188.5165415109968
 40
28
 41
1
 50
90
  1
451
  0
TEXT
  8
_0-0_通り芯
 62
    7
 10
1309.8524890635997
 20
1234.3594483165416
 40
35
 41
1
 50
0
  1
名　称
  0
TEXT
  8
_0-0_通り芯
 62
    7
 10
1612.7323142633518
 20
1234.3594483165416
 40
35
 41
1
 50
0
  1
ｸﾘｰﾝ側溝　300HN
  0
TEXT
  8
_0-0_通り芯
 62
    7
 10
2095.6456019944249
 20
1234.3594483165416
 40
35
 41
1
 50
0
  1
分　類
  0
TEXT
  8
_0-0_通り芯
 62
    7
 10
2351.9285310095997
 20
1232.2414075808788
 40
35
 41
1
 50
0
  1
R部用
  0
TEXT
  8
_0-0_通り芯
 62
    7
 10
2968.2783850874171
 20
1232.2414075808788
 40
35
 41
1
 50
0
  1
参考重量
  0
TEXT
  8
_0-0_通り芯
 62
    7
 10
2635.7459895883885
 20
1236.4774890522042
 40
35
 41
1
 50
0
  1
図　番
  0
TEXT
  8
_0-0_通り芯
 62
    7
 10
3296.5746991151204
 20
1230.1233668452164
 40
35
 41
1
 50
0
  1
152㎏
  0
TEXT
  8
_0-0_通り芯
 62
    7
 10
3777.3699461105316
 20
1232.2414075808788
 40
35
 41
1
 50
0
  1
岩城ブロック工業株式会社
  0
LINE
  8
_0-0_通り芯
  6
CONTINUOUS
 62
    7
 10
1248.0044499999999
 20
1202.78387
 11
1248.0044499999999
 21
3352.7833999999993
  0
LINE
  8
_0-0_通り芯
  6
CONTINUOUS
 62
    7
 10
1248.0044499999999
 20
3352.7833999999993
 11
4448.0041000000001
 21
3352.7833999999993
  0
LINE
  8
_0-0_通り芯
  6
CONTINUOUS
 62
    7
 10
4448.0041000000001
 20
3352.7833999999993
 11
4448.0041000000001
 21
1202.78387
  0
LINE
  8
_0-0_通り芯
  6
CONTINUOUS
 62
    7
 10
4448.0041000000001
 20
1202.78387
 11
1248.0044499999999
 21
1202.78387
  0
LINE
  8
_0-0_通り芯
  6
CONTINUOUS
 62
    7
 10
4448.0041000000001
 20
1302.7837200000001
 11
1248.0044499999999
 21
1302.7837200000001
  0
LINE
  8
_0-0_通り芯
  6
CONTINUOUS
 62
    7
 10
2110.5211343874716
 20
2551.0970415109969
 11
2110.5211343874716
 21
2498.4419415109969
  0
ARC
  8
_0-0_通り芯
  6
CONTINUOUS
 62
    7
 10
2220.387314168494
 20
2288.0166415109966
 40
79.999995999999996
 50
0
 51
90
  0
LINE
  8
_0-0_通り芯
  6
CONTINUOUS
 62
    7
 10
1915.3873141684942
 20
2551.0970415109969
 11
1915.3873141684942
 21
2498.4419415109969
  0
LINE
  8
_0-0_通り芯
  6
CONTINUOUS
 62
    7
 10
2061.7030241684943
 20
2474.2544415109969
 11
1960.7250241684944
 21
2476.7012415109971
  0
LINE
  8
_0-0_通り芯
  6
CONTINUOUS
 62
    7
 10
2061.8406941684943
 20
2474.0773415109961
 11
2048.6363841684943
 21
2478.9818415109967
  0
LINE
  8
_0-0_通り芯
  6
CONTINUOUS
 62
    7
 10
2130.3873241684942
 20
2368.0166415109966
 11
2080.387314168494
 21
2368.0166415109966
  0
LINE
  8
_0-0_通り芯
  6
CONTINUOUS
 62
    7
 10
2022.9715841684938
 20
2343.7250415109966
 11
2068.5461141684941
 21
2306.8908415109968
  0
ARC
  8
_0-0_通り芯
  6
CONTINUOUS
 62
    7
 10
2080.387314168494
 20
2288.0166415109966
 40
79.999995999999996
 50
90
 51
180
  0
ARC
  8
_0-0_通り芯
  6
CONTINUOUS
 62
    7
 10
2186.6708241684942
 20
2250.7917415109969
 40
186.06079999999997
 50
177.15304
 51
258.77697000000001
  0
LINE
  8
_0-0_通り芯
  6
CONTINUOUS
 62
    7
 10
2000.3872941684942
 20
2288.0166415109966
 11
2000.3872941684942
 21
2260.6656415109965
  0
LINE
  8
_0-0_通り芯
  6
CONTINUOUS
 62
    7
 10
2220.387314168494
 20
2368.0166415109966
 11
2170.3873041684947
 21
2368.0166415109966
  0
LINE
  8
_0-0_通り芯
  6
CONTINUOUS
 62
    7
 10
2300.3871941684943
 20
2288.0166415109966
 11
2300.3871941684943
 21
2260.6656415109965
  0
ARC
  8
_0-0_通り芯
  6
CONTINUOUS
 62
    7
 10
2114.1037441684939
 20
2250.7917415109969
 40
186.06079999999997
 50
281.22300000000001
 51
2.8469238000000177
  0
LINE
  8
_0-0_通り芯
  6
CONTINUOUS
 62
    7
 10
2046.6865641684944
 20
2128.223241510997
 11
2110.053174168494
 21
2150.1904415109966
  0
LINE
  8
_0-0_通り芯
  6
CONTINUOUS
 62
    7
 10
2130.3873241684942
 20
2423.016641510997
 11
2130.3873241684942
 21
2403.0166415109966
  0
LINE
  8
_0-0_通り芯
  6
CONTINUOUS
 62
    7
 10
2170.3873041684947
 20
2423.016641510997
 11
2170.3873041684947
 21
2403.0166415109966
  0
LINE
  8
_0-0_通り芯
  6
CONTINUOUS
 62
    7
 10
2185.3873041684942
 20
2423.016641510997
 11
2170.3873041684947
 21
2423.016641510997
  0
LINE
  8
_0-0_通り芯
  6
CONTINUOUS
 62
    7
 10
1915.3873141684942
 20
2468.0166415109966
 11
2110.5211343874716
 21
2463.0166415109966
  0
LINE
  8
_0-0_通り芯
  6
CONTINUOUS
 62
    7
 10
2130.3873241684942
 20
2403.0166415109966
 11
2130.3873241684942
 21
2368.0166415109966
  0
LINE
  8
_0-0_通り芯
  6
CONTINUOUS
 62
    7
 10
2170.3873041684947
 20
2403.0166415109966
 11
2170.3873041684947
 21
2368.0166415109966
  0
LINE
  8
_0-0_通り芯
  6
CONTINUOUS
 62
    7
 10
1915.3873141684942
 20
2551.0970415109969
 11
2110.5211343874716
 21
2551.0970415109969
  0
POINT
  8
_0-0_通り芯
 62
    7
 10
1915.3873141684942
 20
2551.0970415109969
  0
POINT
  8
_0-0_通り芯
 62
    7
 10
2110.5211343874716
 20
2551.0970415109969
  0
LINE
  8
_0-0_通り芯
  6
CONTINUOUS
 62
    7
 10
1915.3873141684942
 20
2551.0970415109969
 11
1915.3873141684942
 21
2498.4419415109969
  0
LINE
  8
_0-0_通り芯
  6
CONTINUOUS
 62
    7
 10
2110.5211343874716
 20
2551.0970415109969
 11
2190.3873041684942
 21
2551.0970415109969
  0
POINT
  8
_0-0_通り芯
 62
    7
 10
2110.5211343874716
 20
2551.0970415109969
  0
POINT
  8
_0-0_通り芯
 62
    7
 10
2190.3873041684942
 20
2551.0970415109969
  0
LINE
  8
_0-0_通り芯
  6
CONTINUOUS
 62
    7
 10
2110.5211343874716
 20
2551.0970415109969
 11
2110.5211343874716
 21
2498.4419415109969
  0
LINE
  8
_0-0_通り芯
  6
CONTINUOUS
 62
    7
 10
2190.3873041684942
 20
2551.0970415109969
 11
2190.3873041684942
 21
2498.4419415109969
  0
LINE
  8
_0-0_通り芯
  6
CONTINUOUS
 62
    7
 10
2395.3873041684942
 20
2008.0166415109966
 11
2395.3873041684942
 21
2435.0166415109961
  0
LINE
  8
_0-0_通り芯
  6
CONTINUOUS
 62
    7
 10
1915.3873141684942
 20
2008.0166415109966
 11
1915.3873141684942
 21
2468.0166415109966
  0
LINE
  8
_0-0_通り芯
  6
CONTINUOUS
 62
    7
 10
1915.3873141684942
 20
2008.0166415109966
 11
1935.3874141684942
 21
1988.0165415109971
  0
LINE
  8
_0-0_通り芯
  6
CONTINUOUS
 62
    7
 10
1935.3874141684942
 20
1988.0165415109971
 11
2375.3872041684945
 21
1988.0165415109971
  0
LINE
  8
_0-0_通り芯
  6
CONTINUOUS
 62
    7
 10
2395.3873041684942
 20
2008.0166415109966
 11
2375.3872041684945
 21
1988.0165415109971
  0
LINE
  8
_0-0_通り芯
  6
CONTINUOUS
 62
    7
 10
2395.3873041684942
 20
2688.9145619332812
 11
2395.3873041684942
 21
2608.0343619332816
  0
LINE
  8
_0-0_通り芯
  6
CONTINUOUS
 62
    7
 10
2395.3873041684942
 20
2747.0152619332812
 11
1915.3873141684942
 21
2747.0152619332812
  0
LINE
  8
_0-0_通り芯
  6
CONTINUOUS
 62
    7
 10
2395.3873041684942
 20
2747.0152619332812
 11
2395.3873041684942
 21
2688.9145619332812
  0
LINE
  8
_0-0_通り芯
  6
CONTINUOUS
 62
    7
 10
2202.887314168494
 20
2653.6380619332813
 11
2382.8873041684942
 21
2653.6380619332813
  0
LINE
  8
_0-0_通り芯
  6
CONTINUOUS
 62
    7
 10
2395.3873041684942
 20
2702.0584619332813
 11
2190.3872841684943
 21
2702.0584619332813
  0
LINE
  8
_0-0_通り芯
  6
CONTINUOUS
 62
    7
 10
2190.3872841684943
 20
2702.0584619332813
 11
2190.3872841684943
 21
2573.6379619332811
  0
LINE
  8
_0-0_通り芯
  6
CONTINUOUS
 62
    7
 10
2395.3873041684942
 20
2638.5028619332807
 11
2395.3873041684942
 21
2573.6379619332811
  0
POINT
  8
_0-0_通り芯
 62
    7
 10
1915.3873141684942
 20
2747.0152619332812
  0
POINT
  8
_0-0_通り芯
 62
    7
 10
2395.3873041684942
 20
2747.0152619332812
  0
POINT
  8
_0-0_通り芯
 62
    7
 10
2202.887314168494
 20
2653.6380619332813
  0
POINT
  8
_0-0_通り芯
 62
    7
 10
2382.8873041684942
 20
2653.6380619332813
  0
POINT
  8
_0-0_通り芯
 62
    7
 10
2395.3873041684942
 20
2702.0584619332813
  0
POINT
  8
_0-0_通り芯
 62
    7
 10
2190.3872841684943
 20
2702.0584619332813
  0
LINE
  8
_0-0_通り芯
  6
CONTINUOUS
 62
    7
 10
1915.3873141684942
 20
2747.0152619332812
 11
1915.3873141684942
 21
2534.2916415109958
  0
LINE
  8
_0-0_通り芯
  6
CONTINUOUS
 62
    7
 10
2395.3873041684942
 20
2440.0166415109961
 11
2395.3873041684942
 21
2435.0166415109961
  0
LINE
  8
_0-0_通り芯
  6
CONTINUOUS
 62
    7
 10
2202.887314168494
 20
2653.6380619332813
 11
2202.887314168494
 21
2613.4230002066497
  0
LINE
  8
_0-0_通り芯
  6
CONTINUOUS
 62
    7
 10
2382.8873041684942
 20
2653.6380619332813
 11
2382.8873041684942
 21
2613.4230002066497
  0
ARC
  8
_0-0_通り芯
  6
CONTINUOUS
 62
    7
 10
2230.7624111103719
 20
2580.0166415109961
 40
30
 50
90
 51
175.79464299829144
  0
LINE
  8
_0-0_通り芯
  6
CONTINUOUS
 62
    7
 10
2355.0121972266161
 20
2610.0166415109961
 11
2230.7624111103719
 21
2610.0166415109961
  0
ARC
  8
_0-0_通り芯
  6
CONTINUOUS
 62
    7
 10
2355.0121972266161
 20
2580.0166415109961
 40
30
 50
4.205357001708574
 51
90
  0
LINE
  8
_0-0_通り芯
  6
CONTINUOUS
 62
    7
 10
2261.8158755970658
 20
2460.0166415109966
 11
2251.8158755970658
 21
2435.0166415109961
  0
LINE
  8
_0-0_通り芯
  6
CONTINUOUS
 62
    7
 10
2321.8158755970658
 20
2459.866406846264
 11
2331.8158755970658
 21
2435.0166415109961
  0
LINE
  8
_0-0_通り芯
  6
CONTINUOUS
 62
    7
 10
2261.8158755970658
 20
2460.0166415109966
 11
2321.8158755970658
 21
2459.866406846264
  0
LINE
  8
_0-0_通り芯
  6
CONTINUOUS
 62
    7
 10
2395.3873041684942
 20
2435.0166415109961
 11
2331.8158755970658
 21
2435.0166415109961
  0
LINE
  8
_0-0_通り芯
  6
CONTINUOUS
 62
    7
 10
2395.3873041684942
 20
2440.0166415109961
 11
2329.8037841617779
 21
2440.0166415109961
  0
LINE
  8
_0-0_通り芯
  6
CONTINUOUS
 62
    7
 10
2253.8158755970662
 20
2440.0166415109961
 11
2190.3873041684942
 21
2440.0166415109961
  0
LINE
  8
_0-0_通り芯
  6
CONTINUOUS
 62
    7
 10
2395.3873041684942
 20
2440.0166415109961
 11
2329.8037841617779
 21
2440.0166415109961
  0
LINE
  8
_0-0_通り芯
  6
CONTINUOUS
 62
    7
 10
2253.8158755970662
 20
2440.0166415109961
 11
2195.3510827049313
 21
2440.0166415109961
  0
LINE
  8
_0-0_通り芯
  6
CONTINUOUS
 62
    7
 10
2331.8158755970658
 20
2478.9369432768863
 11
2331.8158755970658
 21
2465.1882611425776
  0
POINT
  8
_0-0_通り芯
 62
    7
 10
2189.3158755970653
 20
2495.4143096745993
  0
LINE
  8
_0-0_通り芯
  6
CONTINUOUS
 62
    7
 10
2189.3158755970653
 20
2495.4143096745993
 11
2251.8158755970658
 21
2495.4143096745993
  0
LINE
  8
_0-0_通り芯
  6
CONTINUOUS
 62
    7
 10
2189.3158755970653
 20
2495.4143096745993
 11
2189.3158755970653
 21
2463.6741247708956
  0
LINE
  8
_0-0_通り芯
  6
CONTINUOUS
 62
    7
 10
2251.8158755970658
 20
2478.9369432768863
 11
2251.8158755970658
 21
2465.1882611425776
  0
LINE
  8
_0-0_通り芯
  6
CONTINUOUS
 62
    7
 10
2251.8158755970658
 20
2495.4143096745993
 11
2331.8158755970658
 21
2495.4143096745993
  0
POINT
  8
_0-0_通り芯
 62
    7
 10
2251.8158755970658
 20
2495.4143096745993
  0
LINE
  8
_0-0_通り芯
  6
CONTINUOUS
 62
    7
 10
2251.8158755970658
 20
2495.4143096745993
 11
2251.8158755970658
 21
2443.6685847584426
  0
LINE
  8
_0-0_通り芯
  6
CONTINUOUS
 62
    7
 10
2331.8158755970658
 20
2495.4143096745993
 11
2331.8158755970658
 21
2446.6574287006838
  0
POINT
  8
_0-0_通り芯
 62
    7
 10
2331.8158755970658
 20
2495.4143096745993
  0
LINE
  8
_0-0_通り芯
  6
CONTINUOUS
 62
    7
 10
2331.8158755970658
 20
2495.4143096745993
 11
2394.3158755970653
 21
2495.4143096745993
  0
LINE
  8
_0-0_通り芯
  6
CONTINUOUS
 62
    7
 10
2384.9314259853263
 20
2582.2165848020782
 11
2395.3873041684942
 21
2440.0166415109961
  0
POINT
  8
_0-0_通り芯
 62
    7
 10
2394.3158755970653
 20
2495.4143096745993
  0
LINE
  8
_0-0_通り芯
  6
CONTINUOUS
 62
    7
 10
2394.3158755970653
 20
2495.4143096745993
 11
2394.3158755970653
 21
2463.6741247708956
  0
LINE
  8
_0-0_通り芯
  6
CONTINUOUS
 62
    7
 10
3066.6398200988287
 20
1988.0165415109971
 11
3066.6398200988287
 21
2439.0165415109968
  0
LINE
  8
_0-0_通り芯
  6
CONTINUOUS
 62
    7
 10
3066.6398200988287
 20
1988.0165415109971
 11
3130.468420098829
 21
1988.0165415109971
  0
POINT
  8
_0-0_通り芯
 62
    7
 10
3066.6398200988287
 20
1988.0165415109971
  0
LINE
  8
_0-0_通り芯
  6
CONTINUOUS
 62
    7
 10
3150.3765200988291
 20
2008.0166415109966
 11
3170.3766200988289
 21
1988.0165415109971
  0
LINE
  8
_0-0_通り芯
  6
CONTINUOUS
 62
    7
 10
3150.3765200988291
 20
2008.0166415109966
 11
3150.3765200988291
 21
2610.0166415109961
  0
LINE
  8
_0-0_通り芯
  6
CONTINUOUS
 62
    7
 10
3066.6398200988287
 20
2435.0165415109964
 11
3130.468420098829
 21
2435.0165415109964
  0
LINE
  8
_0-0_通り芯
  6
CONTINUOUS
 62
    7
 10
3066.6398200988287
 20
2435.0165415109964
 11
3066.6398200988287
 21
2440.0166415109961
  0
LINE
  8
_0-0_通り芯
  6
CONTINUOUS
 62
    7
 10
3066.6398200988287
 20
2440.0166415109961
 11
3130.468420098829
 21
2440.0166415109961
  0
LINE
  8
_0-0_通り芯
  6
CONTINUOUS
 62
    7
 10
3066.6398200988287
 20
2610.0166415109961
 11
3066.6398200988287
 21
2440.0166415109961
  0
LINE
  8
_0-0_通り芯
  6
CONTINUOUS
 62
    7
 10
3066.6398200988287
 20
2610.0166415109961
 11
3130.468420098829
 21
2610.0166415109961
  0
LINE
  8
_0-0_通り芯
  6
CONTINUOUS
 62
    7
 10
3066.6398200988287
 20
2440.0166415109961
 11
3130.468420098829
 21
2440.0166415109961
  0
POINT
  8
_0-0_通り芯
 62
    7
 10
3066.6398200988287
 20
2435.0165415109964
  0
POINT
  8
_0-0_通り芯
 62
    7
 10
3066.6398200988287
 20
2440.0166415109961
  0
POINT
  8
_0-0_通り芯
 62
    7
 10
3066.6398200988287
 20
2610.0166415109961
  0
POINT
  8
_0-0_通り芯
 62
    7
 10
3066.6398200988287
 20
2440.0166415109961
  0
LINE
  8
_0-0_通り芯
  6
CONTINUOUS
 62
    7
 10
3150.3765200988291
 20
2610.0166415109961
 11
3650.3765200988287
 21
2610.0166415109961
  0
LINE
  8
_0-0_通り芯
  6
CONTINUOUS
 62
    7
 10
3150.3765200988291
 20
2440.0166415109961
 11
3650.3765200988287
 21
2440.0166415109961
  0
LINE
  8
_0-0_通り芯
  6
CONTINUOUS
 62
    7
 10
3150.3765200988291
 20
2435.0166415109961
 11
3650.3765200988287
 21
2435.0166415109961
  0
LINE
  8
_0-0_通り芯
  6
CONTINUOUS
 62
    7
 10
3150.3765200988291
 20
2368.0166415109966
 11
3650.3765200988287
 21
2368.0166415109966
  0
LINE
  8
_0-0_通り芯
  6
CONTINUOUS
 62
    7
 10
3650.3765200988287
 20
2078.0166415109966
 11
3150.3765200988291
 21
2078.0166415109966
  0
LINE
  8
_0-0_通り芯
  6
CONTINUOUS
 62
    7
 10
3650.3765200988287
 20
2008.0166415109966
 11
3630.3764200988289
 21
1988.0165415109971
  0
LINE
  8
_0-0_通り芯
  6
CONTINUOUS
 62
    7
 10
3650.3765200988287
 20
2440.0166415109961
 11
3650.3765200988287
 21
2008.0166415109966
  0
LINE
  8
_0-0_通り芯
  6
CONTINUOUS
 62
    7
 10
3630.3764200988289
 20
1988.0165415109971
 11
3170.3766200988289
 21
1988.0165415109971
  0
LINE
  8
_0-0_通り芯
  6
CONTINUOUS
 62
    7
 10
3150.3765200988291
 20
2459.866406846264
 11
3650.3765200988287
 21
2459.866406846264
  0
LINE
  8
_0-0_通り芯
  6
CONTINUOUS
 62
    7
 10
3650.3765200988287
 20
2459.866406846264
 11
3650.3765200988287
 21
2440.0166415109961
  0
LINE
  8
_0-0_通り芯
  6
CONTINUOUS
 62
    7
 10
3650.3765200988287
 20
2610.0166415109961
 11
3650.3765200988287
 21
2459.866406846264
  0
LINE
  8
_0-0_通り芯
  6
CONTINUOUS
 62
    7
 10
3150.3765200988291
 20
2747.0152619332812
 11
3150.3765200988291
 21
2618.3369565217399
  0
POINT
  8
_0-0_通り芯
 62
    7
 10
3150.3765200988291
 20
2747.0152619332812
  0
LINE
  8
_0-0_通り芯
  6
CONTINUOUS
 62
    7
 10
3150.3765200988291
 20
2747.0152619332812
 11
3650.3765200988287
 21
2747.0152619332812
  0
POINT
  8
_0-0_通り芯
 62
    7
 10
3650.3765200988287
 20
2747.0152619332812
  0
LINE
  8
_0-0_通り芯
  6
CONTINUOUS
 62
    7
 10
3650.3765200988287
 20
2747.0152619332812
 11
3650.3765200988287
 21
2618.3369565217399
  0
CIRCLE
  8
_0-0_通り芯
  6
CONTINUOUS
 62
    7
 10
1940.387314168494
 20
2286.342760938332
 40
15
  0
CIRCLE
  8
_0-0_通り芯
  6
CONTINUOUS
 62
    7
 10
2370.3873041684942
 20
2286.342760938332
 40
15
  0
LINE
  8
_0-0_通り芯
  6
CONTINUOUS
 62
    7
 10
2110.5211343874716
 20
2463.0166415109966
 11
2110.5211343874716
 21
2423.016641510997
  0
LINE
  8
_0-0_通り芯
  6
CONTINUOUS
 62
    7
 10
2130.3873241684942
 20
2423.016641510997
 11
2110.5211343874716
 21
2423.016641510997
  0
LINE
  8
_0-0_通り芯
  6
CONTINUOUS
 62
    7
 10
2106.5211343874716
 20
2463.0166415109966
 11
2106.5211343874716
 21
2423.016641510997
  0
LINE
  8
_0-0_通り芯
  6
CONTINUOUS
 62
    7
 10
2130.3873241684942
 20
2419.016641510997
 11
2110.5211343874716
 21
2419.016641510997
  0
LINE
  8
_0-0_通り芯
  6
CONTINUOUS
 62
    7
 10
2106.5211343874716
 20
2423.016641510997
 11
2106.5211343874716
 21
2419.016641510997
  0
LINE
  8
_0-0_通り芯
  6
CONTINUOUS
 62
    7
 10
2110.5211343874716
 20
2419.016641510997
 11
2106.5211343874716
 21
2419.016641510997
  0
LINE
  8
_0-0_通り芯
  6
CONTINUOUS
 62
    7
 10
2189.3873041684942
 20
2419.016641510997
 11
2170.3873041684947
 21
2419.016641510997
  0
LINE
  8
_0-0_通り芯
  6
CONTINUOUS
 62
    7
 10
2251.8158755970658
 20
2435.0166415109961
 11
2189.3873041684942
 21
2435.0166415109961
  0
LINE
  8
_0-0_通り芯
  6
CONTINUOUS
 62
    7
 10
2200.8431823516621
 20
2582.2165848020777
 11
2189.3873041684942
 21
2463.0166415109966
  0
LINE
  8
_0-0_通り芯
  6
CONTINUOUS
 62
    7
 10
2185.3873041684942
 20
2423.016641510997
 11
2185.3873041684942
 21
2463.0166415109966
  0
LINE
  8
_0-0_通り芯
  6
CONTINUOUS
 62
    7
 10
2185.3873041684942
 20
2463.0166415109966
 11
2189.3873041684942
 21
2463.0166415109966
  0
LINE
  8
_0-0_通り芯
  6
CONTINUOUS
 62
    7
 10
2189.3873041684942
 20
2419.016641510997
 11
2189.3873041684942
 21
2463.0166415109966
  0
LINE
  8
_0-0_通り芯
  6
CONTINUOUS
 62
    7
 10
2111.5211343874716
 20
2463.0166415109966
 11
2184.3873041684947
 21
2463.0166415109966
  0
LINE
  8
_0-0_通り芯
  6
CONTINUOUS
 62
    7
 10
2170.3873041684947
 20
2424.016641510997
 11
2130.3873241684942
 21
2424.016641510997
  0
LINE
  8
_0-0_通り芯
  6
CONTINUOUS
 62
    7
 10
2135.5211343874716
 20
2463.0166415109966
 11
2135.5211343874716
 21
2424.016641510997
  0
LINE
  8
_0-0_通り芯
  6
CONTINUOUS
 62
    7
 10
2160.5211343874716
 20
2463.0166415109966
 11
2160.5211343874716
 21
2424.016641510997
  0
LINE
  8
_0-0_通り芯
  6
CONTINUOUS
 62
    7
 10
2130.3873241684942
 20
2424.016641510997
 11
2111.5211343874716
 21
2424.016641510997
  0
LINE
  8
_0-0_通り芯
  6
CONTINUOUS
 62
    7
 10
2111.5211343874716
 20
2463.0166415109966
 11
2111.5211343874716
 21
2424.016641510997
  0
LINE
  8
_0-0_通り芯
  6
CONTINUOUS
 62
    7
 10
2184.3873041684947
 20
2424.016641510997
 11
2170.3873041684947
 21
2424.016641510997
  0
LINE
  8
_0-0_通り芯
  6
CONTINUOUS
 62
    7
 10
2184.3873041684947
 20
2424.016641510997
 11
2184.3873041684947
 21
2463.0166415109966
  0
LINE
  8
_0-0_通り芯
  6
CONTINUOUS
 62
    7
 10
1822.7349853055014
 20
2468.0166415109966
 11
1822.7349853055014
 21
2368.0166415109966
  0
POINT
  8
_0-0_通り芯
 62
    7
 10
1822.7349853055014
 20
2468.0166415109966
  0
POINT
  8
_0-0_通り芯
 62
    7
 10
1822.7349853055014
 20
2368.0166415109966
  0
LINE
  8
_0-0_通り芯
  6
CONTINUOUS
 62
    7
 10
1822.7349853055014
 20
2468.0166415109966
 11
1900.9199217227156
 21
2468.0166415109966
  0
LINE
  8
_0-0_通り芯
  6
CONTINUOUS
 62
    7
 10
1822.7349853055014
 20
2368.0166415109966
 11
1900.9199217227156
 21
2368.0166415109966
  0
LINE
  8
_0-0_通り芯
  6
CONTINUOUS
 62
    7
 10
1822.7349853055014
 20
2368.0166415109966
 11
1822.7349853055014
 21
2068.2889814932623
  0
POINT
  8
_0-0_通り芯
 62
    7
 10
1822.7349853055014
 20
2068.2889814932623
  0
LINE
  8
_0-0_通り芯
  6
CONTINUOUS
 62
    7
 10
1822.7349853055014
 20
2068.2889814932623
 11
1900.9199217227156
 21
2068.2889814932623
  0
LINE
  8
_0-0_通り芯
  6
CONTINUOUS
 62
    7
 10
1822.7349853055014
 20
2068.2889814932623
 11
1822.7349853055014
 21
1988.0165415109971
  0
POINT
  8
_0-0_通り芯
 62
    7
 10
1822.7349853055014
 20
1988.0165415109971
  0
LINE
  8
_0-0_通り芯
  6
CONTINUOUS
 62
    7
 10
1822.7349853055014
 20
1988.0165415109971
 11
1900.9199217227156
 21
1988.0165415109971
  0
LINE
  8
_0-0_通り芯
  6
CONTINUOUS
 62
    7
 10
1915.3873141684942
 20
2140.8144253503824
 11
2014.837660977749
 21
1988.0165415109971
  0
LINE
  8
_0-0_通り芯
  6
CONTINUOUS
 62
    7
 10
2395.3873041684942
 20
2140.8144253503824
 11
2295.936957357786
 21
1988.0165415109971
  0
LINE
  8
_0-0_通り芯
  6
CONTINUOUS
 62
    7
 10
1741.6152675285589
 20
2468.0166415109966
 11
1741.6152675285589
 21
1988.0165415109971
  0
POINT
  8
_0-0_通り芯
 62
    7
 10
1741.6152675285589
 20
2468.0166415109966
  0
POINT
  8
_0-0_通り芯
 62
    7
 10
1741.6152675285589
 20
1988.0165415109971
  0
LINE
  8
_0-0_通り芯
  6
CONTINUOUS
 62
    7
 10
1741.6152675285589
 20
2468.0166415109966
 11
1900.9199217227156
 21
2468.0166415109966
  0
LINE
  8
_0-0_通り芯
  6
CONTINUOUS
 62
    7
 10
1741.6152675285589
 20
1988.0165415109971
 11
1900.9199217227156
 21
1988.0165415109971
  0
LINE
  8
_0-0_通り芯
  6
CONTINUOUS
 62
    7
 10
1915.3873141684942
 20
1931.2727699783968
 11
2000.3873181684939
 21
1931.2727699783968
  0
POINT
  8
_0-0_通り芯
 62
    7
 10
1915.3873141684942
 20
1931.2727699783968
  0
POINT
  8
_0-0_通り芯
 62
    7
 10
2000.3873181684939
 20
1931.2727699783968
  0
LINE
  8
_0-0_通り芯
  6
CONTINUOUS
 62
    7
 10
1915.3873141684942
 20
1931.2727699783968
 11
1915.3873141684942
 21
1977.4991461805141
  0
LINE
  8
_0-0_通り芯
  6
CONTINUOUS
 62
    7
 10
2000.3873181684939
 20
1931.2727699783968
 11
2000.3873181684939
 21
1977.4991461805141
  0
LINE
  8
_0-0_通り芯
  6
CONTINUOUS
 62
    7
 10
2000.3873181684939
 20
1931.2727699783968
 11
2300.387310168494
 21
1931.2727699783968
  0
POINT
  8
_0-0_通り芯
 62
    7
 10
2300.387310168494
 20
1931.2727699783968
  0
LINE
  8
_0-0_通り芯
  6
CONTINUOUS
 62
    7
 10
2300.387310168494
 20
1931.2727699783968
 11
2300.387310168494
 21
1977.4991461805141
  0
LINE
  8
_0-0_通り芯
  6
CONTINUOUS
 62
    7
 10
2300.387310168494
 20
1931.2727699783968
 11
2395.3873041684942
 21
1931.2727699783968
  0
POINT
  8
_0-0_通り芯
 62
    7
 10
2395.3873041684942
 20
1931.2727699783968
  0
LINE
  8
_0-0_通り芯
  6
CONTINUOUS
 62
    7
 10
2395.3873041684942
 20
1931.2727699783968
 11
2395.3873041684942
 21
1977.4991461805141
  0
LINE
  8
_0-0_通り芯
  6
CONTINUOUS
 62
    7
 10
2652.8048970616819
 20
2610.0166415109961
 11
2652.8048970616819
 21
1988.0165415109971
  0
POINT
  8
_0-0_通り芯
 62
    7
 10
2652.8048970616819
 20
2610.0166415109961
  0
POINT
  8
_0-0_通り芯
 62
    7
 10
2652.8048970616819
 20
1988.0165415109971
  0
LINE
  8
_0-0_通り芯
  6
CONTINUOUS
 62
    7
 10
2652.8048970616819
 20
2610.0166415109961
 11
2415.2816109213945
 21
2610.0166415109961
  0
LINE
  8
_0-0_通り芯
  6
CONTINUOUS
 62
    7
 10
2652.8048970616819
 20
1988.0165415109971
 11
2415.2816109213945
 21
1988.0165415109971
  0
LINE
  8
_0-0_通り芯
  6
CONTINUOUS
 62
    7
 10
2582.517394020168
 20
2440.0166415109961
 11
2582.517394020168
 21
2610.0166415109961
  0
POINT
  8
_0-0_通り芯
 62
    7
 10
2582.517394020168
 20
2440.0166415109961
  0
POINT
  8
_0-0_通り芯
 62
    7
 10
2582.517394020168
 20
2610.0166415109961
  0
LINE
  8
_0-0_通り芯
  6
CONTINUOUS
 62
    7
 10
2582.517394020168
 20
2440.0166415109961
 11
2415.2816109213945
 21
2440.0166415109961
  0
LINE
  8
_0-0_通り芯
  6
CONTINUOUS
 62
    7
 10
2582.517394020168
 20
2610.0166415109961
 11
2415.2816109213945
 21
2610.0166415109961
  0
LINE
  8
_0-0_通り芯
  6
CONTINUOUS
 62
    7
 10
2495.5267011489082
 20
2610.0166415109961
 11
2495.5267011489082
 21
2459.866406846264
  0
POINT
  8
_0-0_通り芯
 62
    7
 10
2495.5267011489082
 20
2610.0166415109961
  0
POINT
  8
_0-0_通り芯
 62
    7
 10
2495.5267011489082
 20
2459.866406846264
  0
LINE
  8
_0-0_通り芯
  6
CONTINUOUS
 62
    7
 10
2495.5267011489082
 20
2610.0166415109961
 11
2415.2816109213945
 21
2610.0166415109961
  0
LINE
  8
_0-0_通り芯
  6
CONTINUOUS
 62
    7
 10
2495.5267011489082
 20
2459.866406846264
 11
2415.2816109213945
 21
2459.866406846264
  0
LINE
  8
_0-0_通り芯
  6
CONTINUOUS
 62
    7
 10
2495.5267011489082
 20
2440.0166415109961
 11
2495.5267011489082
 21
2459.866406846264
  0
POINT
  8
_0-0_通り芯
 62
    7
 10
2495.5267011489082
 20
2440.0166415109961
  0
LINE
  8
_0-0_通り芯
  6
CONTINUOUS
 62
    7
 10
2495.5267011489082
 20
2440.0166415109961
 11
2415.2816109213945
 21
2440.0166415109961
  0
LINE
  8
_0-0_通り芯
  6
CONTINUOUS
 62
    7
 10
2446.4598534502074
 20
2440.0166415109961
 11
2446.4598534502074
 21
2435.0166415109961
  0
POINT
  8
_0-0_通り芯
 62
    7
 10
2446.4598534502074
 20
2440.0166415109961
  0
POINT
  8
_0-0_通り芯
 62
    7
 10
2446.4598534502074
 20
2435.0166415109961
  0
LINE
  8
_0-0_通り芯
  6
CONTINUOUS
 62
    7
 10
2446.4598534502074
 20
2440.0166415109961
 11
2415.2816109213945
 21
2440.0166415109961
  0
LINE
  8
_0-0_通り芯
  6
CONTINUOUS
 62
    7
 10
2446.4598534502074
 20
2435.0166415109961
 11
2415.2816109213945
 21
2435.0166415109961
  0
LINE
  8
_0-0_通り芯
  6
CONTINUOUS
 62
    7
 10
2446.4598534502074
 20
2435.0166415109961
 11
2446.4598534502074
 21
1988.0165415109971
  0
POINT
  8
_0-0_通り芯
 62
    7
 10
2446.4598534502074
 20
1988.0165415109971
  0
LINE
  8
_0-0_通り芯
  6
CONTINUOUS
 62
    7
 10
2446.4598534502074
 20
1988.0165415109971
 11
2415.2816109213945
 21
1988.0165415109971
  0
LINE
  8
_0-0_通り芯
  6
CONTINUOUS
 62
    7
 10
1507.3678924118503
 20
1302.7837200000001
 11
1507.3678924118503
 21
1202.78387
  0
LINE
  8
_0-0_通り芯
  6
CONTINUOUS
 62
    7
 10
2000.9173107249435
 20
1302.7837200000001
 11
2000.9173107249435
 21
1202.78387
  0
LINE
  8
_0-0_通り芯
  6
CONTINUOUS
 62
    7
 10
2275.4359220943561
 20
1302.7837200000001
 11
2275.4359220943561
 21
1202.78387
  0
LINE
  8
_0-0_通り芯
  6
CONTINUOUS
 62
    7
 10
2538.2728904267728
 20
1302.7837200000001
 11
2538.2728904267728
 21
1202.78387
  0
LINE
  8
_0-0_通り芯
  6
CONTINUOUS
 62
    7
 10
2850.7568416664235
 20
1302.7837200000001
 11
2850.7568416664235
 21
1202.78387
  0
LINE
  8
_0-0_通り芯
  6
CONTINUOUS
 62
    7
 10
3172.0020251838214
 20
1302.7837200000001
 11
3172.0020251838214
 21
1202.78387
  0
LINE
  8
_0-0_通り芯
  6
CONTINUOUS
 62
    7
 10
3452.3614580717326
 20
1302.7837200000001
 11
3452.3614580717326
 21
1202.78387
  0
ENDSEC
  0
EOF
