  0
SECTION
  2
HEADER
  9
$ACADVER
  1
AC1009
  9
$INSBASE
 10
0
 20
0
 30
0
  9
$EXTMIN
 10
0
 20
0
  9
$EXTMAX
 10
5940
 20
4200
  9
$LIMMIN
 10
0
 20
0
  9
$LIMMAX
 10
5940
 20
4200
  9
$LTSCALE
 40
10
  0
ENDSEC
  0
SECTION
  2
TABLES
  0
TABLE
  2
LTYPE
 70
     9
  0
LTYPE
  2
CONTINUOUS
 70
    64
  3
実線
 72
    65
 73
     0
 40
0.0
  0
LTYPE
  2
DASHED1
 70
    64
  3
--  --  --  --  --  --  --  --  
 72
    65
 73
     2
 40
2.5
 49
1.25
 49
-1.25
  0
LTYPE
  2
DASHED2
 70
    64
  3
----    ----    ----    ----    
 72
    65
 73
     2
 40
5.0
 49
2.5
 49
-2.5
  0
LTYPE
  2
DASHED3
 70
    64
  3
------  ------  ------  ------  
 72
    65
 73
     2
 40
5.0
 49
3.75
 49
-1.25
  0
LTYPE
  2
CENTER1
 70
    64
  3
----- - ----- - ----- - ----- - 
 72
    65
 73
     4
 40
10.0
 49
6.25
 49
-1.25
 49
1.25
 49
-1.25
  0
LTYPE
  2
CENTER2
 70
    64
  3
----------  --  ----------  --  
 72
    65
 73
     4
 40
20.0
 49
12.5
 49
-2.5
 49
2.5
 49
-2.5
  0
LTYPE
  2
PHANTOM1
 70
    64
  3
--- - - --- - - --- - - --- - - 
 72
    65
 73
     6
 40
10.0
 49
3.25
 49
-1.25
 49
1.25
 49
-1.25
 49
1.25
 49
-1.25
  0
LTYPE
  2
PHANTOM2
 70
    64
  3
--------  -  -  --------  -  -  
 72
    65
 73
     6
 40
20.0
 49
10.0
 49
-2.5
 49
1.25
 49
-2.5
 49
1.25
 49
-2.5
  0
LTYPE
  2
DOT
 70
    64
  3
-   -   -   -   -   -   -   -   
 72
    65
 73
     2
 40
2.5
 49
0.625
 49
-1.875
  0
LTYPE
  2
DUMMY
 70
    64
  3
ダミー
 72
    65
 73
     0
 40
0.0
  0
LTYPE
  2
RAND1
 70
    64
  3
ランダム線1
 72
    65
 73
     4
 40
10.0
 49
1.0
 49
-2.0
 49
3.0
 49
-4.0
  0
LTYPE
  2
RAND2
 70
    64
  3
ランダム線2
 72
    65
 73
     4
 40
14.0
 49
2.0
 49
-3.0
 49
4.0
 49
-5.0
  0
LTYPE
  2
RAND3
 70
    64
  3
ランダム線3
 72
    65
 73
     4
 40
18.0
 49
3.0
 49
-4.0
 49
5.0
 49
-6.0
  0
LTYPE
  2
RAND4
 70
    64
  3
ランダム線4
 72
    65
 73
     4
 40
22.0
 49
4.0
 49
-5.0
 49
6.0
 49
-7.0
  0
LTYPE
  2
RAND5
 70
    64
  3
ランダム線5
 72
    65
 73
     4
 40
26.0
 49
5.0
 49
-6.0
 49
7.0
 49
-8.0
  0
LTYPE
  2
LONG1
 70
    64
  3
----------  --  ----------  --  
 72
    65
 73
     4
 40
40.0
 49
32.5
 49
-2.5
 49
2.5
 49
-2.5
  0
LTYPE
  2
LONG2
 70
    64
  3
--------  -  -  --------  -  -  
 72
    65
 73
     6
 40
40.0
 49
30.0
 49
-2.5
 49
1.25
 49
-2.5
 49
1.25
 49
-2.5
  0
LTYPE
  2
LONG3
 70
    64
  3
+++++++++++++++..+++++++++++++++
 72
    65
 73
     2
 40
40.0
 49
37.5
 49
-2.5
  0
LTYPE
  2
LONG4
 70
    64
  3
+++++++++++++++..+++++++++++++++
 72
    65
 73
     2
 40
80.0
 49
75.0
 49
-5.0
  0
LTYPE
  2
LONG5
 70
    64
  3
----------  --  ----------  --  
 72
    65
 73
     4
 40
60.0
 49
37.5
 49
-7.5
 49
7.5
 49
-7.5
  0
LTYPE
  2
dashed
 70
   64
  3
-------   -------------   ------
 72
   65
 73
    2
 40
7.5
 49
6
 49
-1.5
  0
LTYPE
  2
dashed_spaced
 70
   64
  3
----        --------        ----
 72
   65
 73
    2
 40
12
 49
6
 49
-6
  0
LTYPE
  2
long_dashed_dotted
 70
   64
  3
------------- --- --------------
 72
   65
 73
    4
 40
15.25
 49
12
 49
-1.5
 49
0.25
 49
-1.5
  0
LTYPE
  2
long_dashed_double-dotted
 70
   64
  3
----------- --- --- ------------
 72
   65
 73
    6
 40
17
 49
12
 49
-1.5
 49
0.25
 49
-1.5
 49
0.25
 49
-1.5
  0
LTYPE
  2
long_dashed_triplicate-dotted
 70
   64
  3
--------- --- --- --- ----------
 72
   65
 73
    8
 40
18.75
 49
12
 49
-1.5
 49
0.25
 49
-1.5
 49
0.25
 49
-1.5
 49
0.25
 49
-1.5
  0
LTYPE
  2
dotted
 70
   64
  3
   -       -       -       -    
 72
   65
 73
    2
 40
1.75
 49
0.25
 49
-1.5
  0
LTYPE
  2
chain
 70
   64
  3
-------------- -- --------------
 72
   65
 73
    4
 40
18.5
 49
12
 49
-1.5
 49
3.5
 49
-1.5
  0
LTYPE
  2
chain_double_dash
 70
   64
  3
------------ -- -- -------------
 72
   65
 73
    6
 40
23.5
 49
12
 49
-1.5
 49
3.5
 49
-1.5
 49
3.5
 49
-1.5
  0
LTYPE
  2
dashed_dotted
 70
   64
  3
-----------     -     ----------
 72
   65
 73
    4
 40
9.25
 49
6
 49
-1.5
 49
0.25
 49
-1.5
  0
LTYPE
  2
double-dashed_dotted
 70
   64
  3
------   -----------   -   -----
 72
   65
 73
    6
 40
16.75
 49
6
 49
-1.5
 49
6
 49
-1.5
 49
0.25
 49
-1.5
  0
LTYPE
  2
dashed_double-dotted
 70
   64
  3
---------    -    -    ---------
 72
   65
 73
    6
 40
11
 49
6
 49
-1.5
 49
0.25
 49
-1.5
 49
0.25
 49
-1.5
  0
LTYPE
  2
double-dashed_double-dotted
 70
   64
  3
-----   ---------   -   -   ----
 72
   65
 73
    8
 40
18.5
 49
6
 49
-1.5
 49
6
 49
-1.5
 49
0.25
 49
-1.5
 49
0.25
 49
-1.5
  0
LTYPE
  2
dashed_triplicate-dotted
 70
   64
  3
-------    -    -    -    ------
 72
   65
 73
    8
 40
12.75
 49
6
 49
-1.5
 49
0.25
 49
-1.5
 49
0.25
 49
-1.5
 49
0.25
 49
-1.5
  0
LTYPE
  2
double-dashed_triplicate-dotted
 70
   64
  3
-----  ---------  -  -  -  -----
 72
   65
 73
   10
 40
20.25
 49
6
 49
-1.5
 49
6
 49
-1.5
 49
0.25
 49
-1.5
 49
0.25
 49
-1.5
 49
0.25
 49
-1.5
  0
LTYPE
  2
undefined
 70
   64
  3
--------------------------------
 72
   65
 73
    0
 40
0
  0
LTYPE
  2
_
 70
   64
  3
                                
 72
   65
 73
    0
 40
0
  0
LTYPE
  2
__18
 70
   64
  3
                                
 72
   65
 73
    0
 40
0
  0
LTYPE
  2
__19
 70
   64
  3
                                
 72
   65
 73
    0
 40
0
  0
LTYPE
  2
__20
 70
   64
  3
                                
 72
   65
 73
    0
 40
0
  0
LTYPE
  2
__21
 70
   64
  3
                                
 72
   65
 73
    0
 40
0
  0
LTYPE
  2
__22
 70
   64
  3
                                
 72
   65
 73
    0
 40
0
  0
LTYPE
  2
__23
 70
   64
  3
                                
 72
   65
 73
    0
 40
0
  0
LTYPE
  2
__24
 70
   64
  3
                                
 72
   65
 73
    0
 40
0
  0
LTYPE
  2
__25
 70
   64
  3
                                
 72
   65
 73
    0
 40
0
  0
LTYPE
  2
__26
 70
   64
  3
                                
 72
   65
 73
    0
 40
0
  0
LTYPE
  2
__27
 70
   64
  3
                                
 72
   65
 73
    0
 40
0
  0
LTYPE
  2
__28
 70
   64
  3
                                
 72
   65
 73
    0
 40
0
  0
LTYPE
  2
__29
 70
   64
  3
                                
 72
   65
 73
    0
 40
0
  0
LTYPE
  2
__30
 70
   64
  3
                                
 72
   65
 73
    0
 40
0
  0
LTYPE
  2
__31
 70
   64
  3
                                
 72
   65
 73
    0
 40
0
  0
LTYPE
  2
__32
 70
   64
  3
                                
 72
   65
 73
    0
 40
0
  0
ENDTAB
  0
TABLE
  2
STYLE
  5
3
100
AcDbSymbolTable
 70
     1
  0
STYLE
  5
10
100
AcDbSymbolTableRecord
100
AcDbTextStyleTableRecord
  2
STANDARD
 70
     0
 40
0.0
 41
1.0
 50
0.0
 71
     0
 42
0.2
  3
txt
  4
bigfont.shx
  0
STYLE
  5
26
100
AcDbSymbolTableRecord
100
AcDbTextStyleTableRecord
  2
TATEGAKI
 70
    68
 40
0.0
 41
1.0
 50
0.0
 71
     0
 42
1.0
  3
txt
  4
bigfont.shx
  0
ENDTAB
  0
TABLE
  2
LAYER
 70
    3
  0
LAYER
  2
_0-0_
 70
   64
 62
    7
  6
CONTINUOUS
  0
LAYER
  2
_0-1_ADD_LINE
 70
   64
 62
    7
  6
CONTINUOUS
  0
LAYER
  2
ADD_LINE
 70
   64
 62
    7
  6
CONTINUOUS
  0
ENDTAB
  0
ENDSEC
  0
SECTION
  2
BLOCKS
  0
ENDSEC
  0
SECTION
  2
ENTITIES
  0
TEXT
  8
_0-0_
 62
    7
 10
2531.3196986490866
 20
2330.1128920172864
 40
30
 41
1
 50
0
  1
80
  0
TEXT
  8
_0-0_
 62
    7
 10
2882.6129788285198
 20
2164.4990230328776
 40
30
 41
1
 50
90
  1
Ｈ40～110
  0
TEXT
  8
_0-0_
 62
    7
 10
3906.6643488458431
 20
2434.5515559089158
 40
30
 41
1
 50
0
  1
2000
  0
TEXT
  8
_0-0_
 62
    7
 10
2522.4893592023996
 20
2399.4941305269708
 40
30
 41
1
 50
0
  1
480
  0
TEXT
  8
_0-0_
 62
    7
 10
2400.1260840125924
 20
2330.1128920172864
 40
30
 41
1
 50
0
  1
200
  0
TEXT
  8
_0-0_
 62
    7
 10
2644.8526343922072
 20
2331.3743690810988
 40
30
 41
1
 50
0
  1
200
  0
TEXT
  8
_0-0_
 62
    7
 10
2230.0069022239136
 20
1975.229486471972
 40
30
 41
1
 50
90
  1
480
  0
TEXT
  8
_0-0_
 62
    7
 10
2298.1530435612399
 20
2112.2390969501757
 40
30
 41
1
 50
90
  1
90
  0
TEXT
  8
_0-0_
 62
    7
 10
2298.1530435612399
 20
1970.9255196506672
 40
30
 41
1
 50
90
  1
300
  0
TEXT
  8
_0-0_
 62
    7
 10
2299.5876991683413
 20
1831.0465979582605
 40
30
 41
1
 50
90
  1
90
  0
TEXT
  8
_0-0_
 62
    7
 10
2389.4557280211029
 20
1722.6638366615866
 40
30
 41
1
 50
0
  1
90
  0
TEXT
  8
_0-0_
 62
    7
 10
2539.796244528452
 20
1722.6638366615866
 40
30
 41
1
 50
0
  1
300
  0
TEXT
  8
_0-0_
 62
    7
 10
2673.5824120271263
 20
1723.0016805189064
 40
30
 41
1
 50
0
  1
90
  0
TEXT
  8
_0-0_
 62
    7
 10
2532.0258358100946
 20
1677.7306036380419
 40
30
 41
1
 50
0
  1
480
  0
TEXT
  8
_0-0_
 62
    7
 10
2490.0133505607491
 20
2040.4444583028144
 40
30
 41
1
 50
-30.618605409999997
  1
80
  0
TEXT
  8
_0-0_
 62
    7
 10
2531.251464097279
 20
1956.9372783913411
 40
30
 41
1
 50
29.966741869999996
  1
200
  0
TEXT
  8
_0-0_
 62
    7
 10
2838.0007592791926
 20
2113.5801192831832
 40
30
 41
1
 50
90
  1
90
  0
TEXT
  8
_0-0_
 62
    7
 10
2837.8555534459747
 20
1955.0585425665454
 40
30
 41
1
 50
90
  1
300
  0
TEXT
  8
_0-0_
 62
    7
 10
2837.8555534459747
 20
1821.308513698566
 40
30
 41
1
 50
90
  1
90
  0
LINE
  8
_0-0_
  6
CONTINUOUS
 62
    7
 10
2842.8555534459747
 20
2275.1218829255572
 11
2740.944493215824
 21
2275.1218829255572
  0
LINE
  8
_0-0_
  6
CONTINUOUS
 62
    7
 10
2643.1945047630147
 20
1752.6518313920892
 11
2443.1944016630887
 21
1752.6518313920892
  0
LINE
  8
_0-0_
  6
CONTINUOUS
 62
    7
 10
2683.1943892910977
 20
1805.1218169416043
 11
2403.1944552750506
 21
1805.1218169416043
  0
LINE
  8
_0-0_
  6
CONTINUOUS
 62
    7
 10
2363.1944470270564
 20
1845.1218251895984
 11
2363.1944470270564
 21
2165.1217674536401
  0
LINE
  8
_0-0_
  6
CONTINUOUS
 62
    7
 10
4263.1353913893881
 20
1025.0001649598807
 11
4263.1353913893881
 21
1124.9999999999989
  0
LINE
  8
_0-0_
  6
CONTINUOUS
 62
    7
 10
2913.1358862690327
 20
1025.0001649598807
 11
2913.1358862690327
 21
1124.9999999999989
  0
LINE
  8
_0-0_
  6
CONTINUOUS
 62
    7
 10
3083.1357048131626
 20
1025.0001649598807
 11
3083.1357048131626
 21
1124.9999999999989
  0
LINE
  8
_0-0_
  6
CONTINUOUS
 62
    7
 10
4033.1356223332214
 20
1025.0001649598807
 11
4033.1356223332214
 21
1124.9999999999989
  0
LINE
  8
_0-0_
  6
CONTINUOUS
 62
    7
 10
3803.1358532770564
 20
1025.0001649598807
 11
3803.1358532770564
 21
1124.9999999999989
  0
LINE
  8
_0-0_
  6
CONTINUOUS
 62
    7
 10
3633.1357872931039
 20
1025.0001649598807
 11
3633.1357872931039
 21
1124.9999999999989
  0
LINE
  8
_0-0_
  6
CONTINUOUS
 62
    7
 10
3463.135473869329
 20
1025.0001649598807
 11
3463.135473869329
 21
1124.9999999999989
  0
LINE
  8
_0-0_
  6
CONTINUOUS
 62
    7
 10
2133.1357872931035
 20
1025.0001649598807
 11
2133.1357872931035
 21
1124.9999999999989
  0
LINE
  8
_0-0_
  6
CONTINUOUS
 62
    7
 10
1953.1359357569972
 20
1025.0001649598807
 11
1953.1359357569972
 21
3174.9998350401193
  0
LINE
  8
_0-0_
  6
CONTINUOUS
 62
    7
 10
5173.1359192610089
 20
3174.9998350401193
 11
5173.1359192610089
 21
1025.0001649598807
  0
LINE
  8
_0-0_
  6
CONTINUOUS
 62
    7
 10
1953.1359357569972
 20
3174.9998350401193
 11
5173.1359192610089
 21
3174.9998350401193
  0
LINE
  8
_0-0_
  6
CONTINUOUS
 62
    7
 10
5173.1359192610089
 20
1124.9999999999989
 11
1953.1359357569972
 21
1124.9999999999989
  0
LINE
  8
_0-0_
  6
CONTINUOUS
 62
    7
 10
5173.1359192610089
 20
1025.0001649598807
 11
1953.1359357569972
 21
1025.0001649598807
  0
LINE
  8
_0-0_
  6
CONTINUOUS
 62
    7
 10
4936.3298230036198
 20
1845.1217014696863
 11
2936.3299054835597
 21
1845.1217014696863
  0
LINE
  8
_0-0_
  6
CONTINUOUS
 62
    7
 10
2936.3299054835597
 20
1845.1217014696863
 11
2976.3299137315539
 21
1805.1218169416043
  0
LINE
  8
_0-0_
  6
CONTINUOUS
 62
    7
 10
4896.3299384755364
 20
1805.1218169416043
 11
2976.3299137315539
 21
1805.1218169416043
  0
LINE
  8
_0-0_
  6
CONTINUOUS
 62
    7
 10
4896.3299384755364
 20
1805.1218169416043
 11
4936.3298230036198
 21
1845.1217014696863
  0
LINE
  8
_0-0_
  6
CONTINUOUS
 62
    7
 10
4936.3298230036198
 20
1895.1218664295679
 11
2936.3299054835597
 21
1895.1218664295679
  0
LINE
  8
_0-0_
  6
CONTINUOUS
 62
    7
 10
2443.1944016630887
 20
2035.1218334375922
 11
2443.1944016630887
 21
2007.7708252027951
  0
LINE
  8
_0-0_
  6
CONTINUOUS
 62
    7
 10
2643.1945047630147
 20
2035.1218334375922
 11
2643.1945047630147
 21
2007.7708252027951
  0
LINE
  8
_0-0_
  6
CONTINUOUS
 62
    7
 10
2299.3299813651047
 20
1805.1218169416043
 11
2299.3299813651047
 21
1885.1218334375922
  0
LINE
  8
_0-0_
  6
CONTINUOUS
 62
    7
 10
2299.3299813651047
 20
1885.1218334375922
 11
2299.3299813651047
 21
2085.121874677563
  0
LINE
  8
_0-0_
  6
CONTINUOUS
 62
    7
 10
2299.3299813651047
 20
2085.121874677563
 11
2299.3299813651047
 21
2165.1217674536401
  0
LINE
  8
_0-0_
  6
CONTINUOUS
 62
    7
 10
2229.6014393465243
 20
2165.1217674536401
 11
2229.6014393465243
 21
1805.1218169416043
  0
LINE
  8
_0-0_
  6
CONTINUOUS
 62
    7
 10
2363.1944470270564
 20
1752.6518313920892
 11
2443.1944016630887
 21
1752.6518313920892
  0
LINE
  8
_0-0_
  6
CONTINUOUS
 62
    7
 10
2643.1945047630147
 20
1752.6518313920892
 11
2723.1943975390914
 21
1752.6518313920892
  0
LINE
  8
_0-0_
  6
CONTINUOUS
 62
    7
 10
2363.1944470270564
 20
1707.9540543914561
 11
2723.1943975390914
 21
1707.9540543914561
  0
LINE
  8
_0-0_
  6
CONTINUOUS
 62
    7
 10
2523.1944800190327
 20
2085.121874677563
 11
2493.1945047630147
 21
2085.121874677563
  0
LINE
  8
_0-0_
  6
CONTINUOUS
 62
    7
 10
2593.1944635230434
 20
2085.121874677563
 11
2563.1944882670268
 21
2085.121874677563
  0
LINE
  8
_0-0_
  6
CONTINUOUS
 62
    7
 10
2363.4313706572293
 20
2014.8468618106922
 11
2403.269182101486
 21
2005.1431380063223
  0
LINE
  8
_0-0_
  6
CONTINUOUS
 62
    7
 10
2363.1760127602702
 20
1955.090268364218
 11
2403.269182101486
 21
1965.0499686651051
  0
LINE
  8
_0-0_
  6
CONTINUOUS
 62
    7
 10
2403.3080301536397
 20
1965.0593713783651
 11
2403.3080301536397
 21
2005.1337352930611
  0
LINE
  8
_0-0_
  6
CONTINUOUS
 62
    7
 10
2722.9575976288297
 20
2014.8468618106922
 11
2683.1197861845726
 21
2005.1431380063223
  0
LINE
  8
_0-0_
  6
CONTINUOUS
 62
    7
 10
2723.2129555257898
 20
1955.090268364218
 11
2683.1197861845726
 21
1965.0499686651051
  0
LINE
  8
_0-0_
  6
CONTINUOUS
 62
    7
 10
2683.0809381324184
 20
1965.0593713783651
 11
2683.0809381324184
 21
2005.1337352930611
  0
LINE
  8
_0-0_
  6
CONTINUOUS
 62
    7
 10
2363.1944470270564
 20
1845.1218251895984
 11
2403.1944552750506
 21
1805.1218169416043
  0
LINE
  8
_0-0_
  6
CONTINUOUS
 62
    7
 10
2683.1943892910977
 20
1805.1218169416043
 11
2723.1943975390914
 21
1845.1218251895984
  0
LINE
  8
_0-0_
  6
CONTINUOUS
 62
    7
 10
2723.1943975390914
 20
1845.1218251895984
 11
2723.1943975390914
 21
2165.1217674536401
  0
LINE
  8
_0-0_
  6
CONTINUOUS
 62
    7
 10
2229.6014393465243
 20
2165.1217674536401
 11
2326.1486846814587
 21
2165.1217674536401
  0
LINE
  8
_0-0_
  6
CONTINUOUS
 62
    7
 10
2299.3299813651047
 20
2165.1217674536401
 11
2356.5432027346687
 21
2165.1217674536401
  0
LINE
  8
_0-0_
  6
CONTINUOUS
 62
    7
 10
2299.3299813651047
 20
2085.121874677563
 11
2356.5432027346687
 21
2085.121874677563
  0
LINE
  8
_0-0_
  6
CONTINUOUS
 62
    7
 10
2299.3299813651047
 20
1885.1218334375922
 11
2356.5432027346687
 21
1885.1218334375922
  0
LINE
  8
_0-0_
  6
CONTINUOUS
 62
    7
 10
2299.3299813651047
 20
1805.1218169416043
 11
2356.5432027346687
 21
1805.1218169416043
  0
LINE
  8
_0-0_
  6
CONTINUOUS
 62
    7
 10
2229.6014393465243
 20
1805.1218169416043
 11
2326.1486846814587
 21
1805.1218169416043
  0
LINE
  8
_0-0_
  6
CONTINUOUS
 62
    7
 10
2363.1944470270564
 20
1752.6518313920892
 11
2363.1944470270564
 21
1797.3497321126342
  0
LINE
  8
_0-0_
  6
CONTINUOUS
 62
    7
 10
2363.1944470270564
 20
1707.9540543914561
 11
2363.1944470270564
 21
1763.3793374626132
  0
LINE
  8
_0-0_
  6
CONTINUOUS
 62
    7
 10
2443.1944016630887
 20
1752.6518313920892
 11
2443.1944016630887
 21
1797.3497321126342
  0
LINE
  8
_0-0_
  6
CONTINUOUS
 62
    7
 10
2643.1945047630147
 20
1752.6518313920892
 11
2643.1945047630147
 21
1797.3497321126342
  0
LINE
  8
_0-0_
  6
CONTINUOUS
 62
    7
 10
2723.1943975390914
 20
1752.6518313920892
 11
2723.1943975390914
 21
1797.3497321126342
  0
LINE
  8
_0-0_
  6
CONTINUOUS
 62
    7
 10
2723.1943975390914
 20
1707.9540543914561
 11
2723.1943975390914
 21
1763.3793374626132
  0
LINE
  8
_0-0_
  6
CONTINUOUS
 62
    7
 10
2787.4302703748172
 20
2165.1217674536401
 11
2739.1566167773726
 21
2165.1217674536401
  0
LINE
  8
_0-0_
  6
CONTINUOUS
 62
    7
 10
2842.8555534459747
 20
2165.1217674536401
 11
2740.944493215824
 21
2165.1217674536401
  0
LINE
  8
_0-0_
  6
CONTINUOUS
 62
    7
 10
2563.1946119869376
 20
2125.1217592056464
 11
2583.1945542509802
 21
2125.1217592056464
  0
LINE
  8
_0-0_
  6
CONTINUOUS
 62
    7
 10
2503.194537754991
 20
2233.1221897509372
 11
2583.1945542509802
 21
2233.1221897509372
  0
LINE
  8
_0-0_
  6
CONTINUOUS
 62
    7
 10
2515.1946268333268
 20
2235.1219983974743
 11
2515.1946268333268
 21
2263.12179384722
  0
LINE
  8
_0-0_
  6
CONTINUOUS
 62
    7
 10
2515.1946268333268
 20
2263.12179384722
 11
2571.1944651726426
 21
2263.12179384722
  0
LINE
  8
_0-0_
  6
CONTINUOUS
 62
    7
 10
2505.194593841351
 20
2235.1219983974743
 11
2515.1946268333268
 21
2235.1219983974743
  0
LINE
  8
_0-0_
  6
CONTINUOUS
 62
    7
 10
2571.1944651726426
 20
2235.1219983974743
 11
2571.1944651726426
 21
2263.12179384722
  0
LINE
  8
_0-0_
  6
CONTINUOUS
 62
    7
 10
2571.1944651726426
 20
2235.1219983974743
 11
2581.1944981646193
 21
2235.1219983974743
  0
LINE
  8
_0-0_
  6
CONTINUOUS
 62
    7
 10
2517.1946829196877
 20
2235.1219983974743
 11
2517.1946829196877
 21
2261.1219852006839
  0
LINE
  8
_0-0_
  6
CONTINUOUS
 62
    7
 10
2569.194409086283
 20
2235.1219983974743
 11
2569.194409086283
 21
2261.1219852006839
  0
LINE
  8
_0-0_
  6
CONTINUOUS
 62
    7
 10
2527.1947159116639
 20
2245.1220313894514
 11
2559.1943760943068
 21
2245.1220313894514
  0
LINE
  8
_0-0_
  6
CONTINUOUS
 62
    7
 10
2559.1943760943068
 20
2245.1220313894514
 11
2559.1943760943068
 21
2261.1219852006839
  0
LINE
  8
_0-0_
  6
CONTINUOUS
 62
    7
 10
2527.1947159116639
 20
2245.1220313894514
 11
2527.1947159116639
 21
2261.1219852006839
  0
LINE
  8
_0-0_
  6
CONTINUOUS
 62
    7
 10
2517.1946829196877
 20
2235.1219983974743
 11
2569.194409086283
 21
2235.1219983974743
  0
LINE
  8
_0-0_
  6
CONTINUOUS
 62
    7
 10
2517.1946829196877
 20
2261.1219852006839
 11
2527.1947159116639
 21
2261.1219852006839
  0
LINE
  8
_0-0_
  6
CONTINUOUS
 62
    7
 10
2559.1943760943068
 20
2261.1219852006839
 11
2569.194409086283
 21
2261.1219852006839
  0
LINE
  8
_0-0_
  6
CONTINUOUS
 62
    7
 10
2503.194537754991
 20
2125.1217592056464
 11
2523.1944800190327
 21
2125.1217592056464
  0
LINE
  8
_0-0_
  6
CONTINUOUS
 62
    7
 10
2523.1944800190327
 20
2125.1217592056464
 11
2503.194537754991
 21
2125.1217592056464
  0
LINE
  8
_0-0_
  6
CONTINUOUS
 62
    7
 10
2523.1944800190327
 20
2125.1217592056464
 11
2523.1944800190327
 21
2085.121874677563
  0
LINE
  8
_0-0_
  6
CONTINUOUS
 62
    7
 10
2563.1944882670268
 20
2085.121874677563
 11
2563.1944882670268
 21
2125.1217592056464
  0
LINE
  8
_0-0_
  6
CONTINUOUS
 62
    7
 10
2583.1945542509802
 20
2125.1217592056464
 11
2563.1944882670268
 21
2125.1217592056464
  0
LINE
  8
_0-0_
  6
CONTINUOUS
 62
    7
 10
2723.1943975390914
 20
2165.1217674536401
 11
2583.1945542509802
 21
2165.1217674536401
  0
LINE
  8
_0-0_
  6
CONTINUOUS
 62
    7
 10
2503.194537754991
 20
2165.1217674536401
 11
2363.1944470270564
 21
2165.1217674536401
  0
LINE
  8
_0-0_
  6
CONTINUOUS
 62
    7
 10
2363.1944470270564
 20
2330.9146141333272
 11
2363.1944470270564
 21
2178.559234461663
  0
LINE
  8
_0-0_
  6
CONTINUOUS
 62
    7
 10
2723.1943975390914
 20
2330.9146141333272
 11
2723.1943975390914
 21
2178.559234461663
  0
LINE
  8
_0-0_
  6
CONTINUOUS
 62
    7
 10
2363.1944470270564
 20
2398.0668127186309
 11
2363.1944470270564
 21
2330.9146141333272
  0
LINE
  8
_0-0_
  6
CONTINUOUS
 62
    7
 10
2723.1943975390914
 20
2398.0668127186309
 11
2723.1943975390914
 21
2330.9146141333272
  0
LINE
  8
_0-0_
  6
CONTINUOUS
 62
    7
 10
2591.1945311565955
 20
2171.121811992808
 11
2591.1945311565955
 21
2275.1218829255572
  0
LINE
  8
_0-0_
  6
CONTINUOUS
 62
    7
 10
2583.1945542509802
 20
2125.1217592056464
 11
2583.1945542509802
 21
2275.1218829255572
  0
LINE
  8
_0-0_
  6
CONTINUOUS
 62
    7
 10
2495.1945608493747
 20
2171.121811992808
 11
2495.1945608493747
 21
2275.1218829255572
  0
LINE
  8
_0-0_
  6
CONTINUOUS
 62
    7
 10
2503.194537754991
 20
2125.1217592056464
 11
2503.194537754991
 21
2275.1218829255572
  0
LINE
  8
_0-0_
  6
CONTINUOUS
 62
    7
 10
2495.1945608493747
 20
2275.1218829255572
 11
2503.194537754991
 21
2275.1218829255572
  0
LINE
  8
_0-0_
  6
CONTINUOUS
 62
    7
 10
2583.1945542509802
 20
2275.1218829255572
 11
2591.1945311565955
 21
2275.1218829255572
  0
LINE
  8
_0-0_
  6
CONTINUOUS
 62
    7
 10
2505.194593841351
 20
2235.1219983974743
 11
2505.194593841351
 21
2275.1218829255572
  0
LINE
  8
_0-0_
  6
CONTINUOUS
 62
    7
 10
2581.1944981646193
 20
2235.1219983974743
 11
2581.1944981646193
 21
2275.1218829255572
  0
LINE
  8
_0-0_
  6
CONTINUOUS
 62
    7
 10
2505.194593841351
 20
2275.1218829255572
 11
2581.1944981646193
 21
2275.1218829255572
  0
LINE
  8
_0-0_
  6
CONTINUOUS
 62
    7
 10
2503.194537754991
 20
2330.9146141333272
 11
2503.194537754991
 21
2282.4488235136055
  0
LINE
  8
_0-0_
  6
CONTINUOUS
 62
    7
 10
2583.1945542509802
 20
2330.9146141333272
 11
2583.1945542509802
 21
2282.4488235136055
  0
LINE
  8
_0-0_
  6
CONTINUOUS
 62
    7
 10
2842.8555534459747
 20
2165.1217674536401
 11
2740.944493215824
 21
2165.1217674536401
  0
LINE
  8
_0-0_
  6
CONTINUOUS
 62
    7
 10
2363.1944470270564
 20
2398.0668127186309
 11
2723.1943975390914
 21
2398.0668127186309
  0
LINE
  8
_0-0_
  6
CONTINUOUS
 62
    7
 10
2363.1944470270564
 20
2330.9146141333272
 11
2503.194537754991
 21
2330.9146141333272
  0
LINE
  8
_0-0_
  6
CONTINUOUS
 62
    7
 10
2583.1945542509802
 20
2330.9146141333272
 11
2723.1943975390914
 21
2330.9146141333272
  0
LINE
  8
_0-0_
  6
CONTINUOUS
 62
    7
 10
2503.194537754991
 20
2330.9146141333272
 11
2583.1945542509802
 21
2330.9146141333272
  0
LINE
  8
_0-0_
  6
CONTINUOUS
 62
    7
 10
2842.8555534459747
 20
2165.1217674536401
 11
2842.8555534459747
 21
2275.1218829255572
  0
LINE
  8
_0-0_
  6
CONTINUOUS
 62
    7
 10
3036.8442916348477
 20
2015.6031616285761
 11
3076.3298724915826
 21
2006.1267113012964
  0
LINE
  8
_0-0_
  6
CONTINUOUS
 62
    7
 10
3036.3161313334326
 20
1955.3879384708484
 11
3076.3298724915826
 21
1966.05803850252
  0
LINE
  8
_0-0_
  6
CONTINUOUS
 62
    7
 10
3076.3298724915826
 20
1966.05803850252
 11
3076.3298724915826
 21
2006.1267113012964
  0
LINE
  8
_0-0_
  6
CONTINUOUS
 62
    7
 10
3036.3298642435898
 20
1995.6179420339822
 11
2936.3299054835597
 21
1995.6179420339822
  0
LINE
  8
_0-0_
  6
CONTINUOUS
 62
    7
 10
3036.3298642435898
 20
1975.6178760500293
 11
2936.3299054835597
 21
1975.6178760500293
  0
LINE
  8
_0-0_
  6
CONTINUOUS
 62
    7
 10
3036.3298642435898
 20
1955.6178100660761
 11
3036.3298642435898
 21
1975.6178760500293
  0
LINE
  8
_0-0_
  6
CONTINUOUS
 62
    7
 10
3036.3298642435898
 20
1995.6179420339822
 11
3036.3298642435898
 21
2015.7266341000714
  0
LINE
  8
_0-0_
  6
CONTINUOUS
 62
    7
 10
4835.6443322149798
 20
2015.6031616285761
 11
4796.1586276383323
 21
2006.1267113012964
  0
LINE
  8
_0-0_
  6
CONTINUOUS
 62
    7
 10
4836.1726162363047
 20
1955.3879384708484
 11
4796.1586276383323
 21
1966.05803850252
  0
LINE
  8
_0-0_
  6
CONTINUOUS
 62
    7
 10
4796.1586276383323
 20
1966.05803850252
 11
4796.1586276383323
 21
2006.1267113012964
  0
LINE
  8
_0-0_
  6
CONTINUOUS
 62
    7
 10
4836.1587596062363
 20
1995.6179420339822
 11
4936.1585946463565
 21
1995.6179420339822
  0
LINE
  8
_0-0_
  6
CONTINUOUS
 62
    7
 10
4836.1587596062363
 20
1975.6178760500293
 11
4936.1585946463565
 21
1975.6178760500293
  0
LINE
  8
_0-0_
  6
CONTINUOUS
 62
    7
 10
4836.1587596062363
 20
1955.6178100660761
 11
4836.1587596062363
 21
1975.6178760500293
  0
LINE
  8
_0-0_
  6
CONTINUOUS
 62
    7
 10
4836.1587596062363
 20
1995.6179420339822
 11
4836.1587596062363
 21
2015.7266341000714
  0
LINE
  8
_0-0_
  6
CONTINUOUS
 62
    7
 10
4061.3895384808161
 20
2020.1217839496271
 11
3811.3897034406964
 21
2020.1217839496271
  0
LINE
  8
_0-0_
  6
CONTINUOUS
 62
    7
 10
4061.3895384808161
 20
2065.1219324135213
 11
3811.3897034406964
 21
2065.1219324135213
  0
LINE
  8
_0-0_
  6
CONTINUOUS
 62
    7
 10
3811.3897034406964
 20
2020.1217839496271
 11
3811.3897034406964
 21
2065.1219324135213
  0
LINE
  8
_0-0_
  6
CONTINUOUS
 62
    7
 10
4061.3895384808161
 20
2020.1217839496271
 11
4061.3895384808161
 21
2065.1219324135213
  0
LINE
  8
_0-0_
  6
CONTINUOUS
 62
    7
 10
3811.5648908351213
 20
2065.1221798533429
 11
3821.4624837405281
 21
2055.407692416688
  0
LINE
  8
_0-0_
  6
CONTINUOUS
 62
    7
 10
3821.6458366491006
 20
2055.0412340393659
 11
3831.543429554506
 21
2040.1945972414351
  0
LINE
  8
_0-0_
  6
CONTINUOUS
 62
    7
 10
3831.543429554506
 20
2040.1945972414351
 11
3811.7479963038713
 21
2020.2160585220522
  0
LINE
  8
_0-0_
  6
CONTINUOUS
 62
    7
 10
4061.2009893359673
 20
2065.1622651046109
 11
4046.3808285990585
 21
2055.132539333918
  0
LINE
  8
_0-0_
  6
CONTINUOUS
 62
    7
 10
4046.3808285990585
 20
2055.132539333918
 11
4036.351102828366
 21
2040.1624300644921
  0
LINE
  8
_0-0_
  6
CONTINUOUS
 62
    7
 10
4036.351102828366
 20
2040.1624300644921
 11
4061.2009893359673
 21
2020.2526796158022
  0
LINE
  8
_0-0_
  6
CONTINUOUS
 62
    7
 10
4046.3736528442023
 20
2055.1218994215451
 11
3821.5921422075889
 21
2055.1218994215451
  0
LINE
  8
_0-0_
  6
CONTINUOUS
 62
    7
 10
4036.3238844478769
 20
2040.1218499335803
 11
3831.5919277597422
 21
2040.1218499335803
  0
LINE
  8
_0-0_
  6
CONTINUOUS
 62
    7
 10
2936.3299054835597
 20
2085.121874677563
 11
4936.1585946463565
 21
2085.121874677563
  0
LINE
  8
_0-0_
  6
CONTINUOUS
 62
    7
 10
2936.3299054835597
 20
2165.1217674536401
 11
4936.1585946463565
 21
2165.1217674536401
  0
LINE
  8
_0-1_ADD_LINE
  6
CONTINUOUS
 62
    7
 10
2936.3299054835597
 20
2285.1219159175339
 11
2936.3299054835597
 21
2301.4452735769505
  0
LINE
  8
_0-0_
  6
CONTINUOUS
 62
    7
 10
2936.3299054835597
 20
2433.3037281008101
 11
4936.3298230036198
 21
2433.3037281008101
  0
LINE
  8
_0-0_
  6
CONTINUOUS
 62
    7
 10
2936.3299054835597
 20
2301.4452735769505
 11
2936.3299054835597
 21
2433.3037281008101
  0
LINE
  8
_0-0_
  6
CONTINUOUS
 62
    7
 10
4936.3298230036198
 20
2301.4452735769505
 11
4936.3298230036198
 21
2433.3037281008101
  0
LINE
  8
_0-0_
  6
CONTINUOUS
 62
    7
 10
2936.3299054835597
 20
1845.1217014696863
 11
2936.3299054835597
 21
2275.1218829255572
  0
LINE
  8
_0-0_
  6
CONTINUOUS
 62
    7
 10
4936.3298230036198
 20
1845.1217014696863
 11
4936.3298230036198
 21
2275.1218829255572
  0
LINE
  8
_0-0_
  6
CONTINUOUS
 62
    7
 10
2936.3299054835597
 20
2275.1218829255572
 11
4936.3298230036198
 21
2275.1218829255572
  0
LINE
  8
_0-0_
  6
CONTINUOUS
 62
    7
 10
2445.1945814693595
 20
2171.121811992808
 11
2445.1945814693595
 21
2181.1218449847829
  0
LINE
  8
_0-0_
  6
CONTINUOUS
 62
    7
 10
2480.1945113614106
 20
2171.121811992808
 11
2480.1945113614106
 21
2181.1218449847829
  0
LINE
  8
_0-0_
  6
CONTINUOUS
 62
    7
 10
2445.1945814693595
 20
2181.1218449847829
 11
2480.1945113614106
 21
2181.1218449847829
  0
LINE
  8
_0-0_
  6
CONTINUOUS
 62
    7
 10
2606.1945806445606
 20
2171.121811992808
 11
2606.1945806445606
 21
2181.1218449847829
  0
LINE
  8
_0-0_
  6
CONTINUOUS
 62
    7
 10
2641.1945723965659
 20
2171.121811992808
 11
2641.1945723965659
 21
2181.1218449847829
  0
LINE
  8
_0-0_
  6
CONTINUOUS
 62
    7
 10
2606.1945806445606
 20
2181.1218449847829
 11
2641.1945723965659
 21
2181.1218449847829
  0
ARC
  8
_0-0_
  6
CONTINUOUS
 62
    7
 10
2493.1945047630147
 20
2035.1218334375922
 40
49.999998711250917
 50
90
 51
180
  0
ARC
  8
_0-0_
  6
CONTINUOUS
 62
    7
 10
2593.1944635230434
 20
2035.1218334375922
 40
49.999998711250917
 50
0
 51
90
  0
ARC
  8
_0-0_
  6
CONTINUOUS
 62
    7
 10
2562.3731117757898
 20
2002.3387787764862
 40
118.9435417587693
 50
177.4610748291027
 51
260.59165954589849
  0
ARC
  8
_0-0_
  6
CONTINUOUS
 62
    7
 10
2524.0158565102697
 20
2002.3387787764862
 40
118.9435417587693
 50
279.40830993652361
 51
2.5388946533193
  0
CIRCLE
  8
_0-0_
  6
CONTINUOUS
 62
    7
 10
2383.3502763793576
 20
1984.9688743872332
 40
10.01177478480983
  0
CIRCLE
  8
_0-0_
  6
CONTINUOUS
 62
    7
 10
2703.0386919067018
 20
1984.9688743872332
 40
10.01177478480983
  0
POINT
  8
_0-0_
 62
    7
 10
2842.8555534459747
 20
2165.1217674536401
  0
POINT
  8
_0-0_
 62
    7
 10
2363.1944470270564
 20
2330.9146141333272
  0
POINT
  8
_0-0_
 62
    7
 10
2363.1944470270564
 20
2398.0668127186309
  0
POINT
  8
_0-0_
 62
    7
 10
2503.194537754991
 20
2330.9146141333272
  0
POINT
  8
_0-0_
 62
    7
 10
2583.1945542509802
 20
2330.9146141333272
  0
POINT
  8
_0-0_
 62
    7
 10
2723.1943975390914
 20
2398.0668127186309
  0
POINT
  8
_0-0_
 62
    7
 10
2723.1943975390914
 20
2330.9146141333272
  0
POINT
  8
_0-0_
 62
    7
 10
2842.8555534459747
 20
2275.1218829255572
  0
POINT
  8
_0-0_
 62
    7
 10
2842.8555534459747
 20
2165.1217674536401
  0
POINT
  8
_0-0_
 62
    7
 10
2723.1943975390914
 20
1752.6518313920892
  0
POINT
  8
_0-0_
 62
    7
 10
2723.1943975390914
 20
1707.9540543914561
  0
POINT
  8
_0-0_
 62
    7
 10
2643.1945047630147
 20
1752.6518313920892
  0
POINT
  8
_0-0_
 62
    7
 10
2443.1944016630887
 20
1752.6518313920892
  0
POINT
  8
_0-0_
 62
    7
 10
2363.1944470270564
 20
1752.6518313920892
  0
POINT
  8
_0-0_
 62
    7
 10
2363.1944470270564
 20
1707.9540543914561
  0
POINT
  8
_0-0_
 62
    7
 10
2299.3299813651047
 20
1805.1218169416043
  0
POINT
  8
_0-0_
 62
    7
 10
2229.6014393465243
 20
1805.1218169416043
  0
POINT
  8
_0-0_
 62
    7
 10
2299.3299813651047
 20
1885.1218334375922
  0
POINT
  8
_0-0_
 62
    7
 10
2299.3299813651047
 20
2085.121874677563
  0
POINT
  8
_0-0_
 62
    7
 10
2299.3299813651047
 20
2165.1217674536401
  0
POINT
  8
_0-0_
 62
    7
 10
2229.6014393465243
 20
2165.1217674536401
  0
POINT
  8
_0-0_
 62
    7
 10
2936.3299054835597
 20
2433.3037281008101
  0
POINT
  8
_0-0_
 62
    7
 10
4936.3298230036198
 20
2433.3037281008101
  0
LINE
  8
_0-0_
  6
CONTINUOUS
 62
    7
 10
2463.2085767620042
 20
2056.9397037174263
 11
2492.1008324876857
 21
2048.8627266169365
  0
LINE
  8
_0-0_
  6
CONTINUOUS
 62
    7
 10
2463.2085767620042
 20
2056.9397037174263
 11
2484.1915156428358
 21
2035.4987084997763
  0
LINE
  8
_0-0_
  6
CONTINUOUS
 62
    7
 10
2480.7347750150298
 20
1927.0396460773566
 11
2595.1705400789006
 21
1993.0206277358047
  0
LINE
  8
_0-0_
  6
CONTINUOUS
 62
    7
 10
2480.7347750150298
 20
1927.0396460773566
 11
2501.9602883741322
 21
1948.2405324419065
  0
LINE
  8
_0-0_
  6
CONTINUOUS
 62
    7
 10
2480.7347750150298
 20
1927.0396460773566
 11
2509.7170519746537
 21
1934.7873955722528
  0
LINE
  8
_0-0_
  6
CONTINUOUS
 62
    7
 10
2463.2085767620042
 20
2056.9397037174263
 11
2527.4373837937846
 21
2018.9267362904545
  0
LINE
  8
_0-0_
  6
CONTINUOUS
 62
    7
 10
2430.1945814693595
 20
2165.1217674536401
 11
2430.1945814693595
 21
2171.121811992808
  0
LINE
  8
_0-0_
  6
CONTINUOUS
 62
    7
 10
2430.1945814693595
 20
2171.121811992808
 11
2495.1945608493747
 21
2171.121811992808
  0
LINE
  8
_0-0_
  6
CONTINUOUS
 62
    7
 10
2495.1945608493747
 20
2171.121811992808
 11
2495.1945608493747
 21
2165.1217674536401
  0
LINE
  8
_0-0_
  6
CONTINUOUS
 62
    7
 10
2455.1945814693595
 20
2165.1217674536401
 11
2455.1945814693595
 21
2171.121811992808
  0
LINE
  8
_0-0_
  6
CONTINUOUS
 62
    7
 10
2470.1945608493747
 20
2171.121811992808
 11
2470.1945608493747
 21
2165.1217674536401
  0
LINE
  8
_0-0_
  6
CONTINUOUS
 62
    7
 10
2455.1945814693595
 20
2165.1217674536401
 11
2455.1945814693595
 21
2125.1217674536401
  0
LINE
  8
_0-0_
  6
CONTINUOUS
 62
    7
 10
2470.1945608493747
 20
2165.1217674536401
 11
2470.1945608493747
 21
2125.1217674536401
  0
LINE
  8
_0-0_
  6
CONTINUOUS
 62
    7
 10
2455.1945814693595
 20
2125.1217674536401
 11
2470.1945608493747
 21
2125.1217674536401
  0
LINE
  8
_0-0_
  6
CONTINUOUS
 62
    7
 10
2591.1945311565955
 20
2171.121811992808
 11
2591.1945311565955
 21
2165.1217674536401
  0
LINE
  8
_0-0_
  6
CONTINUOUS
 62
    7
 10
2616.1945311565955
 20
2171.121811992808
 11
2616.1945311565955
 21
2165.1217674536401
  0
LINE
  8
_0-0_
  6
CONTINUOUS
 62
    7
 10
2656.1945723965659
 20
2171.121811992808
 11
2656.1945723965659
 21
2165.1217674536401
  0
LINE
  8
_0-0_
  6
CONTINUOUS
 62
    7
 10
2631.1945723965659
 20
2165.1217674536401
 11
2631.1945723965659
 21
2171.121811992808
  0
LINE
  8
_0-0_
  6
CONTINUOUS
 62
    7
 10
2591.1945311565955
 20
2171.121811992808
 11
2656.1945723965659
 21
2171.121811992808
  0
LINE
  8
_0-0_
  6
CONTINUOUS
 62
    7
 10
2616.1945311565955
 20
2165.1217674536401
 11
2616.1945311565955
 21
2125.1217674536401
  0
LINE
  8
_0-0_
  6
CONTINUOUS
 62
    7
 10
2631.1945723965659
 20
2165.1217674536401
 11
2631.1945723965659
 21
2125.1217674536401
  0
LINE
  8
_0-0_
  6
CONTINUOUS
 62
    7
 10
2616.1945311565955
 20
2125.1217674536401
 11
2631.1945723965659
 21
2125.1217674536401
  0
LINE
  8
_0-0_
  6
CONTINUOUS
 62
    7
 10
2842.8555534459747
 20
2165.1217674536401
 11
2842.8555534459747
 21
2085.121874677563
  0
POINT
  8
_0-0_
 62
    7
 10
2842.8555534459747
 20
2165.1217674536401
  0
POINT
  8
_0-0_
 62
    7
 10
2842.8555534459747
 20
2085.121874677563
  0
LINE
  8
_0-0_
  6
CONTINUOUS
 62
    7
 10
2842.8555534459747
 20
2165.1217674536401
 11
2740.944493215824
 21
2165.1217674536401
  0
LINE
  8
_0-0_
  6
CONTINUOUS
 62
    7
 10
2842.8555534459747
 20
2085.121874677563
 11
2740.944493215824
 21
2085.121874677563
  0
LINE
  8
_0-0_
  6
CONTINUOUS
 62
    7
 10
2842.8555534459747
 20
2085.121874677563
 11
2842.8555534459747
 21
1884.9952104555277
  0
POINT
  8
_0-0_
 62
    7
 10
2842.8555534459747
 20
1884.9952104555277
  0
LINE
  8
_0-0_
  6
CONTINUOUS
 62
    7
 10
2842.8555534459747
 20
1884.9952104555277
 11
2740.944493215824
 21
1884.9952104555277
  0
LINE
  8
_0-0_
  6
CONTINUOUS
 62
    7
 10
2842.8555534459747
 20
1884.9952104555277
 11
2842.8555534459747
 21
1805.1218169416043
  0
POINT
  8
_0-0_
 62
    7
 10
2842.8555534459747
 20
1805.1218169416043
  0
LINE
  8
_0-0_
  6
CONTINUOUS
 62
    7
 10
2842.8555534459747
 20
1805.1218169416043
 11
2740.944493215824
 21
1805.1218169416043
  0
TEXT
  8
_0-0_
 62
    7
 10
1995.4760915704178
 20
1055.8019260675505
 40
40
 41
1
 50
0
  1
名称
  0
TEXT
  8
_0-0_
 62
    7
 10
2277.4277578539459
 20
1057.1738782123414
 40
40
 41
1
 50
0
  1
クリーン側溝　300用
  0
TEXT
  8
_0-0_
 62
    7
 10
2959.7980611730482
 20
1053.8858324328714
 40
40
 41
1
 50
0
  1
分類
  0
TEXT
  8
_0-0_
 62
    7
 10
3157.5243458892019
 20
1056.3344551538146
 40
40
 41
1
 50
0
  1
街路型縦断
  0
TEXT
  8
_0-0_
 62
    7
 10
3509.4821987999308
 20
1054.366058009608
 40
40
 41
1
 50
0
  1
図番
  0
TEXT
  8
_0-0_
 62
    7
 10
3842.2546378744123
 20
1055.4403113879625
 40
40
 41
1
 50
0
  1
参考重量
  0
TEXT
  8
_0-0_
 62
    7
 10
4384.4043148904238
 20
1052.5658303059563
 40
40
 41
1
 50
0
  1
岩城ブロック工業株式会社
  0
TEXT
  8
_0-0_
 62
    7
 10
2319.2022081064733
 20
2658.3061101028434
 40
50
 41
1
 50
0
  1
断面図
  0
TEXT
  8
_0-0_
 62
    7
 10
2949.6468542044768
 20
2658.3061101028434
 40
50
 41
1
 50
0
  1
側面図
  0
ENDSEC
  0
EOF
