  0
SECTION
  2
HEADER
  9
$ACADVER
  1
AC1009
  9
$INSBASE
 10
0
 20
0
 30
0
  9
$EXTMIN
 10
0
 20
0
  9
$EXTMAX
 10
4200
 20
2970
  9
$LIMMIN
 10
0
 20
0
  9
$LIMMAX
 10
4200
 20
2970
  9
$LTSCALE
 40
10
  0
ENDSEC
  0
SECTION
  2
TABLES
  0
TABLE
  2
LTYPE
 70
     9
  0
LTYPE
  2
CONTINUOUS
 70
    64
  3
実線
 72
    65
 73
     0
 40
0.0
  0
LTYPE
  2
DASHED1
 70
    64
  3
--  --  --  --  --  --  --  --  
 72
    65
 73
     2
 40
2.5
 49
1.25
 49
-1.25
  0
LTYPE
  2
DASHED2
 70
    64
  3
----    ----    ----    ----    
 72
    65
 73
     2
 40
5.0
 49
2.5
 49
-2.5
  0
LTYPE
  2
DASHED3
 70
    64
  3
------  ------  ------  ------  
 72
    65
 73
     2
 40
5.0
 49
3.75
 49
-1.25
  0
LTYPE
  2
CENTER1
 70
    64
  3
----- - ----- - ----- - ----- - 
 72
    65
 73
     4
 40
10.0
 49
6.25
 49
-1.25
 49
1.25
 49
-1.25
  0
LTYPE
  2
CENTER2
 70
    64
  3
----------  --  ----------  --  
 72
    65
 73
     4
 40
20.0
 49
12.5
 49
-2.5
 49
2.5
 49
-2.5
  0
LTYPE
  2
PHANTOM1
 70
    64
  3
--- - - --- - - --- - - --- - - 
 72
    65
 73
     6
 40
10.0
 49
3.25
 49
-1.25
 49
1.25
 49
-1.25
 49
1.25
 49
-1.25
  0
LTYPE
  2
PHANTOM2
 70
    64
  3
--------  -  -  --------  -  -  
 72
    65
 73
     6
 40
20.0
 49
10.0
 49
-2.5
 49
1.25
 49
-2.5
 49
1.25
 49
-2.5
  0
LTYPE
  2
DOT
 70
    64
  3
-   -   -   -   -   -   -   -   
 72
    65
 73
     2
 40
2.5
 49
0.625
 49
-1.875
  0
LTYPE
  2
DUMMY
 70
    64
  3
ダミー
 72
    65
 73
     0
 40
0.0
  0
LTYPE
  2
RAND1
 70
    64
  3
ランダム線1
 72
    65
 73
     4
 40
10.0
 49
1.0
 49
-2.0
 49
3.0
 49
-4.0
  0
LTYPE
  2
RAND2
 70
    64
  3
ランダム線2
 72
    65
 73
     4
 40
14.0
 49
2.0
 49
-3.0
 49
4.0
 49
-5.0
  0
LTYPE
  2
RAND3
 70
    64
  3
ランダム線3
 72
    65
 73
     4
 40
18.0
 49
3.0
 49
-4.0
 49
5.0
 49
-6.0
  0
LTYPE
  2
RAND4
 70
    64
  3
ランダム線4
 72
    65
 73
     4
 40
22.0
 49
4.0
 49
-5.0
 49
6.0
 49
-7.0
  0
LTYPE
  2
RAND5
 70
    64
  3
ランダム線5
 72
    65
 73
     4
 40
26.0
 49
5.0
 49
-6.0
 49
7.0
 49
-8.0
  0
LTYPE
  2
LONG1
 70
    64
  3
----------  --  ----------  --  
 72
    65
 73
     4
 40
40.0
 49
32.5
 49
-2.5
 49
2.5
 49
-2.5
  0
LTYPE
  2
LONG2
 70
    64
  3
--------  -  -  --------  -  -  
 72
    65
 73
     6
 40
40.0
 49
30.0
 49
-2.5
 49
1.25
 49
-2.5
 49
1.25
 49
-2.5
  0
LTYPE
  2
LONG3
 70
    64
  3
+++++++++++++++..+++++++++++++++
 72
    65
 73
     2
 40
40.0
 49
37.5
 49
-2.5
  0
LTYPE
  2
LONG4
 70
    64
  3
+++++++++++++++..+++++++++++++++
 72
    65
 73
     2
 40
80.0
 49
75.0
 49
-5.0
  0
LTYPE
  2
LONG5
 70
    64
  3
----------  --  ----------  --  
 72
    65
 73
     4
 40
60.0
 49
37.5
 49
-7.5
 49
7.5
 49
-7.5
  0
LTYPE
  2
dashed
 70
   64
  3
-------   -------------   ------
 72
   65
 73
    2
 40
7.5
 49
6
 49
-1.5
  0
LTYPE
  2
dashed_spaced
 70
   64
  3
----        --------        ----
 72
   65
 73
    2
 40
12
 49
6
 49
-6
  0
LTYPE
  2
long_dashed_dotted
 70
   64
  3
------------- --- --------------
 72
   65
 73
    4
 40
15.25
 49
12
 49
-1.5
 49
0.25
 49
-1.5
  0
LTYPE
  2
long_dashed_double-dotted
 70
   64
  3
----------- --- --- ------------
 72
   65
 73
    6
 40
17
 49
12
 49
-1.5
 49
0.25
 49
-1.5
 49
0.25
 49
-1.5
  0
LTYPE
  2
long_dashed_triplicate-dotted
 70
   64
  3
--------- --- --- --- ----------
 72
   65
 73
    8
 40
18.75
 49
12
 49
-1.5
 49
0.25
 49
-1.5
 49
0.25
 49
-1.5
 49
0.25
 49
-1.5
  0
LTYPE
  2
dotted
 70
   64
  3
   -       -       -       -    
 72
   65
 73
    2
 40
1.75
 49
0.25
 49
-1.5
  0
LTYPE
  2
chain
 70
   64
  3
-------------- -- --------------
 72
   65
 73
    4
 40
18.5
 49
12
 49
-1.5
 49
3.5
 49
-1.5
  0
LTYPE
  2
chain_double_dash
 70
   64
  3
------------ -- -- -------------
 72
   65
 73
    6
 40
23.5
 49
12
 49
-1.5
 49
3.5
 49
-1.5
 49
3.5
 49
-1.5
  0
LTYPE
  2
dashed_dotted
 70
   64
  3
-----------     -     ----------
 72
   65
 73
    4
 40
9.25
 49
6
 49
-1.5
 49
0.25
 49
-1.5
  0
LTYPE
  2
double-dashed_dotted
 70
   64
  3
------   -----------   -   -----
 72
   65
 73
    6
 40
16.75
 49
6
 49
-1.5
 49
6
 49
-1.5
 49
0.25
 49
-1.5
  0
LTYPE
  2
dashed_double-dotted
 70
   64
  3
---------    -    -    ---------
 72
   65
 73
    6
 40
11
 49
6
 49
-1.5
 49
0.25
 49
-1.5
 49
0.25
 49
-1.5
  0
LTYPE
  2
double-dashed_double-dotted
 70
   64
  3
-----   ---------   -   -   ----
 72
   65
 73
    8
 40
18.5
 49
6
 49
-1.5
 49
6
 49
-1.5
 49
0.25
 49
-1.5
 49
0.25
 49
-1.5
  0
LTYPE
  2
dashed_triplicate-dotted
 70
   64
  3
-------    -    -    -    ------
 72
   65
 73
    8
 40
12.75
 49
6
 49
-1.5
 49
0.25
 49
-1.5
 49
0.25
 49
-1.5
 49
0.25
 49
-1.5
  0
LTYPE
  2
double-dashed_triplicate-dotted
 70
   64
  3
-----  ---------  -  -  -  -----
 72
   65
 73
   10
 40
20.25
 49
6
 49
-1.5
 49
6
 49
-1.5
 49
0.25
 49
-1.5
 49
0.25
 49
-1.5
 49
0.25
 49
-1.5
  0
LTYPE
  2
undefined
 70
   64
  3
--------------------------------
 72
   65
 73
    0
 40
0
  0
LTYPE
  2
_
 70
   64
  3
                                
 72
   65
 73
    0
 40
0
  0
LTYPE
  2
__18
 70
   64
  3
                                
 72
   65
 73
    0
 40
0
  0
LTYPE
  2
__19
 70
   64
  3
                                
 72
   65
 73
    0
 40
0
  0
LTYPE
  2
__20
 70
   64
  3
                                
 72
   65
 73
    0
 40
0
  0
LTYPE
  2
__21
 70
   64
  3
                                
 72
   65
 73
    0
 40
0
  0
LTYPE
  2
__22
 70
   64
  3
                                
 72
   65
 73
    0
 40
0
  0
LTYPE
  2
__23
 70
   64
  3
                                
 72
   65
 73
    0
 40
0
  0
LTYPE
  2
__24
 70
   64
  3
                                
 72
   65
 73
    0
 40
0
  0
LTYPE
  2
__25
 70
   64
  3
                                
 72
   65
 73
    0
 40
0
  0
LTYPE
  2
__26
 70
   64
  3
                                
 72
   65
 73
    0
 40
0
  0
LTYPE
  2
__27
 70
   64
  3
                                
 72
   65
 73
    0
 40
0
  0
LTYPE
  2
__28
 70
   64
  3
                                
 72
   65
 73
    0
 40
0
  0
LTYPE
  2
__29
 70
   64
  3
                                
 72
   65
 73
    0
 40
0
  0
LTYPE
  2
__30
 70
   64
  3
                                
 72
   65
 73
    0
 40
0
  0
LTYPE
  2
__31
 70
   64
  3
                                
 72
   65
 73
    0
 40
0
  0
LTYPE
  2
__32
 70
   64
  3
                                
 72
   65
 73
    0
 40
0
  0
ENDTAB
  0
TABLE
  2
STYLE
  5
3
100
AcDbSymbolTable
 70
     1
  0
STYLE
  5
10
100
AcDbSymbolTableRecord
100
AcDbTextStyleTableRecord
  2
STANDARD
 70
     0
 40
0.0
 41
1.0
 50
0.0
 71
     0
 42
0.2
  3
txt
  4
bigfont.shx
  0
STYLE
  5
26
100
AcDbSymbolTableRecord
100
AcDbTextStyleTableRecord
  2
TATEGAKI
 70
    68
 40
0.0
 41
1.0
 50
0.0
 71
     0
 42
1.0
  3
txt
  4
bigfont.shx
  0
ENDTAB
  0
TABLE
  2
LAYER
 70
    3
  0
LAYER
  2
_0-0_
 70
   64
 62
    7
  6
CONTINUOUS
  0
LAYER
  2
_0-1_ADD_LINE
 70
   64
 62
    7
  6
CONTINUOUS
  0
LAYER
  2
ADD_LINE
 70
   64
 62
    7
  6
CONTINUOUS
  0
ENDTAB
  0
ENDSEC
  0
SECTION
  2
BLOCKS
  0
ENDSEC
  0
SECTION
  2
ENTITIES
  0
TEXT
  8
_0-0_
 62
    7
 10
1652.4893592023998
 20
1784.4941305269708
 40
30
 41
1
 50
0
  1
360
  0
TEXT
  8
_0-0_
 62
    7
 10
1530.1260840125924
 20
1715.1128920172864
 40
30
 41
1
 50
0
  1
140
  0
TEXT
  8
_0-0_
 62
    7
 10
1774.8526343922072
 20
1716.3743690810986
 40
30
 41
1
 50
0
  1
140
  0
TEXT
  8
_0-0_
 62
    7
 10
1661.3196986490868
 20
1715.1128920172864
 40
30
 41
1
 50
0
  1
80
  0
TEXT
  8
_0-0_
 62
    7
 10
1519.4557280211029
 20
1107.6638366615866
 40
30
 41
1
 50
0
  1
80
  0
TEXT
  8
_0-0_
 62
    7
 10
1803.5824120271263
 20
1108.0016805189066
 40
30
 41
1
 50
0
  1
80
  0
TEXT
  8
_0-0_
 62
    7
 10
1669.796244528452
 20
1107.6638366615866
 40
30
 41
1
 50
0
  1
200
  0
TEXT
  8
_0-0_
 62
    7
 10
1662.0258358100943
 20
1062.7306036380419
 40
30
 41
1
 50
0
  1
360
  0
TEXT
  8
_0-0_
 62
    7
 10
1428.1530435612399
 20
1497.2390969501757
 40
30
 41
1
 50
90
  1
80
  0
TEXT
  8
_0-0_
 62
    7
 10
1429.5876991683415
 20
1216.0465979582605
 40
30
 41
1
 50
90
  1
80
  0
TEXT
  8
_0-0_
 62
    7
 10
1428.1530435612399
 20
1355.9255196506672
 40
30
 41
1
 50
90
  1
200
  0
TEXT
  8
_0-0_
 62
    7
 10
1360.0069022239134
 20
1360.229486471972
 40
30
 41
1
 50
90
  1
360
  0
TEXT
  8
_0-0_
 62
    7
 10
2002.2600981111543
 20
1348.6531371159845
 40
30
 41
1
 50
90
  1
360
  0
TEXT
  8
_0-0_
 62
    7
 10
2012.61297882852
 20
1549.4990230328779
 40
30
 41
1
 50
90
  1
Ｈ40～110
  0
TEXT
  8
_0-0_
 62
    7
 10
3036.6643488458431
 20
1819.5515559089158
 40
30
 41
1
 50
0
  1
2000
  0
LINE
  8
_0-0_
  6
CONTINUOUS
 62
    7
 10
1972.8555534459747
 20
1550.1217674536401
 11
1972.8555534459747
 21
1190.1218169416043
  0
LINE
  8
_0-0_
  6
CONTINUOUS
 62
    7
 10
1972.8555534459747
 20
1660.1218829255572
 11
1870.9444932158237
 21
1660.1218829255572
  0
LINE
  8
_0-0_
  6
CONTINUOUS
 62
    7
 10
1773.1945047630147
 20
1137.6518313920892
 11
1573.1944016630887
 21
1137.6518313920892
  0
LINE
  8
_0-0_
  6
CONTINUOUS
 62
    7
 10
1813.1943892910977
 20
1190.1218169416043
 11
1533.1944552750506
 21
1190.1218169416043
  0
LINE
  8
_0-0_
  6
CONTINUOUS
 62
    7
 10
1493.1944470270564
 20
1230.1218251895982
 11
1493.1944470270564
 21
1550.1217674536401
  0
LINE
  8
_0-0_
  6
CONTINUOUS
 62
    7
 10
3393.1353913893881
 20
410.00016495988064
 11
3393.1353913893881
 21
509.99999999999886
  0
LINE
  8
_0-0_
  6
CONTINUOUS
 62
    7
 10
2043.1358862690327
 20
410.00016495988064
 11
2043.1358862690327
 21
509.99999999999886
  0
LINE
  8
_0-0_
  6
CONTINUOUS
 62
    7
 10
2213.1357048131626
 20
410.00016495988064
 11
2213.1357048131626
 21
509.99999999999886
  0
LINE
  8
_0-0_
  6
CONTINUOUS
 62
    7
 10
3163.1356223332214
 20
410.00016495988064
 11
3163.1356223332214
 21
509.99999999999886
  0
LINE
  8
_0-0_
  6
CONTINUOUS
 62
    7
 10
2933.1358532770564
 20
410.00016495988064
 11
2933.1358532770564
 21
509.99999999999886
  0
LINE
  8
_0-0_
  6
CONTINUOUS
 62
    7
 10
2763.1357872931039
 20
410.00016495988064
 11
2763.1357872931039
 21
509.99999999999886
  0
LINE
  8
_0-0_
  6
CONTINUOUS
 62
    7
 10
2593.135473869329
 20
410.00016495988064
 11
2593.135473869329
 21
509.99999999999886
  0
LINE
  8
_0-0_
  6
CONTINUOUS
 62
    7
 10
1263.1357872931035
 20
410.00016495988064
 11
1263.1357872931035
 21
509.99999999999886
  0
LINE
  8
_0-0_
  6
CONTINUOUS
 62
    7
 10
1083.1359357569972
 20
410.00016495988064
 11
1083.1359357569972
 21
2559.9998350401193
  0
LINE
  8
_0-0_
  6
CONTINUOUS
 62
    7
 10
4303.1359192610089
 20
2559.9998350401193
 11
4303.1359192610089
 21
410.00016495988064
  0
LINE
  8
_0-0_
  6
CONTINUOUS
 62
    7
 10
1083.1359357569972
 20
2559.9998350401193
 11
4303.1359192610089
 21
2559.9998350401193
  0
LINE
  8
_0-0_
  6
CONTINUOUS
 62
    7
 10
4303.1359192610089
 20
509.99999999999886
 11
1083.1359357569972
 21
509.99999999999886
  0
LINE
  8
_0-0_
  6
CONTINUOUS
 62
    7
 10
4303.1359192610089
 20
410.00016495988064
 11
1083.1359357569972
 21
410.00016495988064
  0
LINE
  8
_0-0_
  6
CONTINUOUS
 62
    7
 10
4066.3298230036198
 20
1230.1217014696863
 11
2066.3299054835597
 21
1230.1217014696863
  0
LINE
  8
_0-0_
  6
CONTINUOUS
 62
    7
 10
2066.3299054835597
 20
1230.1217014696863
 11
2106.3299137315535
 21
1190.1218169416043
  0
LINE
  8
_0-0_
  6
CONTINUOUS
 62
    7
 10
4026.3299384755369
 20
1190.1218169416043
 11
2106.3299137315535
 21
1190.1218169416043
  0
LINE
  8
_0-0_
  6
CONTINUOUS
 62
    7
 10
4026.3299384755369
 20
1190.1218169416043
 11
4066.3298230036198
 21
1230.1217014696863
  0
LINE
  8
_0-0_
  6
CONTINUOUS
 62
    7
 10
4066.3298230036198
 20
1280.1218664295679
 11
2066.3299054835597
 21
1280.1218664295679
  0
LINE
  8
_0-0_
  6
CONTINUOUS
 62
    7
 10
1573.1944016630887
 20
1420.1218334375922
 11
1573.1944016630887
 21
1392.7708252027951
  0
LINE
  8
_0-0_
  6
CONTINUOUS
 62
    7
 10
1773.1945047630147
 20
1420.1218334375922
 11
1773.1945047630147
 21
1392.7708252027951
  0
LINE
  8
_0-0_
  6
CONTINUOUS
 62
    7
 10
1429.3299813651049
 20
1190.1218169416043
 11
1429.3299813651049
 21
1270.1218334375922
  0
LINE
  8
_0-0_
  6
CONTINUOUS
 62
    7
 10
1429.3299813651049
 20
1270.1218334375922
 11
1429.3299813651049
 21
1470.1218746775633
  0
LINE
  8
_0-0_
  6
CONTINUOUS
 62
    7
 10
1429.3299813651049
 20
1470.1218746775633
 11
1429.3299813651049
 21
1550.1217674536401
  0
LINE
  8
_0-0_
  6
CONTINUOUS
 62
    7
 10
1359.6014393465243
 20
1550.1217674536401
 11
1359.6014393465243
 21
1190.1218169416043
  0
LINE
  8
_0-0_
  6
CONTINUOUS
 62
    7
 10
1493.1944470270564
 20
1137.6518313920892
 11
1573.1944016630887
 21
1137.6518313920892
  0
LINE
  8
_0-0_
  6
CONTINUOUS
 62
    7
 10
1773.1945047630147
 20
1137.6518313920892
 11
1853.1943975390916
 21
1137.6518313920892
  0
LINE
  8
_0-0_
  6
CONTINUOUS
 62
    7
 10
1493.1944470270564
 20
1092.9540543914561
 11
1853.1943975390916
 21
1092.9540543914561
  0
LINE
  8
_0-0_
  6
CONTINUOUS
 62
    7
 10
1653.1944800190327
 20
1470.1218746775633
 11
1623.1945047630147
 21
1470.1218746775633
  0
LINE
  8
_0-0_
  6
CONTINUOUS
 62
    7
 10
1723.1944635230436
 20
1470.1218746775633
 11
1693.1944882670266
 21
1470.1218746775633
  0
LINE
  8
_0-0_
  6
CONTINUOUS
 62
    7
 10
1493.4313706572293
 20
1399.8468618106922
 11
1533.2691821014862
 21
1390.1431380063223
  0
LINE
  8
_0-0_
  6
CONTINUOUS
 62
    7
 10
1493.1760127602702
 20
1340.090268364218
 11
1533.2691821014862
 21
1350.0499686651051
  0
LINE
  8
_0-0_
  6
CONTINUOUS
 62
    7
 10
1533.3080301536397
 20
1350.0593713783651
 11
1533.3080301536397
 21
1390.1337352930611
  0
LINE
  8
_0-0_
  6
CONTINUOUS
 62
    7
 10
1852.9575976288297
 20
1399.8468618106922
 11
1813.1197861845726
 21
1390.1431380063223
  0
LINE
  8
_0-0_
  6
CONTINUOUS
 62
    7
 10
1853.2129555257898
 20
1340.090268364218
 11
1813.1197861845726
 21
1350.0499686651051
  0
LINE
  8
_0-0_
  6
CONTINUOUS
 62
    7
 10
1813.0809381324186
 20
1350.0593713783651
 11
1813.0809381324186
 21
1390.1337352930611
  0
LINE
  8
_0-0_
  6
CONTINUOUS
 62
    7
 10
1493.1944470270564
 20
1230.1218251895982
 11
1533.1944552750506
 21
1190.1218169416043
  0
LINE
  8
_0-0_
  6
CONTINUOUS
 62
    7
 10
1813.1943892910977
 20
1190.1218169416043
 11
1853.1943975390916
 21
1230.1218251895982
  0
LINE
  8
_0-0_
  6
CONTINUOUS
 62
    7
 10
1853.1943975390916
 20
1230.1218251895982
 11
1853.1943975390916
 21
1550.1217674536401
  0
LINE
  8
_0-0_
  6
CONTINUOUS
 62
    7
 10
1359.6014393465243
 20
1550.1217674536401
 11
1456.1486846814587
 21
1550.1217674536401
  0
LINE
  8
_0-0_
  6
CONTINUOUS
 62
    7
 10
1429.3299813651049
 20
1550.1217674536401
 11
1486.5432027346685
 21
1550.1217674536401
  0
LINE
  8
_0-0_
  6
CONTINUOUS
 62
    7
 10
1429.3299813651049
 20
1470.1218746775633
 11
1486.5432027346685
 21
1470.1218746775633
  0
LINE
  8
_0-0_
  6
CONTINUOUS
 62
    7
 10
1429.3299813651049
 20
1270.1218334375922
 11
1486.5432027346685
 21
1270.1218334375922
  0
LINE
  8
_0-0_
  6
CONTINUOUS
 62
    7
 10
1429.3299813651049
 20
1190.1218169416043
 11
1486.5432027346685
 21
1190.1218169416043
  0
LINE
  8
_0-0_
  6
CONTINUOUS
 62
    7
 10
1359.6014393465243
 20
1190.1218169416043
 11
1456.1486846814587
 21
1190.1218169416043
  0
LINE
  8
_0-0_
  6
CONTINUOUS
 62
    7
 10
1493.1944470270564
 20
1137.6518313920892
 11
1493.1944470270564
 21
1182.3497321126342
  0
LINE
  8
_0-0_
  6
CONTINUOUS
 62
    7
 10
1493.1944470270564
 20
1092.9540543914561
 11
1493.1944470270564
 21
1148.3793374626132
  0
LINE
  8
_0-0_
  6
CONTINUOUS
 62
    7
 10
1573.1944016630887
 20
1137.6518313920892
 11
1573.1944016630887
 21
1182.3497321126342
  0
LINE
  8
_0-0_
  6
CONTINUOUS
 62
    7
 10
1773.1945047630147
 20
1137.6518313920892
 11
1773.1945047630147
 21
1182.3497321126342
  0
LINE
  8
_0-0_
  6
CONTINUOUS
 62
    7
 10
1853.1943975390916
 20
1137.6518313920892
 11
1853.1943975390916
 21
1182.3497321126342
  0
LINE
  8
_0-0_
  6
CONTINUOUS
 62
    7
 10
1853.1943975390916
 20
1092.9540543914561
 11
1853.1943975390916
 21
1148.3793374626132
  0
LINE
  8
_0-0_
  6
CONTINUOUS
 62
    7
 10
1972.8555534459747
 20
1190.1218169416043
 11
1870.9444932158237
 21
1190.1218169416043
  0
LINE
  8
_0-0_
  6
CONTINUOUS
 62
    7
 10
1917.4302703748176
 20
1550.1217674536401
 11
1869.1566167773726
 21
1550.1217674536401
  0
LINE
  8
_0-0_
  6
CONTINUOUS
 62
    7
 10
1972.8555534459747
 20
1550.1217674536401
 11
1870.9444932158237
 21
1550.1217674536401
  0
LINE
  8
_0-0_
  6
CONTINUOUS
 62
    7
 10
1693.1946119869376
 20
1510.1217592056464
 11
1713.1945542509798
 21
1510.1217592056464
  0
LINE
  8
_0-0_
  6
CONTINUOUS
 62
    7
 10
1721.1945311565958
 20
1556.1218119928083
 11
1823.1945460029847
 21
1556.1218119928083
  0
LINE
  8
_0-0_
  6
CONTINUOUS
 62
    7
 10
1633.194537754991
 20
1618.1221897509372
 11
1713.1945542509798
 21
1618.1221897509372
  0
LINE
  8
_0-0_
  6
CONTINUOUS
 62
    7
 10
1645.1946268333268
 20
1620.1219983974743
 11
1645.1946268333268
 21
1648.12179384722
  0
LINE
  8
_0-0_
  6
CONTINUOUS
 62
    7
 10
1645.1946268333268
 20
1648.12179384722
 11
1701.1944651726426
 21
1648.12179384722
  0
LINE
  8
_0-0_
  6
CONTINUOUS
 62
    7
 10
1635.1945938413508
 20
1620.1219983974743
 11
1645.1946268333268
 21
1620.1219983974743
  0
LINE
  8
_0-0_
  6
CONTINUOUS
 62
    7
 10
1701.1944651726426
 20
1620.1219983974743
 11
1701.1944651726426
 21
1648.12179384722
  0
LINE
  8
_0-0_
  6
CONTINUOUS
 62
    7
 10
1701.1944651726426
 20
1620.1219983974743
 11
1711.1944981646197
 21
1620.1219983974743
  0
LINE
  8
_0-0_
  6
CONTINUOUS
 62
    7
 10
1647.1946829196877
 20
1620.1219983974743
 11
1647.1946829196877
 21
1646.1219852006841
  0
LINE
  8
_0-0_
  6
CONTINUOUS
 62
    7
 10
1699.1944090862828
 20
1620.1219983974743
 11
1699.1944090862828
 21
1646.1219852006841
  0
LINE
  8
_0-0_
  6
CONTINUOUS
 62
    7
 10
1657.1947159116639
 20
1630.1220313894512
 11
1689.1943760943068
 21
1630.1220313894512
  0
LINE
  8
_0-0_
  6
CONTINUOUS
 62
    7
 10
1689.1943760943068
 20
1630.1220313894512
 11
1689.1943760943068
 21
1646.1219852006841
  0
LINE
  8
_0-0_
  6
CONTINUOUS
 62
    7
 10
1657.1947159116639
 20
1630.1220313894512
 11
1657.1947159116639
 21
1646.1219852006841
  0
LINE
  8
_0-0_
  6
CONTINUOUS
 62
    7
 10
1647.1946829196877
 20
1620.1219983974743
 11
1699.1944090862828
 21
1620.1219983974743
  0
LINE
  8
_0-0_
  6
CONTINUOUS
 62
    7
 10
1647.1946829196877
 20
1646.1219852006841
 11
1657.1947159116639
 21
1646.1219852006841
  0
LINE
  8
_0-0_
  6
CONTINUOUS
 62
    7
 10
1689.1943760943068
 20
1646.1219852006841
 11
1699.1944090862828
 21
1646.1219852006841
  0
LINE
  8
_0-0_
  6
CONTINUOUS
 62
    7
 10
1633.194537754991
 20
1510.1217592056464
 11
1653.1944800190327
 21
1510.1217592056464
  0
LINE
  8
_0-0_
  6
CONTINUOUS
 62
    7
 10
1653.1944800190327
 20
1510.1217592056464
 11
1633.194537754991
 21
1510.1217592056464
  0
LINE
  8
_0-0_
  6
CONTINUOUS
 62
    7
 10
1653.1944800190327
 20
1510.1217592056464
 11
1653.1944800190327
 21
1470.1218746775633
  0
LINE
  8
_0-0_
  6
CONTINUOUS
 62
    7
 10
1693.1944882670266
 20
1470.1218746775633
 11
1693.1944882670266
 21
1510.1217592056464
  0
LINE
  8
_0-0_
  6
CONTINUOUS
 62
    7
 10
1713.1945542509798
 20
1510.1217592056464
 11
1693.1944882670266
 21
1510.1217592056464
  0
LINE
  8
_0-0_
  6
CONTINUOUS
 62
    7
 10
1853.1943975390916
 20
1550.1217674536401
 11
1713.1945542509798
 21
1550.1217674536401
  0
LINE
  8
_0-0_
  6
CONTINUOUS
 62
    7
 10
1633.194537754991
 20
1550.1217674536401
 11
1493.1944470270564
 21
1550.1217674536401
  0
LINE
  8
_0-0_
  6
CONTINUOUS
 62
    7
 10
1493.1944470270564
 20
1715.9146141333272
 11
1493.1944470270564
 21
1563.5592344616632
  0
LINE
  8
_0-0_
  6
CONTINUOUS
 62
    7
 10
1853.1943975390916
 20
1715.9146141333272
 11
1853.1943975390916
 21
1563.5592344616632
  0
LINE
  8
_0-0_
  6
CONTINUOUS
 62
    7
 10
1493.1944470270564
 20
1783.0668127186311
 11
1493.1944470270564
 21
1715.9146141333272
  0
LINE
  8
_0-0_
  6
CONTINUOUS
 62
    7
 10
1853.1943975390916
 20
1783.0668127186311
 11
1853.1943975390916
 21
1715.9146141333272
  0
LINE
  8
_0-0_
  6
CONTINUOUS
 62
    7
 10
1522.175403233507
 20
1556.1218119928083
 11
1625.1945608493747
 21
1556.1218119928083
  0
LINE
  8
_0-0_
  6
CONTINUOUS
 62
    7
 10
1522.175403233507
 20
1556.1218119928083
 11
1522.175403233507
 21
1550.1217674536401
  0
LINE
  8
_0-0_
  6
CONTINUOUS
 62
    7
 10
1823.3879202243747
 20
1556.1218119928083
 11
1823.3879202243747
 21
1550.1217674536401
  0
LINE
  8
_0-0_
  6
CONTINUOUS
 62
    7
 10
1721.1945311565958
 20
1556.1218119928083
 11
1721.1945311565958
 21
1660.1218829255572
  0
LINE
  8
_0-0_
  6
CONTINUOUS
 62
    7
 10
1713.1945542509798
 20
1510.1217592056464
 11
1713.1945542509798
 21
1660.1218829255572
  0
LINE
  8
_0-0_
  6
CONTINUOUS
 62
    7
 10
1625.1945608493747
 20
1556.1218119928083
 11
1625.1945608493747
 21
1660.1218829255572
  0
LINE
  8
_0-0_
  6
CONTINUOUS
 62
    7
 10
1633.194537754991
 20
1510.1217592056464
 11
1633.194537754991
 21
1660.1218829255572
  0
LINE
  8
_0-0_
  6
CONTINUOUS
 62
    7
 10
1625.1945608493747
 20
1660.1218829255572
 11
1633.194537754991
 21
1660.1218829255572
  0
LINE
  8
_0-0_
  6
CONTINUOUS
 62
    7
 10
1713.1945542509798
 20
1660.1218829255572
 11
1721.1945311565958
 21
1660.1218829255572
  0
LINE
  8
_0-0_
  6
CONTINUOUS
 62
    7
 10
1635.1945938413508
 20
1620.1219983974743
 11
1635.1945938413508
 21
1660.1218829255572
  0
LINE
  8
_0-0_
  6
CONTINUOUS
 62
    7
 10
1711.1944981646197
 20
1620.1219983974743
 11
1711.1944981646197
 21
1660.1218829255572
  0
LINE
  8
_0-0_
  6
CONTINUOUS
 62
    7
 10
1635.1945938413508
 20
1660.1218829255572
 11
1711.1944981646197
 21
1660.1218829255572
  0
LINE
  8
_0-0_
  6
CONTINUOUS
 62
    7
 10
1633.194537754991
 20
1715.9146141333272
 11
1633.194537754991
 21
1667.4488235136052
  0
LINE
  8
_0-0_
  6
CONTINUOUS
 62
    7
 10
1713.1945542509798
 20
1715.9146141333272
 11
1713.1945542509798
 21
1667.4488235136052
  0
LINE
  8
_0-0_
  6
CONTINUOUS
 62
    7
 10
1972.8555534459747
 20
1550.1217674536401
 11
1870.9444932158237
 21
1550.1217674536401
  0
LINE
  8
_0-0_
  6
CONTINUOUS
 62
    7
 10
1493.1944470270564
 20
1783.0668127186311
 11
1853.1943975390916
 21
1783.0668127186311
  0
LINE
  8
_0-0_
  6
CONTINUOUS
 62
    7
 10
1493.1944470270564
 20
1715.9146141333272
 11
1633.194537754991
 21
1715.9146141333272
  0
LINE
  8
_0-0_
  6
CONTINUOUS
 62
    7
 10
1713.1945542509798
 20
1715.9146141333272
 11
1853.1943975390916
 21
1715.9146141333272
  0
LINE
  8
_0-0_
  6
CONTINUOUS
 62
    7
 10
1633.194537754991
 20
1715.9146141333272
 11
1713.1945542509798
 21
1715.9146141333272
  0
LINE
  8
_0-0_
  6
CONTINUOUS
 62
    7
 10
1972.8555534459747
 20
1550.1217674536401
 11
1972.8555534459747
 21
1660.1218829255572
  0
LINE
  8
_0-0_
  6
CONTINUOUS
 62
    7
 10
2166.8442916348477
 20
1400.6031616285761
 11
2206.3298724915826
 21
1391.1267113012964
  0
LINE
  8
_0-0_
  6
CONTINUOUS
 62
    7
 10
2166.3161313334326
 20
1340.3879384708484
 11
2206.3298724915826
 21
1351.05803850252
  0
LINE
  8
_0-0_
  6
CONTINUOUS
 62
    7
 10
2206.3298724915826
 20
1351.05803850252
 11
2206.3298724915826
 21
1391.1267113012964
  0
LINE
  8
_0-0_
  6
CONTINUOUS
 62
    7
 10
2166.3298642435898
 20
1380.6179420339822
 11
2066.3299054835597
 21
1380.6179420339822
  0
LINE
  8
_0-0_
  6
CONTINUOUS
 62
    7
 10
2166.3298642435898
 20
1360.6178760500293
 11
2066.3299054835597
 21
1360.6178760500293
  0
LINE
  8
_0-0_
  6
CONTINUOUS
 62
    7
 10
2166.3298642435898
 20
1340.6178100660761
 11
2166.3298642435898
 21
1360.6178760500293
  0
LINE
  8
_0-0_
  6
CONTINUOUS
 62
    7
 10
2166.3298642435898
 20
1380.6179420339822
 11
2166.3298642435898
 21
1400.7266341000714
  0
LINE
  8
_0-0_
  6
CONTINUOUS
 62
    7
 10
3965.6443322149798
 20
1400.6031616285761
 11
3926.1586276383323
 21
1391.1267113012964
  0
LINE
  8
_0-0_
  6
CONTINUOUS
 62
    7
 10
3966.1726162363047
 20
1340.3879384708484
 11
3926.1586276383323
 21
1351.05803850252
  0
LINE
  8
_0-0_
  6
CONTINUOUS
 62
    7
 10
3926.1586276383323
 20
1351.05803850252
 11
3926.1586276383323
 21
1391.1267113012964
  0
LINE
  8
_0-0_
  6
CONTINUOUS
 62
    7
 10
3966.1587596062368
 20
1380.6179420339822
 11
4066.1585946463561
 21
1380.6179420339822
  0
LINE
  8
_0-0_
  6
CONTINUOUS
 62
    7
 10
3966.1587596062368
 20
1360.6178760500293
 11
4066.1585946463561
 21
1360.6178760500293
  0
LINE
  8
_0-0_
  6
CONTINUOUS
 62
    7
 10
3966.1587596062368
 20
1340.6178100660761
 11
3966.1587596062368
 21
1360.6178760500293
  0
LINE
  8
_0-0_
  6
CONTINUOUS
 62
    7
 10
3966.1587596062368
 20
1380.6179420339822
 11
3966.1587596062368
 21
1400.7266341000714
  0
LINE
  8
_0-0_
  6
CONTINUOUS
 62
    7
 10
3191.3895384808161
 20
1405.1217839496271
 11
2941.3897034406964
 21
1405.1217839496271
  0
LINE
  8
_0-0_
  6
CONTINUOUS
 62
    7
 10
3191.3895384808161
 20
1450.1219324135213
 11
2941.3897034406964
 21
1450.1219324135213
  0
LINE
  8
_0-0_
  6
CONTINUOUS
 62
    7
 10
2941.3897034406964
 20
1405.1217839496271
 11
2941.3897034406964
 21
1450.1219324135213
  0
LINE
  8
_0-0_
  6
CONTINUOUS
 62
    7
 10
3191.3895384808161
 20
1405.1217839496271
 11
3191.3895384808161
 21
1450.1219324135213
  0
LINE
  8
_0-0_
  6
CONTINUOUS
 62
    7
 10
2941.5648908351213
 20
1450.1221798533429
 11
2951.4624837405281
 21
1440.4076924166882
  0
LINE
  8
_0-0_
  6
CONTINUOUS
 62
    7
 10
2951.6458366491006
 20
1440.0412340393659
 11
2961.543429554506
 21
1425.1945972414351
  0
LINE
  8
_0-0_
  6
CONTINUOUS
 62
    7
 10
2961.543429554506
 20
1425.1945972414351
 11
2941.7479963038713
 21
1405.2160585220522
  0
LINE
  8
_0-0_
  6
CONTINUOUS
 62
    7
 10
3191.2009893359673
 20
1450.1622651046112
 11
3176.3808285990585
 21
1440.132539333918
  0
LINE
  8
_0-0_
  6
CONTINUOUS
 62
    7
 10
3176.3808285990585
 20
1440.132539333918
 11
3166.351102828366
 21
1425.1624300644921
  0
LINE
  8
_0-0_
  6
CONTINUOUS
 62
    7
 10
3166.351102828366
 20
1425.1624300644921
 11
3191.2009893359673
 21
1405.2526796158022
  0
LINE
  8
_0-0_
  6
CONTINUOUS
 62
    7
 10
3176.3736528442023
 20
1440.1218994215451
 11
2951.5921422075889
 21
1440.1218994215451
  0
LINE
  8
_0-0_
  6
CONTINUOUS
 62
    7
 10
3166.3238844478769
 20
1425.1218499335803
 11
2961.5919277597422
 21
1425.1218499335803
  0
LINE
  8
_0-0_
  6
CONTINUOUS
 62
    7
 10
2066.3299054835597
 20
1470.1218746775633
 11
4066.1585946463561
 21
1470.1218746775633
  0
LINE
  8
_0-0_
  6
CONTINUOUS
 62
    7
 10
2066.3299054835597
 20
1550.1217674536401
 11
4066.1585946463561
 21
1550.1217674536401
  0
LINE
  8
_0-1_ADD_LINE
  6
CONTINUOUS
 62
    7
 10
2066.3299054835597
 20
1670.1219159175341
 11
2066.3299054835597
 21
1686.4452735769505
  0
LINE
  8
_0-0_
  6
CONTINUOUS
 62
    7
 10
2066.3299054835597
 20
1818.3037281008101
 11
4066.3298230036198
 21
1818.3037281008101
  0
LINE
  8
_0-0_
  6
CONTINUOUS
 62
    7
 10
2066.3299054835597
 20
1686.4452735769505
 11
2066.3299054835597
 21
1818.3037281008101
  0
LINE
  8
_0-0_
  6
CONTINUOUS
 62
    7
 10
4066.3298230036198
 20
1686.4452735769505
 11
4066.3298230036198
 21
1818.3037281008101
  0
LINE
  8
_0-0_
  6
CONTINUOUS
 62
    7
 10
2066.3299054835597
 20
1230.1217014696863
 11
2066.3299054835597
 21
1660.1218829255572
  0
LINE
  8
_0-0_
  6
CONTINUOUS
 62
    7
 10
4066.3298230036198
 20
1230.1217014696863
 11
4066.3298230036198
 21
1660.1218829255572
  0
LINE
  8
_0-0_
  6
CONTINUOUS
 62
    7
 10
2066.3299054835597
 20
1660.1218829255572
 11
4066.3298230036198
 21
1660.1218829255572
  0
LINE
  8
_0-0_
  6
CONTINUOUS
 62
    7
 10
1575.1945814693595
 20
1556.1218119928083
 11
1575.1945814693595
 21
1566.1218449847831
  0
LINE
  8
_0-0_
  6
CONTINUOUS
 62
    7
 10
1610.1945113614106
 20
1556.1218119928083
 11
1610.1945113614106
 21
1566.1218449847831
  0
LINE
  8
_0-0_
  6
CONTINUOUS
 62
    7
 10
1575.1945814693595
 20
1566.1218449847831
 11
1610.1945113614106
 21
1566.1218449847831
  0
LINE
  8
_0-0_
  6
CONTINUOUS
 62
    7
 10
1736.1945806445606
 20
1556.1218119928083
 11
1736.1945806445606
 21
1566.1218449847831
  0
LINE
  8
_0-0_
  6
CONTINUOUS
 62
    7
 10
1771.1945723965659
 20
1556.1218119928083
 11
1771.1945723965659
 21
1566.1218449847831
  0
LINE
  8
_0-0_
  6
CONTINUOUS
 62
    7
 10
1736.1945806445606
 20
1566.1218449847831
 11
1771.1945723965659
 21
1566.1218449847831
  0
ARC
  8
_0-0_
  6
CONTINUOUS
 62
    7
 10
1623.1945047630147
 20
1420.1218334375922
 40
49.999998711250917
 50
90
 51
180
  0
ARC
  8
_0-0_
  6
CONTINUOUS
 62
    7
 10
1723.1944635230436
 20
1420.1218334375922
 40
49.999998711250917
 50
0
 51
90
  0
ARC
  8
_0-0_
  6
CONTINUOUS
 62
    7
 10
1692.3731117757898
 20
1387.3387787764862
 40
118.9435417587693
 50
177.4610748291027
 51
260.59165954589849
  0
ARC
  8
_0-0_
  6
CONTINUOUS
 62
    7
 10
1654.0158565102697
 20
1387.3387787764862
 40
118.9435417587693
 50
279.40830993652361
 51
2.5388946533193
  0
CIRCLE
  8
_0-0_
  6
CONTINUOUS
 62
    7
 10
1513.3502763793579
 20
1369.9688743872332
 40
10.01177478480983
  0
CIRCLE
  8
_0-0_
  6
CONTINUOUS
 62
    7
 10
1833.0386919067016
 20
1369.9688743872332
 40
10.01177478480983
  0
POINT
  8
_0-0_
 62
    7
 10
1972.8555534459747
 20
1550.1217674536401
  0
POINT
  8
_0-0_
 62
    7
 10
1493.1944470270564
 20
1715.9146141333272
  0
POINT
  8
_0-0_
 62
    7
 10
1493.1944470270564
 20
1783.0668127186311
  0
POINT
  8
_0-0_
 62
    7
 10
1633.194537754991
 20
1715.9146141333272
  0
POINT
  8
_0-0_
 62
    7
 10
1713.1945542509798
 20
1715.9146141333272
  0
POINT
  8
_0-0_
 62
    7
 10
1853.1943975390916
 20
1783.0668127186311
  0
POINT
  8
_0-0_
 62
    7
 10
1853.1943975390916
 20
1715.9146141333272
  0
POINT
  8
_0-0_
 62
    7
 10
1972.8555534459747
 20
1660.1218829255572
  0
POINT
  8
_0-0_
 62
    7
 10
1972.8555534459747
 20
1550.1217674536401
  0
POINT
  8
_0-0_
 62
    7
 10
1972.8555534459747
 20
1190.1218169416043
  0
POINT
  8
_0-0_
 62
    7
 10
1853.1943975390916
 20
1137.6518313920892
  0
POINT
  8
_0-0_
 62
    7
 10
1853.1943975390916
 20
1092.9540543914561
  0
POINT
  8
_0-0_
 62
    7
 10
1773.1945047630147
 20
1137.6518313920892
  0
POINT
  8
_0-0_
 62
    7
 10
1573.1944016630887
 20
1137.6518313920892
  0
POINT
  8
_0-0_
 62
    7
 10
1493.1944470270564
 20
1137.6518313920892
  0
POINT
  8
_0-0_
 62
    7
 10
1493.1944470270564
 20
1092.9540543914561
  0
POINT
  8
_0-0_
 62
    7
 10
1429.3299813651049
 20
1190.1218169416043
  0
POINT
  8
_0-0_
 62
    7
 10
1359.6014393465243
 20
1190.1218169416043
  0
POINT
  8
_0-0_
 62
    7
 10
1429.3299813651049
 20
1270.1218334375922
  0
POINT
  8
_0-0_
 62
    7
 10
1429.3299813651049
 20
1470.1218746775633
  0
POINT
  8
_0-0_
 62
    7
 10
1429.3299813651049
 20
1550.1217674536401
  0
POINT
  8
_0-0_
 62
    7
 10
1359.6014393465243
 20
1550.1217674536401
  0
POINT
  8
_0-0_
 62
    7
 10
2066.3299054835597
 20
1818.3037281008101
  0
POINT
  8
_0-0_
 62
    7
 10
4066.3298230036198
 20
1818.3037281008101
  0
TEXT
  8
_0-0_
 62
    7
 10
1407.4277578539459
 20
442.17387821234126
 40
40
 41
1
 50
0
  1
クリーン側溝　200用
  0
TEXT
  8
_0-0_
 62
    7
 10
1125.4760915704178
 20
440.80192606755031
 40
40
 41
1
 50
0
  1
名称
  0
TEXT
  8
_0-0_
 62
    7
 10
2089.7980611730482
 20
438.88583243287155
 40
40
 41
1
 50
0
  1
分類
  0
TEXT
  8
_0-0_
 62
    7
 10
2287.5243458892023
 20
441.3344551538147
 40
40
 41
1
 50
0
  1
街路型縦断
  0
TEXT
  8
_0-0_
 62
    7
 10
2639.4821987999308
 20
439.36605800960791
 40
40
 41
1
 50
0
  1
図番
  0
TEXT
  8
_0-0_
 62
    7
 10
2972.2546378744123
 20
440.44031138796254
 40
40
 41
1
 50
0
  1
参考重量
  0
TEXT
  8
_0-0_
 62
    7
 10
3514.4043148904234
 20
437.56583030595652
 40
40
 41
1
 50
0
  1
岩城ブロック工業株式会社
  0
TEXT
  8
_0-0_
 62
    7
 10
1406.6700571329636
 20
2103.8999740304707
 40
50
 41
1
 50
0
  1
断面図
  0
TEXT
  8
_0-0_
 62
    7
 10
2125.1795684729914
 20
2103.8999740304707
 40
50
 41
1
 50
0
  1
側面図
  0
ENDSEC
  0
EOF
