  0
SECTION
  2
HEADER
  9
$ACADVER
  1
AC1009
  9
$INSBASE
 10
0
 20
0
 30
0
  9
$EXTMIN
 10
0
 20
0
  9
$EXTMAX
 10
4200
 20
2970
  9
$LIMMIN
 10
0
 20
0
  9
$LIMMAX
 10
4200
 20
2970
  9
$LTSCALE
 40
10
  0
ENDSEC
  0
SECTION
  2
TABLES
  0
TABLE
  2
LTYPE
 70
     9
  0
LTYPE
  2
CONTINUOUS
 70
    64
  3
実線
 72
    65
 73
     0
 40
0.0
  0
LTYPE
  2
DASHED1
 70
    64
  3
--  --  --  --  --  --  --  --  
 72
    65
 73
     2
 40
2.5
 49
1.25
 49
-1.25
  0
LTYPE
  2
DASHED2
 70
    64
  3
----    ----    ----    ----    
 72
    65
 73
     2
 40
5.0
 49
2.5
 49
-2.5
  0
LTYPE
  2
DASHED3
 70
    64
  3
------  ------  ------  ------  
 72
    65
 73
     2
 40
5.0
 49
3.75
 49
-1.25
  0
LTYPE
  2
CENTER1
 70
    64
  3
----- - ----- - ----- - ----- - 
 72
    65
 73
     4
 40
10.0
 49
6.25
 49
-1.25
 49
1.25
 49
-1.25
  0
LTYPE
  2
CENTER2
 70
    64
  3
----------  --  ----------  --  
 72
    65
 73
     4
 40
20.0
 49
12.5
 49
-2.5
 49
2.5
 49
-2.5
  0
LTYPE
  2
PHANTOM1
 70
    64
  3
--- - - --- - - --- - - --- - - 
 72
    65
 73
     6
 40
10.0
 49
3.25
 49
-1.25
 49
1.25
 49
-1.25
 49
1.25
 49
-1.25
  0
LTYPE
  2
PHANTOM2
 70
    64
  3
--------  -  -  --------  -  -  
 72
    65
 73
     6
 40
20.0
 49
10.0
 49
-2.5
 49
1.25
 49
-2.5
 49
1.25
 49
-2.5
  0
LTYPE
  2
DOT
 70
    64
  3
-   -   -   -   -   -   -   -   
 72
    65
 73
     2
 40
2.5
 49
0.625
 49
-1.875
  0
LTYPE
  2
DUMMY
 70
    64
  3
ダミー
 72
    65
 73
     0
 40
0.0
  0
LTYPE
  2
RAND1
 70
    64
  3
ランダム線1
 72
    65
 73
     4
 40
10.0
 49
1.0
 49
-2.0
 49
3.0
 49
-4.0
  0
LTYPE
  2
RAND2
 70
    64
  3
ランダム線2
 72
    65
 73
     4
 40
14.0
 49
2.0
 49
-3.0
 49
4.0
 49
-5.0
  0
LTYPE
  2
RAND3
 70
    64
  3
ランダム線3
 72
    65
 73
     4
 40
18.0
 49
3.0
 49
-4.0
 49
5.0
 49
-6.0
  0
LTYPE
  2
RAND4
 70
    64
  3
ランダム線4
 72
    65
 73
     4
 40
22.0
 49
4.0
 49
-5.0
 49
6.0
 49
-7.0
  0
LTYPE
  2
RAND5
 70
    64
  3
ランダム線5
 72
    65
 73
     4
 40
26.0
 49
5.0
 49
-6.0
 49
7.0
 49
-8.0
  0
LTYPE
  2
LONG1
 70
    64
  3
----------  --  ----------  --  
 72
    65
 73
     4
 40
40.0
 49
32.5
 49
-2.5
 49
2.5
 49
-2.5
  0
LTYPE
  2
LONG2
 70
    64
  3
--------  -  -  --------  -  -  
 72
    65
 73
     6
 40
40.0
 49
30.0
 49
-2.5
 49
1.25
 49
-2.5
 49
1.25
 49
-2.5
  0
LTYPE
  2
LONG3
 70
    64
  3
+++++++++++++++..+++++++++++++++
 72
    65
 73
     2
 40
40.0
 49
37.5
 49
-2.5
  0
LTYPE
  2
LONG4
 70
    64
  3
+++++++++++++++..+++++++++++++++
 72
    65
 73
     2
 40
80.0
 49
75.0
 49
-5.0
  0
LTYPE
  2
LONG5
 70
    64
  3
----------  --  ----------  --  
 72
    65
 73
     4
 40
60.0
 49
37.5
 49
-7.5
 49
7.5
 49
-7.5
  0
LTYPE
  2
dashed
 70
   64
  3
-------   -------------   ------
 72
   65
 73
    2
 40
7.5
 49
6
 49
-1.5
  0
LTYPE
  2
dashed_spaced
 70
   64
  3
----        --------        ----
 72
   65
 73
    2
 40
12
 49
6
 49
-6
  0
LTYPE
  2
long_dashed_dotted
 70
   64
  3
------------- --- --------------
 72
   65
 73
    4
 40
15.25
 49
12
 49
-1.5
 49
0.25
 49
-1.5
  0
LTYPE
  2
long_dashed_double-dotted
 70
   64
  3
----------- --- --- ------------
 72
   65
 73
    6
 40
17
 49
12
 49
-1.5
 49
0.25
 49
-1.5
 49
0.25
 49
-1.5
  0
LTYPE
  2
long_dashed_triplicate-dotted
 70
   64
  3
--------- --- --- --- ----------
 72
   65
 73
    8
 40
18.75
 49
12
 49
-1.5
 49
0.25
 49
-1.5
 49
0.25
 49
-1.5
 49
0.25
 49
-1.5
  0
LTYPE
  2
dotted
 70
   64
  3
   -       -       -       -    
 72
   65
 73
    2
 40
1.75
 49
0.25
 49
-1.5
  0
LTYPE
  2
chain
 70
   64
  3
-------------- -- --------------
 72
   65
 73
    4
 40
18.5
 49
12
 49
-1.5
 49
3.5
 49
-1.5
  0
LTYPE
  2
chain_double_dash
 70
   64
  3
------------ -- -- -------------
 72
   65
 73
    6
 40
23.5
 49
12
 49
-1.5
 49
3.5
 49
-1.5
 49
3.5
 49
-1.5
  0
LTYPE
  2
dashed_dotted
 70
   64
  3
-----------     -     ----------
 72
   65
 73
    4
 40
9.25
 49
6
 49
-1.5
 49
0.25
 49
-1.5
  0
LTYPE
  2
double-dashed_dotted
 70
   64
  3
------   -----------   -   -----
 72
   65
 73
    6
 40
16.75
 49
6
 49
-1.5
 49
6
 49
-1.5
 49
0.25
 49
-1.5
  0
LTYPE
  2
dashed_double-dotted
 70
   64
  3
---------    -    -    ---------
 72
   65
 73
    6
 40
11
 49
6
 49
-1.5
 49
0.25
 49
-1.5
 49
0.25
 49
-1.5
  0
LTYPE
  2
double-dashed_double-dotted
 70
   64
  3
-----   ---------   -   -   ----
 72
   65
 73
    8
 40
18.5
 49
6
 49
-1.5
 49
6
 49
-1.5
 49
0.25
 49
-1.5
 49
0.25
 49
-1.5
  0
LTYPE
  2
dashed_triplicate-dotted
 70
   64
  3
-------    -    -    -    ------
 72
   65
 73
    8
 40
12.75
 49
6
 49
-1.5
 49
0.25
 49
-1.5
 49
0.25
 49
-1.5
 49
0.25
 49
-1.5
  0
LTYPE
  2
double-dashed_triplicate-dotted
 70
   64
  3
-----  ---------  -  -  -  -----
 72
   65
 73
   10
 40
20.25
 49
6
 49
-1.5
 49
6
 49
-1.5
 49
0.25
 49
-1.5
 49
0.25
 49
-1.5
 49
0.25
 49
-1.5
  0
LTYPE
  2
undefined
 70
   64
  3
--------------------------------
 72
   65
 73
    0
 40
0
  0
LTYPE
  2
_
 70
   64
  3
                                
 72
   65
 73
    0
 40
0
  0
LTYPE
  2
__18
 70
   64
  3
                                
 72
   65
 73
    0
 40
0
  0
LTYPE
  2
__19
 70
   64
  3
                                
 72
   65
 73
    0
 40
0
  0
LTYPE
  2
__20
 70
   64
  3
                                
 72
   65
 73
    0
 40
0
  0
LTYPE
  2
__21
 70
   64
  3
                                
 72
   65
 73
    0
 40
0
  0
LTYPE
  2
__22
 70
   64
  3
                                
 72
   65
 73
    0
 40
0
  0
LTYPE
  2
__23
 70
   64
  3
                                
 72
   65
 73
    0
 40
0
  0
LTYPE
  2
__24
 70
   64
  3
                                
 72
   65
 73
    0
 40
0
  0
LTYPE
  2
__25
 70
   64
  3
                                
 72
   65
 73
    0
 40
0
  0
LTYPE
  2
__26
 70
   64
  3
                                
 72
   65
 73
    0
 40
0
  0
LTYPE
  2
__27
 70
   64
  3
                                
 72
   65
 73
    0
 40
0
  0
LTYPE
  2
__28
 70
   64
  3
                                
 72
   65
 73
    0
 40
0
  0
LTYPE
  2
__29
 70
   64
  3
                                
 72
   65
 73
    0
 40
0
  0
LTYPE
  2
__30
 70
   64
  3
                                
 72
   65
 73
    0
 40
0
  0
LTYPE
  2
__31
 70
   64
  3
                                
 72
   65
 73
    0
 40
0
  0
LTYPE
  2
__32
 70
   64
  3
                                
 72
   65
 73
    0
 40
0
  0
ENDTAB
  0
TABLE
  2
STYLE
  5
3
100
AcDbSymbolTable
 70
     1
  0
STYLE
  5
10
100
AcDbSymbolTableRecord
100
AcDbTextStyleTableRecord
  2
STANDARD
 70
     0
 40
0.0
 41
1.0
 50
0.0
 71
     0
 42
0.2
  3
txt
  4
bigfont.shx
  0
STYLE
  5
26
100
AcDbSymbolTableRecord
100
AcDbTextStyleTableRecord
  2
TATEGAKI
 70
    68
 40
0.0
 41
1.0
 50
0.0
 71
     0
 42
1.0
  3
txt
  4
bigfont.shx
  0
ENDTAB
  0
TABLE
  2
LAYER
 70
    2
  0
LAYER
  2
_0-0_通り芯
 70
   64
 62
    7
  6
CONTINUOUS
  0
LAYER
  2
ADD_LINE
 70
   64
 62
    7
  6
CONTINUOUS
  0
ENDTAB
  0
ENDSEC
  0
SECTION
  2
BLOCKS
  0
ENDSEC
  0
SECTION
  2
ENTITIES
  0
TEXT
  8
_0-0_通り芯
 62
    7
 10
937.42529461335653
 20
1864.8543979730662
 40
30
 41
1
 50
0
  1
90
  0
TEXT
  8
_0-0_通り芯
 62
    7
 10
1327.4251511133566
 20
1864.8543979730662
 40
30
 41
1
 50
0
  1
90
  0
TEXT
  8
_0-0_通り芯
 62
    7
 10
1123.9252446133564
 20
1905.5541133750796
 40
30
 41
1
 50
0
  1
480
  0
TEXT
  8
_0-0_通り芯
 62
    7
 10
1123.9252011133565
 20
1864.8543979730662
 40
30
 41
1
 50
0
  1
300
  0
TEXT
  8
_0-0_通り芯
 62
    7
 10
915.92529461335641
 20
1807.6572478201251
 40
30
 41
1
 50
0
  1
50
  0
TEXT
  8
_0-0_通り芯
 62
    7
 10
1348.9252046133565
 20
1807.6572478201251
 40
30
 41
1
 50
0
  1
50
  0
TEXT
  8
_0-0_通り芯
 62
    7
 10
1123.9252546133566
 20
1807.6572478201251
 40
30
 41
1
 50
0
  1
380
  0
TEXT
  8
_0-0_通り芯
 62
    7
 10
926.01708524946889
 20
1057.7269313481984
 40
30
 41
1
 50
0
  1
80
  0
TEXT
  8
_0-0_通り芯
 62
    7
 10
1330.0427941259254
 20
1055.7608695045174
 40
30
 41
1
 50
0
  1
80
  0
TEXT
  8
_0-0_通り芯
 62
    7
 10
1118.6911459302121
 20
1055.7608695045174
 40
30
 41
1
 50
0
  1
320
  0
TEXT
  8
_0-0_通り芯
 62
    7
 10
761.1767043705097
 20
1458.6176123341143
 40
30
 41
1
 50
90
  1
650
  0
TEXT
  8
_0-0_通り芯
 62
    7
 10
835.38907166077308
 20
1718.3608978500363
 40
30
 41
1
 50
90
  1
90
  0
TEXT
  8
_0-0_通り芯
 62
    7
 10
834.15219887260207
 20
1521.698124530838
 40
30
 41
1
 50
90
  1
300
  0
TEXT
  8
_0-0_通り芯
 62
    7
 10
836.62594444894421
 20
1248.3492383450343
 40
30
 41
1
 50
90
  1
260
  0
TEXT
  8
_0-0_通り芯
 62
    7
 10
1074.1055197777873
 20
1640.4379121952595
 40
30
 41
1
 50
-29.587742239999947
  1
80
  0
TEXT
  8
_0-0_通り芯
 62
    7
 10
1095.1323571766952
 20
1466.0388490631403
 40
30
 41
1
 50
34.508632100000014
  1
200
  0
TEXT
  8
_0-0_通り芯
 62
    7
 10
2079.6472414903114
 20
1872.9173580763622
 40
30
 41
1
 50
0
  1
120
  0
TEXT
  8
_0-0_通り芯
 62
    7
 10
2956.3082935648386
 20
1872.9173580763622
 40
30
 41
1
 50
0
  1
120
  0
TEXT
  8
_0-0_通り芯
 62
    7
 10
2514.778274636792
 20
1872.9173580763622
 40
30
 41
1
 50
0
  1
760
  0
TEXT
  8
_0-0_通り芯
 62
    7
 10
2506.7795424098349
 20
1010.6540240103585
 40
30
 41
1
 50
0
  1
1000
  0
TEXT
  8
_0-0_通り芯
 62
    7
 10
1838.8854014588946
 20
1446.5849303795349
 40
30
 41
1
 50
90
  1
650
  0
TEXT
  8
_0-0_通り芯
 62
    7
 10
1894.2345235399061
 20
1707.7014389990245
 40
30
 41
1
 50
90
  1
90
  0
TEXT
  8
_0-0_通り芯
 62
    7
 10
1893.2557313068708
 20
1510.9642001588745
 40
30
 41
1
 50
90
  1
300
  0
TEXT
  8
_0-0_通り芯
 62
    7
 10
1891.2981468407995
 20
1220.2629069473096
 40
30
 41
1
 50
90
  1
260
  0
TEXT
  8
_0-0_通り芯
 62
    7
 10
1385.3418784029036
 20
456.29537205081675
 40
40
 41
1
 50
0
  1
分類
  0
LINE
  8
_0-0_通り芯
  6
CONTINUOUS
 62
    7
 10
402.7028599999997
 20
424.60422999999992
 11
402.7028599999997
 21
2574.6039000000001
  0
LINE
  8
_0-0_通り芯
  6
CONTINUOUS
 62
    7
 10
2472.7022000000002
 20
424.60422999999992
 11
2472.7022000000002
 21
524.60421999999994
  0
LINE
  8
_0-0_通り芯
  6
CONTINUOUS
 62
    7
 10
3602.7025000000003
 20
524.60421999999994
 11
402.7028599999997
 21
524.60421999999994
  0
LINE
  8
_0-0_通り芯
  6
CONTINUOUS
 62
    7
 10
402.7028599999997
 20
2574.6039000000001
 11
3602.7025000000003
 21
2574.6039000000001
  0
LINE
  8
_0-0_通り芯
  6
CONTINUOUS
 62
    7
 10
3602.7025000000003
 20
2574.6039000000001
 11
3602.7025000000003
 21
424.60422999999992
  0
LINE
  8
_0-0_通り芯
  6
CONTINUOUS
 62
    7
 10
3602.7025000000003
 20
424.60422999999992
 11
402.7028599999997
 21
424.60422999999992
  0
LINE
  8
_0-0_通り芯
  6
CONTINUOUS
 62
    7
 10
2702.7021999999997
 20
424.60422999999992
 11
2702.7021999999997
 21
524.60421999999994
  0
LINE
  8
_0-0_通り芯
  6
CONTINUOUS
 62
    7
 10
1352.7025000000001
 20
424.60422999999992
 11
1352.7025000000001
 21
524.60421999999994
  0
LINE
  8
_0-0_通り芯
  6
CONTINUOUS
 62
    7
 10
1522.7026000000001
 20
424.60422999999992
 11
1522.7026000000001
 21
524.60421999999994
  0
LINE
  8
_0-0_通り芯
  6
CONTINUOUS
 62
    7
 10
2242.7022000000002
 20
424.60422999999992
 11
2242.7022000000002
 21
524.60421999999994
  0
LINE
  8
_0-0_通り芯
  6
CONTINUOUS
 62
    7
 10
2072.7021
 20
424.60422999999992
 11
2072.7021
 21
524.60421999999994
  0
LINE
  8
_0-0_通り芯
  6
CONTINUOUS
 62
    7
 10
1902.7021999999999
 20
424.60422999999992
 11
1902.7021999999999
 21
524.60421999999994
  0
LINE
  8
_0-0_通り芯
  6
CONTINUOUS
 62
    7
 10
572.70267999999987
 20
424.60422999999992
 11
572.70267999999987
 21
524.60421999999994
  0
LINE
  8
_0-0_通り芯
  6
CONTINUOUS
 62
    7
 10
906.92528461335644
 20
1130.0596148857403
 11
906.92528461335644
 21
1780.0594148857404
  0
LINE
  8
_0-0_通り芯
  6
CONTINUOUS
 62
    7
 10
1386.9252046133565
 20
1130.0596148857403
 11
906.92528461335644
 21
1130.0596148857403
  0
LINE
  8
_0-0_通り芯
  6
CONTINUOUS
 62
    7
 10
1216.9251046133566
 20
1690.0594148857399
 11
1076.9253046133567
 21
1690.0594148857399
  0
LINE
  8
_0-0_通り芯
  6
CONTINUOUS
 62
    7
 10
996.92530461335662
 20
1610.05971488574
 11
996.92530461335662
 21
1584.70851488574
  0
LINE
  8
_0-0_通り芯
  6
CONTINUOUS
 62
    7
 10
1296.9252046133568
 20
1610.05971488574
 11
1296.9252046133568
 21
1584.70851488574
  0
LINE
  8
_0-0_通り芯
  6
CONTINUOUS
 62
    7
 10
986.92510461335655
 20
1130.05971488574
 11
996.88490461335664
 21
1584.71941488574
  0
LINE
  8
_0-0_通り芯
  6
CONTINUOUS
 62
    7
 10
1296.9111046133567
 20
1584.7444148857403
 11
1306.7166046133566
 21
1130.1685148857403
  0
LINE
  8
_0-0_通り芯
  6
CONTINUOUS
 62
    7
 10
836.36286461335646
 20
1130.0596148857403
 11
836.36286461335646
 21
1390.0665148857399
  0
LINE
  8
_0-0_通り芯
  6
CONTINUOUS
 62
    7
 10
893.96487461335664
 20
1130.0596148857403
 11
836.36286461335646
 21
1130.0596148857403
  0
LINE
  8
_0-0_通り芯
  6
CONTINUOUS
 62
    7
 10
893.96487461335664
 20
1390.0665148857399
 11
836.36286461335646
 21
1390.0665148857399
  0
LINE
  8
_0-0_通り芯
  6
CONTINUOUS
 62
    7
 10
836.36286461335646
 20
1390.0665148857399
 11
836.36286461335646
 21
1690.0594148857399
  0
LINE
  8
_0-0_通り芯
  6
CONTINUOUS
 62
    7
 10
893.96487461335664
 20
1390.0665148857399
 11
836.36286461335646
 21
1390.0665148857399
  0
LINE
  8
_0-0_通り芯
  6
CONTINUOUS
 62
    7
 10
893.96487461335664
 20
1690.0594148857399
 11
836.36286461335646
 21
1690.0594148857399
  0
LINE
  8
_0-0_通り芯
  6
CONTINUOUS
 62
    7
 10
836.36286461335646
 20
1690.0594148857399
 11
836.36286461335646
 21
1780.0594148857404
  0
LINE
  8
_0-0_通り芯
  6
CONTINUOUS
 62
    7
 10
893.96487461335664
 20
1780.0594148857404
 11
836.36286461335646
 21
1780.0594148857404
  0
LINE
  8
_0-0_通り芯
  6
CONTINUOUS
 62
    7
 10
759.15632461335633
 20
1780.0594148857404
 11
759.15632461335633
 21
1130.0596148857403
  0
LINE
  8
_0-0_通り芯
  6
CONTINUOUS
 62
    7
 10
897.91921461335664
 20
1780.0594148857404
 11
759.15632461335633
 21
1780.0594148857404
  0
LINE
  8
_0-0_通り芯
  6
CONTINUOUS
 62
    7
 10
897.91921461335664
 20
1130.0596148857403
 11
759.15632461335633
 21
1130.0596148857403
  0
LINE
  8
_0-0_通り芯
  6
CONTINUOUS
 62
    7
 10
906.92528461335644
 20
1054.55091488574
 11
986.92510461335655
 21
1054.55091488574
  0
LINE
  8
_0-0_通り芯
  6
CONTINUOUS
 62
    7
 10
906.92528461335644
 20
1121.3254148857402
 11
906.92528461335644
 21
1054.55091488574
  0
LINE
  8
_0-0_通り芯
  6
CONTINUOUS
 62
    7
 10
986.92510461335655
 20
1121.3254148857402
 11
986.92510461335655
 21
1054.55091488574
  0
LINE
  8
_0-0_通り芯
  6
CONTINUOUS
 62
    7
 10
986.92510461335655
 20
1054.55091488574
 11
1306.9252046133568
 21
1054.55091488574
  0
LINE
  8
_0-0_通り芯
  6
CONTINUOUS
 62
    7
 10
1306.9252046133568
 20
1121.3254148857402
 11
1306.9252046133568
 21
1054.55091488574
  0
LINE
  8
_0-0_通り芯
  6
CONTINUOUS
 62
    7
 10
1306.9252046133568
 20
1054.55091488574
 11
1386.9252046133565
 21
1054.55091488574
  0
LINE
  8
_0-0_通り芯
  6
CONTINUOUS
 62
    7
 10
1386.9252046133565
 20
1121.3254148857402
 11
1386.9252046133565
 21
1054.55091488574
  0
LINE
  8
_0-0_通り芯
  6
CONTINUOUS
 62
    7
 10
1020.7431046133565
 20
1666.7099148857403
 11
1119.3542046133566
 21
1610.7189148857401
  0
LINE
  8
_0-0_通り芯
  6
CONTINUOUS
 62
    7
 10
1059.1847046133564
 20
1439.4029148857403
 11
1139.4107046133565
 21
1494.5585148857401
  0
LINE
  8
_0-0_通り芯
  6
CONTINUOUS
 62
    7
 10
1020.7431046133565
 20
1666.7099148857403
 11
1049.7760046133565
 21
1659.1542148857402
  0
LINE
  8
_0-0_通り芯
  6
CONTINUOUS
 62
    7
 10
1059.1847046133564
 20
1439.4029148857403
 11
1078.6648046133566
 21
1462.2181148857403
  0
LINE
  8
_0-0_通り芯
  6
CONTINUOUS
 62
    7
 10
2037.0359046133563
 20
1122.0966148857403
 11
2037.0359046133563
 21
1772.0965148857404
  0
LINE
  8
_0-0_通り芯
  6
CONTINUOUS
 62
    7
 10
3037.0357046133563
 20
1122.0966148857403
 11
2037.0359046133563
 21
1122.0966148857403
  0
LINE
  8
_0-0_通り芯
  6
CONTINUOUS
 62
    7
 10
2132.0344046133569
 20
1122.0975148857403
 11
2157.0355046133564
 21
1682.0965148857399
  0
LINE
  8
_0-0_通り芯
  6
CONTINUOUS
 62
    7
 10
2942.0356046133566
 20
1122.0967148857403
 11
2917.0350046133563
 21
1682.09701488574
  0
LINE
  8
_0-0_通り芯
  6
CONTINUOUS
 62
    7
 10
2157.0355046133564
 20
1682.0965148857399
 11
2037.0359046133563
 21
1682.0965148857399
  0
LINE
  8
_0-0_通り芯
  6
CONTINUOUS
 62
    7
 10
3037.0357046133563
 20
1682.0965148857399
 11
2157.0355046133564
 21
1682.0965148857399
  0
LINE
  8
_0-0_通り芯
  6
CONTINUOUS
 62
    7
 10
2143.6421046133564
 20
1382.0966148857403
 11
2037.0359046133563
 21
1382.0966148857403
  0
LINE
  8
_0-0_通り芯
  6
CONTINUOUS
 62
    7
 10
3037.0357046133563
 20
1382.0966148857403
 11
2930.4282046133562
 21
1382.0966148857403
  0
LINE
  8
_0-0_通り芯
  6
CONTINUOUS
 62
    7
 10
1893.0663046133566
 20
1122.0966148857403
 11
1893.0663046133566
 21
1382.0966148857403
  0
LINE
  8
_0-0_通り芯
  6
CONTINUOUS
 62
    7
 10
1958.4163046133567
 20
1122.0966148857403
 11
1893.0663046133566
 21
1122.0966148857403
  0
LINE
  8
_0-0_通り芯
  6
CONTINUOUS
 62
    7
 10
1893.0663046133566
 20
1382.0966148857403
 11
1893.0663046133566
 21
1682.0965148857399
  0
LINE
  8
_0-0_通り芯
  6
CONTINUOUS
 62
    7
 10
1893.0663046133566
 20
1682.0965148857399
 11
1893.0663046133566
 21
1772.0965148857404
  0
LINE
  8
_0-0_通り芯
  6
CONTINUOUS
 62
    7
 10
1958.4163046133567
 20
1772.0965148857404
 11
1893.0663046133566
 21
1772.0965148857404
  0
LINE
  8
_0-0_通り芯
  6
CONTINUOUS
 62
    7
 10
1838.1722046133566
 20
1122.0966148857403
 11
1838.1722046133566
 21
1772.0965148857404
  0
LINE
  8
_0-0_通り芯
  6
CONTINUOUS
 62
    7
 10
1963.6445046133567
 20
1122.0966148857403
 11
1838.1722046133566
 21
1122.0966148857403
  0
LINE
  8
_0-0_通り芯
  6
CONTINUOUS
 62
    7
 10
1963.6445046133567
 20
1772.0965148857404
 11
1838.1722046133566
 21
1772.0965148857404
  0
LINE
  8
_0-0_通り芯
  6
CONTINUOUS
 62
    7
 10
2112.0359046133563
 20
1721.0965148857399
 11
2112.0359046133563
 21
1772.0965148857404
  0
LINE
  8
_0-0_通り芯
  6
CONTINUOUS
 62
    7
 10
2104.0359046133567
 20
1713.0965148857399
 11
2104.0359046133567
 21
1772.0965148857404
  0
LINE
  8
_0-0_通り芯
  6
CONTINUOUS
 62
    7
 10
2112.0359046133563
 20
1721.0965148857399
 11
2157.0358046133565
 21
1721.0965148857399
  0
LINE
  8
_0-0_通り芯
  6
CONTINUOUS
 62
    7
 10
2104.0359046133567
 20
1713.0965148857399
 11
2157.0358046133565
 21
1713.0965148857399
  0
LINE
  8
_0-0_通り芯
  6
CONTINUOUS
 62
    7
 10
2157.0358046133565
 20
1713.0965148857399
 11
2157.0358046133565
 21
1721.0965148857399
  0
LINE
  8
_0-0_通り芯
  6
CONTINUOUS
 62
    7
 10
2114.0359046133567
 20
1723.0965148857399
 11
2537.0358046133565
 21
1723.0965148857399
  0
LINE
  8
_0-0_通り芯
  6
CONTINUOUS
 62
    7
 10
2114.0359046133567
 20
1723.0965148857399
 11
2114.0359046133567
 21
1772.0965148857404
  0
LINE
  8
_0-0_通り芯
  6
CONTINUOUS
 62
    7
 10
2104.0359046133567
 20
1772.0965148857404
 11
2112.0359046133563
 21
1772.0965148857404
  0
LINE
  8
_0-0_通り芯
  6
CONTINUOUS
 62
    7
 10
2037.0359046133563
 20
1772.0965148857404
 11
2104.0359046133567
 21
1772.0965148857404
  0
LINE
  8
_0-0_通り芯
  6
CONTINUOUS
 62
    7
 10
2119.0359046133567
 20
1728.0963148857402
 11
2119.0359046133567
 21
1767.0965148857404
  0
LINE
  8
_0-0_通り芯
  6
CONTINUOUS
 62
    7
 10
2119.0359046133567
 20
1728.0963148857402
 11
2537.0358046133565
 21
1728.0963148857402
  0
LINE
  8
_0-0_通り芯
  6
CONTINUOUS
 62
    7
 10
2119.0359046133567
 20
1767.0965148857404
 11
2537.0358046133565
 21
1767.0965148857404
  0
LINE
  8
_0-0_通り芯
  6
CONTINUOUS
 62
    7
 10
2114.0359046133567
 20
1772.0965148857404
 11
2537.0358046133565
 21
1772.0965148857404
  0
LINE
  8
_0-0_通り芯
  6
CONTINUOUS
 62
    7
 10
2037.0359046133563
 20
1868.3670148857402
 11
2157.0355046133564
 21
1868.3670148857402
  0
LINE
  8
_0-0_通り芯
  6
CONTINUOUS
 62
    7
 10
2037.0359046133563
 20
1796.9905148857401
 11
2037.0359046133563
 21
1868.3670148857402
  0
LINE
  8
_0-0_通り芯
  6
CONTINUOUS
 62
    7
 10
2157.0355046133564
 20
1796.9905148857401
 11
2157.0355046133564
 21
1868.3670148857402
  0
LINE
  8
_0-0_通り芯
  6
CONTINUOUS
 62
    7
 10
2157.0355046133564
 20
1868.3670148857402
 11
2917.0350046133563
 21
1868.3670148857402
  0
LINE
  8
_0-0_通り芯
  6
CONTINUOUS
 62
    7
 10
2917.0350046133563
 20
1796.9905148857401
 11
2917.0350046133563
 21
1868.3670148857402
  0
LINE
  8
_0-0_通り芯
  6
CONTINUOUS
 62
    7
 10
2917.0350046133563
 20
1868.3670148857402
 11
3037.0357046133563
 21
1868.3670148857402
  0
LINE
  8
_0-0_通り芯
  6
CONTINUOUS
 62
    7
 10
3037.0357046133563
 20
1796.9905148857401
 11
3037.0357046133563
 21
1868.3670148857402
  0
LINE
  8
_0-0_通り芯
  6
CONTINUOUS
 62
    7
 10
2037.0359046133563
 20
1041.9035148857402
 11
2132.0344046133569
 21
1041.9035148857402
  0
LINE
  8
_0-0_通り芯
  6
CONTINUOUS
 62
    7
 10
2037.0359046133563
 20
1109.5232148857403
 11
2037.0359046133563
 21
1041.9035148857402
  0
LINE
  8
_0-0_通り芯
  6
CONTINUOUS
 62
    7
 10
2132.0344046133569
 20
1041.9035148857402
 11
2942.0356046133566
 21
1041.9035148857402
  0
LINE
  8
_0-0_通り芯
  6
CONTINUOUS
 62
    7
 10
2942.0356046133566
 20
1041.9035148857402
 11
3037.0357046133563
 21
1041.9035148857402
  0
LINE
  8
_0-0_通り芯
  6
CONTINUOUS
 62
    7
 10
3037.0357046133563
 20
1109.5232148857403
 11
3037.0357046133563
 21
1041.9035148857402
  0
LINE
  8
_0-0_通り芯
  6
CONTINUOUS
 62
    7
 10
1346.9251046133563
 20
1560.2902148857402
 11
1346.9251046133563
 21
1520.3648148857403
  0
LINE
  8
_0-0_通り芯
  6
CONTINUOUS
 62
    7
 10
946.92510461335655
 20
1520.29251488574
 11
946.92510461335655
 21
1560.3075148857399
  0
LINE
  8
_0-0_通り芯
  6
CONTINUOUS
 62
    7
 10
906.92528461335644
 20
1570.3075148857399
 11
946.92510461335655
 21
1560.3075148857399
  0
LINE
  8
_0-0_通り芯
  6
CONTINUOUS
 62
    7
 10
946.92510461335655
 20
1520.29251488574
 11
906.92528461335644
 21
1510.1556148857401
  0
LINE
  8
_0-0_通り芯
  6
CONTINUOUS
 62
    7
 10
1346.9251046133563
 20
1560.2902148857402
 11
1386.8135046133566
 21
1570.1452148857402
  0
LINE
  8
_0-0_通り芯
  6
CONTINUOUS
 62
    7
 10
1346.9251046133563
 20
1520.3648148857403
 11
1386.8135046133566
 21
1510.51021488574
  0
LINE
  8
_0-0_通り芯
  6
CONTINUOUS
 62
    7
 10
2136.6314046133566
 20
1562.24371488574
 11
2176.4368046133568
 21
1552.6354148857399
  0
LINE
  8
_0-0_通り芯
  6
CONTINUOUS
 62
    7
 10
2136.6314046133566
 20
1503.2216148857401
 11
2176.4368046133568
 21
1512.1438148857401
  0
LINE
  8
_0-0_通り芯
  6
CONTINUOUS
 62
    7
 10
2177.0358046133565
 20
1512.2779148857401
 11
2177.0358046133565
 21
1552.49091488574
  0
LINE
  8
_0-0_通り芯
  6
CONTINUOUS
 62
    7
 10
2137.0359046133563
 20
1542.0967148857403
 11
2037.0359046133563
 21
1542.0967148857403
  0
LINE
  8
_0-0_通り芯
  6
CONTINUOUS
 62
    7
 10
2137.0359046133563
 20
1522.0966148857403
 11
2037.0359046133563
 21
1522.0966148857403
  0
LINE
  8
_0-0_通り芯
  6
CONTINUOUS
 62
    7
 10
2137.0359046133563
 20
1542.0967148857403
 11
2137.0359046133563
 21
1562.14601488574
  0
LINE
  8
_0-0_通り芯
  6
CONTINUOUS
 62
    7
 10
2137.0359046133563
 20
1503.3124148857403
 11
2137.0359046133563
 21
1522.0966148857403
  0
LINE
  8
_0-0_通り芯
  6
CONTINUOUS
 62
    7
 10
2937.4800046133569
 20
1562.24371488574
 11
2897.6746046133567
 21
1552.6354148857399
  0
LINE
  8
_0-0_通り芯
  6
CONTINUOUS
 62
    7
 10
2937.4800046133569
 20
1503.2216148857401
 11
2897.6746046133567
 21
1512.1438148857401
  0
LINE
  8
_0-0_通り芯
  6
CONTINUOUS
 62
    7
 10
2897.0756046133565
 20
1512.2779148857401
 11
2897.0756046133565
 21
1552.49091488574
  0
LINE
  8
_0-0_通り芯
  6
CONTINUOUS
 62
    7
 10
2937.0754046133566
 20
1542.0967148857403
 11
3037.0755046133563
 21
1542.0967148857403
  0
LINE
  8
_0-0_通り芯
  6
CONTINUOUS
 62
    7
 10
2937.0754046133566
 20
1522.0966148857403
 11
3037.0755046133563
 21
1522.0966148857403
  0
LINE
  8
_0-0_通り芯
  6
CONTINUOUS
 62
    7
 10
2937.0754046133566
 20
1542.0967148857403
 11
2937.0754046133566
 21
1562.14601488574
  0
LINE
  8
_0-0_通り芯
  6
CONTINUOUS
 62
    7
 10
2937.0754046133566
 20
1503.3124148857403
 11
2937.0754046133566
 21
1522.0966148857403
  0
LINE
  8
_0-0_通り芯
  6
CONTINUOUS
 62
    7
 10
2029.4357046133566
 20
1772.0965148857404
 11
1952.2182046133566
 21
1772.0965148857404
  0
LINE
  8
_0-0_通り芯
  6
CONTINUOUS
 62
    7
 10
2029.4357046133566
 20
1122.0966148857403
 11
1952.2182046133566
 21
1122.0966148857403
  0
LINE
  8
_0-0_通り芯
  6
CONTINUOUS
 62
    7
 10
1942.2182046133566
 20
1382.0966148857403
 11
1893.0663046133566
 21
1382.0966148857403
  0
LINE
  8
_0-0_通り芯
  6
CONTINUOUS
 62
    7
 10
1942.2182046133566
 20
1682.0965148857399
 11
1893.0663046133566
 21
1682.0965148857399
  0
LINE
  8
_0-0_通り芯
  6
CONTINUOUS
 62
    7
 10
2537.0358046133565
 20
1092.0967148857403
 11
2537.0358046133565
 21
1802.0966148857403
  0
LINE
  8
_0-0_通り芯
  6
CONTINUOUS
 62
    7
 10
3037.0357046133563
 20
1771.4000148857399
 11
3037.0357046133563
 21
1122.0966148857403
  0
ARC
  8
_0-0_通り芯
  6
CONTINUOUS
 62
    7
 10
1076.9253046133567
 20
1610.05971488574
 40
79.999993000000003
 50
90
 51
180
  0
ARC
  8
_0-0_通り芯
  6
CONTINUOUS
 62
    7
 10
1216.9251046133566
 20
1610.05971488574
 40
79.999993000000003
 50
0
 51
90
  0
ARC
  8
_0-0_通り芯
  6
CONTINUOUS
 62
    7
 10
1202.0811046133567
 20
1587.6874148857403
 40
205.17739000000003
 50
180.83179999999996
 51
254.40175999999997
  0
ARC
  8
_0-0_通り芯
  6
CONTINUOUS
 62
    7
 10
1107.1597046133566
 20
1576.1201148857401
 40
189.33816000000002
 50
281.95519999999999
 51
2.8061064999999896
  0
CIRCLE
  8
_0-0_通り芯
  6
CONTINUOUS
 62
    7
 10
927.15780461335657
 20
1540.2658148857402
 40
10.053469
  0
CIRCLE
  8
_0-0_通り芯
  6
CONTINUOUS
 62
    7
 10
1366.4618046133569
 20
1539.85441488574
 40
9.0423355000000001
  0
POINT
  8
_0-0_通り芯
 62
    7
 10
836.36286461335646
 20
1130.0596148857403
  0
POINT
  8
_0-0_通り芯
 62
    7
 10
836.36286461335646
 20
1390.0665148857399
  0
POINT
  8
_0-0_通り芯
 62
    7
 10
836.36286461335646
 20
1390.0665148857399
  0
POINT
  8
_0-0_通り芯
 62
    7
 10
836.36286461335646
 20
1690.0594148857399
  0
POINT
  8
_0-0_通り芯
 62
    7
 10
836.36286461335646
 20
1780.0594148857404
  0
POINT
  8
_0-0_通り芯
 62
    7
 10
759.15632461335633
 20
1780.0594148857404
  0
POINT
  8
_0-0_通り芯
 62
    7
 10
759.15632461335633
 20
1130.0596148857403
  0
POINT
  8
_0-0_通り芯
 62
    7
 10
906.92528461335644
 20
1054.55091488574
  0
POINT
  8
_0-0_通り芯
 62
    7
 10
986.92510461335655
 20
1054.55091488574
  0
POINT
  8
_0-0_通り芯
 62
    7
 10
1306.9252046133568
 20
1054.55091488574
  0
POINT
  8
_0-0_通り芯
 62
    7
 10
1386.9252046133565
 20
1054.55091488574
  0
POINT
  8
_0-0_通り芯
 62
    7
 10
1893.0663046133566
 20
1122.0966148857403
  0
POINT
  8
_0-0_通り芯
 62
    7
 10
1893.0663046133566
 20
1382.0966148857403
  0
POINT
  8
_0-0_通り芯
 62
    7
 10
1893.0663046133566
 20
1682.0965148857399
  0
POINT
  8
_0-0_通り芯
 62
    7
 10
1893.0663046133566
 20
1772.0965148857404
  0
POINT
  8
_0-0_通り芯
 62
    7
 10
1838.1722046133566
 20
1122.0966148857403
  0
POINT
  8
_0-0_通り芯
 62
    7
 10
1838.1722046133566
 20
1772.0965148857404
  0
POINT
  8
_0-0_通り芯
 62
    7
 10
2037.0359046133563
 20
1868.3670148857402
  0
POINT
  8
_0-0_通り芯
 62
    7
 10
2157.0355046133564
 20
1868.3670148857402
  0
POINT
  8
_0-0_通り芯
 62
    7
 10
2917.0350046133563
 20
1868.3670148857402
  0
POINT
  8
_0-0_通り芯
 62
    7
 10
3037.0357046133563
 20
1868.3670148857402
  0
POINT
  8
_0-0_通り芯
 62
    7
 10
2037.0359046133563
 20
1041.9035148857402
  0
POINT
  8
_0-0_通り芯
 62
    7
 10
3037.0357046133563
 20
1041.9035148857402
  0
LINE
  8
_0-0_通り芯
  6
CONTINUOUS
 62
    7
 10
1386.9252046133565
 20
1720.0595148857403
 11
1386.9252046133565
 21
1130.0596148857403
  0
LINE
  8
_0-0_通り芯
  6
CONTINUOUS
 62
    7
 10
2537.0358046133565
 20
1772.0965148857404
 11
2960.035804613357
 21
1772.0965148857404
  0
LINE
  8
_0-0_通り芯
  6
CONTINUOUS
 62
    7
 10
2537.0358046133565
 20
1723.0965148857399
 11
2960.035804613357
 21
1723.0965148857399
  0
LINE
  8
_0-0_通り芯
  6
CONTINUOUS
 62
    7
 10
2960.035804613357
 20
1772.0965148857404
 11
2960.035804613357
 21
1723.0965148857399
  0
LINE
  8
_0-0_通り芯
  6
CONTINUOUS
 62
    7
 10
2537.0358046133565
 20
1767.0965148857404
 11
2955.035804613357
 21
1767.0965148857404
  0
LINE
  8
_0-0_通り芯
  6
CONTINUOUS
 62
    7
 10
2537.0358046133565
 20
1728.0965148857399
 11
2955.035804613357
 21
1728.0965148857399
  0
LINE
  8
_0-0_通り芯
  6
CONTINUOUS
 62
    7
 10
2955.035804613357
 20
1767.0965148857404
 11
2955.035804613357
 21
1728.0965148857399
  0
LINE
  8
_0-0_通り芯
  6
CONTINUOUS
 62
    7
 10
3037.0357046133563
 20
1771.4000148857399
 11
2970.0357046133563
 21
1771.4000148857399
  0
LINE
  8
_0-0_通り芯
  6
CONTINUOUS
 62
    7
 10
2970.0357046133563
 20
1771.4000148857399
 11
2970.0357046133563
 21
1712.4000148857399
  0
LINE
  8
_0-0_通り芯
  6
CONTINUOUS
 62
    7
 10
2970.0357046133563
 20
1712.4000148857399
 11
2917.0357046133563
 21
1712.4000148857399
  0
LINE
  8
_0-0_通り芯
  6
CONTINUOUS
 62
    7
 10
2970.0357046133563
 20
1771.4000148857399
 11
2962.0357046133563
 21
1771.4000148857399
  0
LINE
  8
_0-0_通り芯
  6
CONTINUOUS
 62
    7
 10
2917.0357046133563
 20
1720.4000148857401
 11
2917.0357046133563
 21
1712.4000148857399
  0
LINE
  8
_0-0_通り芯
  6
CONTINUOUS
 62
    7
 10
2962.0357046133563
 20
1720.4000148857401
 11
2917.0357046133563
 21
1720.4000148857401
  0
LINE
  8
_0-0_通り芯
  6
CONTINUOUS
 62
    7
 10
2962.0357046133563
 20
1771.4000148857399
 11
2962.0357046133563
 21
1720.4000148857401
  0
LINE
  8
_0-0_通り芯
  6
CONTINUOUS
 62
    7
 10
1386.9252046133565
 20
1720.0595148857403
 11
1386.9252046133565
 21
1780.05971488574
  0
LINE
  8
_0-0_通り芯
  6
CONTINUOUS
 62
    7
 10
1386.9252046133565
 20
1780.05971488574
 11
1349.9252046133563
 21
1780.05971488574
  0
LINE
  8
_0-0_通り芯
  6
CONTINUOUS
 62
    7
 10
1349.9252046133563
 20
1780.05971488574
 11
1349.9252046133563
 21
1719.3963148857404
  0
LINE
  8
_0-0_通り芯
  6
CONTINUOUS
 62
    7
 10
1306.9252046133565
 20
1727.3963148857406
 11
1306.9252046133565
 21
1719.3963148857404
  0
LINE
  8
_0-0_通り芯
  6
CONTINUOUS
 62
    7
 10
1341.9252046133565
 20
1780.05971488574
 11
1341.9252046133565
 21
1727.3963148857406
  0
LINE
  8
_0-0_通り芯
  6
CONTINUOUS
 62
    7
 10
1306.9252046133565
 20
1727.3963148857406
 11
1341.9252046133565
 21
1727.3963148857406
  0
LINE
  8
_0-0_通り芯
  6
CONTINUOUS
 62
    7
 10
1349.9252046133563
 20
1780.05971488574
 11
1341.9252046133565
 21
1780.05971488574
  0
LINE
  8
_0-0_通り芯
  6
CONTINUOUS
 62
    7
 10
1339.9252046133563
 20
1780.05971488574
 11
953.92530461335673
 21
1780.05971488574
  0
LINE
  8
_0-0_通り芯
  6
CONTINUOUS
 62
    7
 10
951.92530461335662
 20
1779.1313148857398
 11
951.92530461335662
 21
1780.05971488574
  0
LINE
  8
_0-0_通り芯
  6
CONTINUOUS
 62
    7
 10
943.9253046133565
 20
1779.2961148857398
 11
943.9253046133565
 21
1780.05971488574
  0
LINE
  8
_0-0_通り芯
  6
CONTINUOUS
 62
    7
 10
986.9252046133563
 20
1719.3963148857404
 11
943.9253046133565
 21
1719.3963148857404
  0
LINE
  8
_0-0_通り芯
  6
CONTINUOUS
 62
    7
 10
943.9253046133565
 20
1719.3963148857404
 11
943.9253046133565
 21
1779.2961148857398
  0
LINE
  8
_0-0_通り芯
  6
CONTINUOUS
 62
    7
 10
951.92530461335662
 20
1727.3963148857406
 11
951.92530461335662
 21
1779.1313148857398
  0
LINE
  8
_0-0_通り芯
  6
CONTINUOUS
 62
    7
 10
986.92530461335662
 20
1727.3963148857406
 11
986.92530461335662
 21
1719.3963148857404
  0
LINE
  8
_0-0_通り芯
  6
CONTINUOUS
 62
    7
 10
1306.9252046133565
 20
1719.3963148857404
 11
1349.9252046133563
 21
1719.3963148857404
  0
LINE
  8
_0-0_通り芯
  6
CONTINUOUS
 62
    7
 10
986.92530461335662
 20
1727.3963148857406
 11
951.92530461335662
 21
1727.3963148857406
  0
LINE
  8
_0-0_通り芯
  6
CONTINUOUS
 62
    7
 10
986.92530461335662
 20
1729.3963148857404
 11
1306.9252046133565
 21
1729.3963148857404
  0
LINE
  8
_0-0_通り芯
  6
CONTINUOUS
 62
    7
 10
986.92530461335662
 20
1729.3963148857404
 11
953.92530461335673
 21
1729.3963148857404
  0
LINE
  8
_0-0_通り芯
  6
CONTINUOUS
 62
    7
 10
953.92530461335673
 20
1729.3963148857404
 11
953.92530461335673
 21
1778.05971488574
  0
LINE
  8
_0-0_通り芯
  6
CONTINUOUS
 62
    7
 10
1339.9252046133563
 20
1780.05971488574
 11
1339.9252046133563
 21
1729.3963148857404
  0
LINE
  8
_0-0_通り芯
  6
CONTINUOUS
 62
    7
 10
1306.9252046133565
 20
1729.3963148857404
 11
1339.9252046133563
 21
1729.3963148857404
  0
LINE
  8
_0-0_通り芯
  6
CONTINUOUS
 62
    7
 10
953.92530461335673
 20
1729.3963148857404
 11
953.92530461335673
 21
1780.05971488574
  0
LINE
  8
_0-0_通り芯
  6
CONTINUOUS
 62
    7
 10
951.92530461335662
 20
1780.05971488574
 11
906.92528461335644
 21
1780.05971488574
  0
LINE
  8
_0-0_通り芯
  6
CONTINUOUS
 62
    7
 10
986.92530461335662
 20
1734.3963148857404
 11
1306.9252046133565
 21
1734.3963148857404
  0
LINE
  8
_0-0_通り芯
  6
CONTINUOUS
 62
    7
 10
958.92530461335673
 20
1734.3963148857404
 11
958.92530461335673
 21
1775.05971488574
  0
LINE
  8
_0-0_通り芯
  6
CONTINUOUS
 62
    7
 10
986.92530461335662
 20
1734.3963148857404
 11
958.92530461335673
 21
1734.3963148857404
  0
LINE
  8
_0-0_通り芯
  6
CONTINUOUS
 62
    7
 10
1306.9252046133565
 20
1734.3963148857404
 11
1334.9252046133563
 21
1734.3963148857404
  0
LINE
  8
_0-0_通り芯
  6
CONTINUOUS
 62
    7
 10
1334.9252046133563
 20
1775.05971488574
 11
958.92530461335673
 21
1775.05971488574
  0
LINE
  8
_0-0_通り芯
  6
CONTINUOUS
 62
    7
 10
1334.9252046133563
 20
1775.05971488574
 11
1334.9252046133563
 21
1734.3963148857404
  0
LINE
  8
_0-0_通り芯
  6
CONTINUOUS
 62
    7
 10
906.92528461335644
 20
1905.5541133750796
 11
1386.9252046133565
 21
1905.5541133750796
  0
POINT
  8
_0-0_通り芯
 62
    7
 10
906.92528461335644
 20
1905.5541133750796
  0
POINT
  8
_0-0_通り芯
 62
    7
 10
1386.9252046133565
 20
1905.5541133750796
  0
LINE
  8
_0-0_通り芯
  6
CONTINUOUS
 62
    7
 10
906.92528461335644
 20
1905.5541133750796
 11
906.92528461335644
 21
1807.6572478201251
  0
LINE
  8
_0-0_通り芯
  6
CONTINUOUS
 62
    7
 10
1386.9252046133565
 20
1905.5541133750796
 11
1386.9252046133565
 21
1807.6572478201251
  0
LINE
  8
_0-0_通り芯
  6
CONTINUOUS
 62
    7
 10
906.92528461335644
 20
1864.8543979730662
 11
996.92530461335662
 21
1864.8543979730662
  0
POINT
  8
_0-0_通り芯
 62
    7
 10
906.92528461335644
 20
1864.8543979730662
  0
POINT
  8
_0-0_通り芯
 62
    7
 10
996.92530461335662
 20
1864.8543979730662
  0
LINE
  8
_0-0_通り芯
  6
CONTINUOUS
 62
    7
 10
906.92528461335644
 20
1864.8543979730662
 11
906.92528461335644
 21
1807.6572478201251
  0
LINE
  8
_0-0_通り芯
  6
CONTINUOUS
 62
    7
 10
996.92530461335662
 20
1864.8543979730662
 11
996.92530461335662
 21
1807.6572478201251
  0
LINE
  8
_0-0_通り芯
  6
CONTINUOUS
 62
    7
 10
996.92530461335662
 20
1864.8543979730662
 11
1296.9250976133567
 21
1864.8543979730662
  0
POINT
  8
_0-0_通り芯
 62
    7
 10
1296.9250976133567
 20
1864.8543979730662
  0
LINE
  8
_0-0_通り芯
  6
CONTINUOUS
 62
    7
 10
1296.9250976133567
 20
1864.8543979730662
 11
1296.9250976133567
 21
1807.6572478201251
  0
LINE
  8
_0-0_通り芯
  6
CONTINUOUS
 62
    7
 10
1296.9250976133567
 20
1864.8543979730662
 11
1386.9252046133565
 21
1864.8543979730662
  0
POINT
  8
_0-0_通り芯
 62
    7
 10
1386.9252046133565
 20
1864.8543979730662
  0
LINE
  8
_0-0_通り芯
  6
CONTINUOUS
 62
    7
 10
1386.9252046133565
 20
1864.8543979730662
 11
1386.9252046133565
 21
1807.6572478201251
  0
LINE
  8
_0-0_通り芯
  6
CONTINUOUS
 62
    7
 10
906.92528461335644
 20
1807.6572478201251
 11
953.92530461335673
 21
1807.6572478201251
  0
POINT
  8
_0-0_通り芯
 62
    7
 10
906.92528461335644
 20
1807.6572478201251
  0
POINT
  8
_0-0_通り芯
 62
    7
 10
953.92530461335673
 20
1807.6572478201251
  0
LINE
  8
_0-0_通り芯
  6
CONTINUOUS
 62
    7
 10
906.92528461335644
 20
1807.6572478201251
 11
906.92528461335644
 21
1787.9872294632501
  0
LINE
  8
_0-0_通り芯
  6
CONTINUOUS
 62
    7
 10
953.92530461335673
 20
1807.6572478201251
 11
953.92530461335673
 21
1787.9872294632501
  0
LINE
  8
_0-0_通り芯
  6
CONTINUOUS
 62
    7
 10
953.92530461335673
 20
1807.6572478201251
 11
1339.9252046133563
 21
1807.6572478201251
  0
POINT
  8
_0-0_通り芯
 62
    7
 10
1339.9252046133563
 20
1807.6572478201251
  0
LINE
  8
_0-0_通り芯
  6
CONTINUOUS
 62
    7
 10
1339.9252046133563
 20
1807.6572478201251
 11
1339.9252046133563
 21
1787.9872294632501
  0
LINE
  8
_0-0_通り芯
  6
CONTINUOUS
 62
    7
 10
1339.9252046133563
 20
1807.6572478201251
 11
1386.9252046133565
 21
1807.6572478201251
  0
POINT
  8
_0-0_通り芯
 62
    7
 10
1386.9252046133565
 20
1807.6572478201251
  0
LINE
  8
_0-0_通り芯
  6
CONTINUOUS
 62
    7
 10
1386.9252046133565
 20
1807.6572478201251
 11
1386.9252046133565
 21
1787.9872294632501
  0
TEXT
  8
_0-0_通り芯
 62
    7
 10
452.1710526315789
 20
455.9210526315789
 40
40
 41
1
 50
0
  1
名称
  0
TEXT
  8
_0-0_通り芯
 62
    7
 10
742.00657894736855
 20
452.66447368421052
 40
40
 41
1
 50
0
  1
クリーン側溝　300ＡＲＭ
  0
TEXT
  8
_0-0_通り芯
 62
    7
 10
1645.0923226433433
 20
447.8036929057339
 40
40
 41
1
 50
0
  1
街路型
  0
TEXT
  8
_0-0_通り芯
 62
    7
 10
1950.717672413793
 20
454.80558076225054
 40
40
 41
1
 50
0
  1
図番
  0
TEXT
  8
_0-0_通り芯
 62
    7
 10
2285.334106121391
 20
454.16069482074136
 40
40
 41
1
 50
0
  1
参考重量
  0
TEXT
  8
_0-0_通り芯
 62
    7
 10
2550.6833916754267
 20
454.83692104149736
 40
40
 41
1
 50
0
  1
323㎏
  0
TEXT
  8
_0-0_通り芯
 62
    7
 10
2817.5365335498864
 20
451.78397923700015
 40
40
 41
1
 50
0
  1
岩城ブロック工業株式会社
  0
TEXT
  8
_0-0_通り芯
 62
    7
 10
748.5197368421052
 20
2123.2894736842104
 40
50
 41
1
 50
0
  1
断面図
  0
TEXT
  8
_0-0_通り芯
 62
    7
 10
1888.3223684210525
 20
2123.2894736842104
 40
50
 41
1
 50
0
  1
側面図
  0
ENDSEC
  0
EOF
