  0
SECTION
  2
HEADER
  9
$ACADVER
  1
AC1009
  9
$INSBASE
 10
0
 20
0
 30
0
  9
$EXTMIN
 10
0
 20
0
  9
$EXTMAX
 10
5940
 20
4200
  9
$LIMMIN
 10
0
 20
0
  9
$LIMMAX
 10
5940
 20
4200
  9
$LTSCALE
 40
10
  0
ENDSEC
  0
SECTION
  2
TABLES
  0
TABLE
  2
LTYPE
 70
     9
  0
LTYPE
  2
CONTINUOUS
 70
    64
  3
実線
 72
    65
 73
     0
 40
0.0
  0
LTYPE
  2
DASHED1
 70
    64
  3
--  --  --  --  --  --  --  --  
 72
    65
 73
     2
 40
2.5
 49
1.25
 49
-1.25
  0
LTYPE
  2
DASHED2
 70
    64
  3
----    ----    ----    ----    
 72
    65
 73
     2
 40
5.0
 49
2.5
 49
-2.5
  0
LTYPE
  2
DASHED3
 70
    64
  3
------  ------  ------  ------  
 72
    65
 73
     2
 40
5.0
 49
3.75
 49
-1.25
  0
LTYPE
  2
CENTER1
 70
    64
  3
----- - ----- - ----- - ----- - 
 72
    65
 73
     4
 40
10.0
 49
6.25
 49
-1.25
 49
1.25
 49
-1.25
  0
LTYPE
  2
CENTER2
 70
    64
  3
----------  --  ----------  --  
 72
    65
 73
     4
 40
20.0
 49
12.5
 49
-2.5
 49
2.5
 49
-2.5
  0
LTYPE
  2
PHANTOM1
 70
    64
  3
--- - - --- - - --- - - --- - - 
 72
    65
 73
     6
 40
10.0
 49
3.25
 49
-1.25
 49
1.25
 49
-1.25
 49
1.25
 49
-1.25
  0
LTYPE
  2
PHANTOM2
 70
    64
  3
--------  -  -  --------  -  -  
 72
    65
 73
     6
 40
20.0
 49
10.0
 49
-2.5
 49
1.25
 49
-2.5
 49
1.25
 49
-2.5
  0
LTYPE
  2
DOT
 70
    64
  3
-   -   -   -   -   -   -   -   
 72
    65
 73
     2
 40
2.5
 49
0.625
 49
-1.875
  0
LTYPE
  2
DUMMY
 70
    64
  3
ダミー
 72
    65
 73
     0
 40
0.0
  0
LTYPE
  2
RAND1
 70
    64
  3
ランダム線1
 72
    65
 73
     4
 40
10.0
 49
1.0
 49
-2.0
 49
3.0
 49
-4.0
  0
LTYPE
  2
RAND2
 70
    64
  3
ランダム線2
 72
    65
 73
     4
 40
14.0
 49
2.0
 49
-3.0
 49
4.0
 49
-5.0
  0
LTYPE
  2
RAND3
 70
    64
  3
ランダム線3
 72
    65
 73
     4
 40
18.0
 49
3.0
 49
-4.0
 49
5.0
 49
-6.0
  0
LTYPE
  2
RAND4
 70
    64
  3
ランダム線4
 72
    65
 73
     4
 40
22.0
 49
4.0
 49
-5.0
 49
6.0
 49
-7.0
  0
LTYPE
  2
RAND5
 70
    64
  3
ランダム線5
 72
    65
 73
     4
 40
26.0
 49
5.0
 49
-6.0
 49
7.0
 49
-8.0
  0
LTYPE
  2
LONG1
 70
    64
  3
----------  --  ----------  --  
 72
    65
 73
     4
 40
40.0
 49
32.5
 49
-2.5
 49
2.5
 49
-2.5
  0
LTYPE
  2
LONG2
 70
    64
  3
--------  -  -  --------  -  -  
 72
    65
 73
     6
 40
40.0
 49
30.0
 49
-2.5
 49
1.25
 49
-2.5
 49
1.25
 49
-2.5
  0
LTYPE
  2
LONG3
 70
    64
  3
+++++++++++++++..+++++++++++++++
 72
    65
 73
     2
 40
40.0
 49
37.5
 49
-2.5
  0
LTYPE
  2
LONG4
 70
    64
  3
+++++++++++++++..+++++++++++++++
 72
    65
 73
     2
 40
80.0
 49
75.0
 49
-5.0
  0
LTYPE
  2
LONG5
 70
    64
  3
----------  --  ----------  --  
 72
    65
 73
     4
 40
60.0
 49
37.5
 49
-7.5
 49
7.5
 49
-7.5
  0
LTYPE
  2
dashed
 70
   64
  3
-------   -------------   ------
 72
   65
 73
    2
 40
7.5
 49
6
 49
-1.5
  0
LTYPE
  2
dashed_spaced
 70
   64
  3
----        --------        ----
 72
   65
 73
    2
 40
12
 49
6
 49
-6
  0
LTYPE
  2
long_dashed_dotted
 70
   64
  3
------------- --- --------------
 72
   65
 73
    4
 40
15.25
 49
12
 49
-1.5
 49
0.25
 49
-1.5
  0
LTYPE
  2
long_dashed_double-dotted
 70
   64
  3
----------- --- --- ------------
 72
   65
 73
    6
 40
17
 49
12
 49
-1.5
 49
0.25
 49
-1.5
 49
0.25
 49
-1.5
  0
LTYPE
  2
long_dashed_triplicate-dotted
 70
   64
  3
--------- --- --- --- ----------
 72
   65
 73
    8
 40
18.75
 49
12
 49
-1.5
 49
0.25
 49
-1.5
 49
0.25
 49
-1.5
 49
0.25
 49
-1.5
  0
LTYPE
  2
dotted
 70
   64
  3
   -       -       -       -    
 72
   65
 73
    2
 40
1.75
 49
0.25
 49
-1.5
  0
LTYPE
  2
chain
 70
   64
  3
-------------- -- --------------
 72
   65
 73
    4
 40
18.5
 49
12
 49
-1.5
 49
3.5
 49
-1.5
  0
LTYPE
  2
chain_double_dash
 70
   64
  3
------------ -- -- -------------
 72
   65
 73
    6
 40
23.5
 49
12
 49
-1.5
 49
3.5
 49
-1.5
 49
3.5
 49
-1.5
  0
LTYPE
  2
dashed_dotted
 70
   64
  3
-----------     -     ----------
 72
   65
 73
    4
 40
9.25
 49
6
 49
-1.5
 49
0.25
 49
-1.5
  0
LTYPE
  2
double-dashed_dotted
 70
   64
  3
------   -----------   -   -----
 72
   65
 73
    6
 40
16.75
 49
6
 49
-1.5
 49
6
 49
-1.5
 49
0.25
 49
-1.5
  0
LTYPE
  2
dashed_double-dotted
 70
   64
  3
---------    -    -    ---------
 72
   65
 73
    6
 40
11
 49
6
 49
-1.5
 49
0.25
 49
-1.5
 49
0.25
 49
-1.5
  0
LTYPE
  2
double-dashed_double-dotted
 70
   64
  3
-----   ---------   -   -   ----
 72
   65
 73
    8
 40
18.5
 49
6
 49
-1.5
 49
6
 49
-1.5
 49
0.25
 49
-1.5
 49
0.25
 49
-1.5
  0
LTYPE
  2
dashed_triplicate-dotted
 70
   64
  3
-------    -    -    -    ------
 72
   65
 73
    8
 40
12.75
 49
6
 49
-1.5
 49
0.25
 49
-1.5
 49
0.25
 49
-1.5
 49
0.25
 49
-1.5
  0
LTYPE
  2
double-dashed_triplicate-dotted
 70
   64
  3
-----  ---------  -  -  -  -----
 72
   65
 73
   10
 40
20.25
 49
6
 49
-1.5
 49
6
 49
-1.5
 49
0.25
 49
-1.5
 49
0.25
 49
-1.5
 49
0.25
 49
-1.5
  0
LTYPE
  2
undefined
 70
   64
  3
--------------------------------
 72
   65
 73
    0
 40
0
  0
ENDTAB
  0
TABLE
  2
STYLE
  5
3
100
AcDbSymbolTable
 70
     1
  0
STYLE
  5
10
100
AcDbSymbolTableRecord
100
AcDbTextStyleTableRecord
  2
STANDARD
 70
     0
 40
0.0
 41
1.0
 50
0.0
 71
     0
 42
0.2
  3
txt
  4
bigfont.shx
  0
STYLE
  5
26
100
AcDbSymbolTableRecord
100
AcDbTextStyleTableRecord
  2
TATEGAKI
 70
    68
 40
0.0
 41
1.0
 50
0.0
 71
     0
 42
1.0
  3
txt
  4
bigfont.shx
  0
ENDTAB
  0
TABLE
  2
LAYER
 70
    2
  0
LAYER
  2
_0-0_通り芯
 70
   64
 62
    7
  6
CONTINUOUS
  0
LAYER
  2
ADD_LINE
 70
   64
 62
    7
  6
CONTINUOUS
  0
ENDTAB
  0
ENDSEC
  0
SECTION
  2
BLOCKS
  0
ENDSEC
  0
SECTION
  2
ENTITIES
  0
LINE
  8
_0-0_通り芯
  6
CONTINUOUS
 62
    7
 10
1516.5372499999999
 20
966.70720000000006
 11
1516.5372499999999
 21
3116.7069000000001
  0
LINE
  8
_0-0_通り芯
  6
CONTINUOUS
 62
    7
 10
1516.5372499999999
 20
3116.7069000000001
 11
4716.5367999999999
 21
3116.7069000000001
  0
LINE
  8
_0-0_通り芯
  6
CONTINUOUS
 62
    7
 10
4716.5367999999999
 20
3116.7069000000001
 11
4716.5367999999999
 21
966.70720000000006
  0
LINE
  8
_0-0_通り芯
  6
CONTINUOUS
 62
    7
 10
4716.5367999999999
 20
966.70720000000006
 11
1516.5372499999999
 21
966.70720000000006
  0
LINE
  8
_0-0_通り芯
  6
CONTINUOUS
 62
    7
 10
2098.209908659961
 20
1804.4806239642346
 11
2098.209908659961
 21
1204.4806239642346
  0
LINE
  8
_0-0_通り芯
  6
CONTINUOUS
 62
    7
 10
2498.209908659961
 20
1804.4806239642346
 11
2498.209908659961
 21
1204.4806239642346
  0
LINE
  8
_0-0_通り芯
  6
CONTINUOUS
 62
    7
 10
3998.209908659961
 20
1804.4806239642346
 11
3998.209908659961
 21
1204.4806239642346
  0
LINE
  8
_0-0_通り芯
  6
CONTINUOUS
 62
    7
 10
4298.209908659961
 20
1804.4806239642346
 11
4298.209908659961
 21
1204.4806239642346
  0
LINE
  8
_0-0_通り芯
  6
CONTINUOUS
 62
    7
 10
2098.209908659961
 20
1804.4806239642346
 11
4298.209908659961
 21
1804.4806239642346
  0
LINE
  8
_0-0_通り芯
  6
CONTINUOUS
 62
    7
 10
2098.209908659961
 20
1704.4806239642346
 11
4298.209908659961
 21
1704.4806239642346
  0
LINE
  8
_0-0_通り芯
  6
CONTINUOUS
 62
    7
 10
2098.209908659961
 20
1604.4806239642346
 11
4298.209908659961
 21
1604.4806239642346
  0
LINE
  8
_0-0_通り芯
  6
CONTINUOUS
 62
    7
 10
2098.209908659961
 20
1504.4806239642346
 11
4298.209908659961
 21
1504.4806239642346
  0
LINE
  8
_0-0_通り芯
  6
CONTINUOUS
 62
    7
 10
2098.209908659961
 20
1404.4806239642346
 11
4298.209908659961
 21
1404.4806239642346
  0
LINE
  8
_0-0_通り芯
  6
CONTINUOUS
 62
    7
 10
2098.209908659961
 20
1304.4806239642346
 11
4298.209908659961
 21
1304.4806239642346
  0
LINE
  8
_0-0_通り芯
  6
CONTINUOUS
 62
    7
 10
2098.209908659961
 20
1204.4806239642346
 11
4298.209908659961
 21
1204.4806239642346
  0
LINE
  8
_0-0_通り芯
  6
CONTINUOUS
 62
    7
 10
2798.209908659961
 20
1754.4806239642346
 11
2798.209908659961
 21
1204.4806239642346
  0
LINE
  8
_0-0_通り芯
  6
CONTINUOUS
 62
    7
 10
3098.209908659961
 20
1754.4806239642346
 11
3098.209908659961
 21
1204.4806239642346
  0
LINE
  8
_0-0_通り芯
  6
CONTINUOUS
 62
    7
 10
3398.209908659961
 20
1754.4806239642346
 11
3398.209908659961
 21
1204.4806239642346
  0
LINE
  8
_0-0_通り芯
  6
CONTINUOUS
 62
    7
 10
3698.209908659961
 20
1754.4806239642346
 11
3698.209908659961
 21
1204.4806239642346
  0
LINE
  8
_0-0_通り芯
  6
CONTINUOUS
 62
    7
 10
2498.209908659961
 20
1754.4806239642346
 11
3998.209908659961
 21
1754.4806239642346
  0
TEXT
  8
_0-0_通り芯
 62
    7
 10
2098.209908659961
 20
1804.4806239642346
 40
50
 41
1
 50
0
  1
寸法表
  0
TEXT
  8
_0-0_通り芯
 62
    7
 10
2573.209908659961
 20
1629.4806239642346
 40
50
 41
1
 50
0
  1
２００
  0
TEXT
  8
_0-0_通り芯
 62
    7
 10
2573.209908659961
 20
1529.4806239642346
 40
50
 41
1
 50
0
  1
２５０
  0
TEXT
  8
_0-0_通り芯
 62
    7
 10
2573.209908659961
 20
1429.4806239642346
 40
50
 41
1
 50
0
  1
３００
  0
TEXT
  8
_0-0_通り芯
 62
    7
 10
2573.209908659961
 20
1329.4806239642346
 40
50
 41
1
 50
0
  1
３５０
  0
TEXT
  8
_0-0_通り芯
 62
    7
 10
2573.209908659961
 20
1229.4806239642346
 40
50
 41
1
 50
0
  1
４００
  0
TEXT
  8
_0-0_通り芯
 62
    7
 10
2223.209908659961
 20
1629.4806239642346
 40
50
 41
1
 50
0
  1
２００
  0
TEXT
  8
_0-0_通り芯
 62
    7
 10
2223.209908659961
 20
1529.4806239642346
 40
50
 41
1
 50
0
  1
２５０
  0
TEXT
  8
_0-0_通り芯
 62
    7
 10
2223.209908659961
 20
1429.4806239642346
 40
50
 41
1
 50
0
  1
３００
  0
TEXT
  8
_0-0_通り芯
 62
    7
 10
2223.209908659961
 20
1329.4806239642346
 40
50
 41
1
 50
0
  1
３５０
  0
TEXT
  8
_0-0_通り芯
 62
    7
 10
2223.209908659961
 20
1229.4806239642346
 40
50
 41
1
 50
0
  1
４００
  0
TEXT
  8
_0-0_通り芯
 62
    7
 10
2873.209908659961
 20
1629.4806239642346
 40
50
 41
1
 50
0
  1
３６０
  0
TEXT
  8
_0-0_通り芯
 62
    7
 10
2873.209908659961
 20
1529.4806239642346
 40
50
 41
1
 50
0
  1
４２０
  0
TEXT
  8
_0-0_通り芯
 62
    7
 10
2873.209908659961
 20
1429.4806239642346
 40
50
 41
1
 50
0
  1
４８０
  0
TEXT
  8
_0-0_通り芯
 62
    7
 10
2873.209908659961
 20
1329.4806239642346
 40
50
 41
1
 50
0
  1
５３０
  0
TEXT
  8
_0-0_通り芯
 62
    7
 10
2873.209908659961
 20
1229.4806239642346
 40
50
 41
1
 50
0
  1
６００
  0
TEXT
  8
_0-0_通り芯
 62
    7
 10
3173.209908659961
 20
1629.4806239642346
 40
50
 41
1
 50
0
  1
３６０
  0
TEXT
  8
_0-0_通り芯
 62
    7
 10
3173.209908659961
 20
1529.4806239642346
 40
50
 41
1
 50
0
  1
４２０
  0
TEXT
  8
_0-0_通り芯
 62
    7
 10
3173.209908659961
 20
1429.4806239642346
 40
50
 41
1
 50
0
  1
４８０
  0
TEXT
  8
_0-0_通り芯
 62
    7
 10
3173.209908659961
 20
1329.4806239642346
 40
50
 41
1
 50
0
  1
５３５
  0
TEXT
  8
_0-0_通り芯
 62
    7
 10
3173.209908659961
 20
1229.4806239642346
 40
50
 41
1
 50
0
  1
６００
  0
TEXT
  8
_0-0_通り芯
 62
    7
 10
3498.209908659961
 20
1529.4806239642346
 40
50
 41
1
 50
0
  1
９０
  0
TEXT
  8
_0-0_通り芯
 62
    7
 10
3498.209908659961
 20
1429.4806239642346
 40
50
 41
1
 50
0
  1
９０
  0
TEXT
  8
_0-0_通り芯
 62
    7
 10
3498.209908659961
 20
1329.4806239642346
 40
50
 41
1
 50
0
  1
９０
  0
TEXT
  8
_0-0_通り芯
 62
    7
 10
3473.209908659961
 20
1229.4806239642346
 40
50
 41
1
 50
0
  1
１００
  0
TEXT
  8
_0-0_通り芯
 62
    7
 10
3498.209908659961
 20
1629.4806239642346
 40
50
 41
1
 50
0
  1
８０
  0
TEXT
  8
_0-0_通り芯
 62
    7
 10
3748.209908659961
 20
1629.4806239642346
 40
50
 41
1
 50
0
  1
２０００
  0
TEXT
  8
_0-0_通り芯
 62
    7
 10
3748.209908659961
 20
1529.4806239642346
 40
50
 41
1
 50
0
  1
２０００
  0
TEXT
  8
_0-0_通り芯
 62
    7
 10
3748.209908659961
 20
1429.4806239642346
 40
50
 41
1
 50
0
  1
２０００
  0
TEXT
  8
_0-0_通り芯
 62
    7
 10
3748.209908659961
 20
1329.4806239642346
 40
50
 41
1
 50
0
  1
２０００
  0
TEXT
  8
_0-0_通り芯
 62
    7
 10
3748.209908659961
 20
1229.4806239642346
 40
50
 41
1
 50
0
  1
２０００
  0
TEXT
  8
_0-0_通り芯
 62
    7
 10
4073.209908659961
 20
1629.4806239642346
 40
50
 41
1
 50
0
  1
４４７
  0
TEXT
  8
_0-0_通り芯
 62
    7
 10
4073.209908659961
 20
1529.4806239642346
 40
50
 41
1
 50
0
  1
５４４
  0
TEXT
  8
_0-0_通り芯
 62
    7
 10
4073.209908659961
 20
1429.4806239642346
 40
50
 41
1
 50
0
  1
７５５
  0
TEXT
  8
_0-0_通り芯
 62
    7
 10
4073.209908659961
 20
1329.4806239642346
 40
50
 41
1
 50
0
  1
８９５
  0
TEXT
  8
_0-0_通り芯
 62
    7
 10
4048.209908659961
 20
1229.4806239642346
 40
50
 41
1
 50
0
  1
１１３５
  0
TEXT
  8
_0-0_通り芯
 62
    7
 10
2223.209908659961
 20
1729.4806239642346
 40
50
 41
1
 50
0
  1
名　称
  0
TEXT
  8
_0-0_通り芯
 62
    7
 10
2628.209908659961
 20
1709.4806239642346
 40
40
 41
1
 50
0
  1
Ｄ
  0
TEXT
  8
_0-0_通り芯
 62
    7
 10
2928.209908659961
 20
1709.4806239642346
 40
40
 41
1
 50
0
  1
Ｂ
  0
TEXT
  8
_0-0_通り芯
 62
    7
 10
3188.209908659961
 20
1709.4806239642346
 40
40
 41
1
 50
0
  1
　Ｂ’
  0
TEXT
  8
_0-0_通り芯
 62
    7
 10
3428.209908659961
 20
1709.4806239642346
 40
40
 41
1
 50
0
  1
Ｔ ・Ｔ ・Ｔ
  0
TEXT
  8
_0-0_通り芯
 62
    7
 10
3838.209908659961
 20
1709.4806239642346
 40
40
 41
1
 50
0
  1
L
  0
TEXT
  8
_0-0_通り芯
 62
    7
 10
4068.209908659961
 20
1759.4806239642346
 40
40
 41
1
 50
0
  1
参考重量
  0
TEXT
  8
_0-0_通り芯
 62
    7
 10
4108.209908659961
 20
1709.4806239642346
 40
40
 41
1
 50
0
  1
(kg)
  0
TEXT
  8
_0-0_通り芯
 62
    7
 10
4068.209908659961
 20
1824.4806239642346
 40
40
 41
1
 50
0
  1
(単位㎜)
  0
TEXT
  8
_0-0_通り芯
 62
    7
 10
3148.209908659961
 20
1759.4806239642346
 40
40
 41
1
 50
0
  1
寸　　　法
  0
LINE
  8
_0-0_通り芯
  6
DASHED1
 62
    7
 10
2498.3125818039907
 20
2128.9883601826346
 11
4498.3125818039907
 21
2128.9883601826346
  0
LINE
  8
_0-0_通り芯
  6
CONTINUOUS
 62
    7
 10
2108.9904818039904
 20
2428.9883601826346
 11
1968.9906818039904
 21
2428.9883601826346
  0
LINE
  8
_0-0_通り芯
  6
CONTINUOUS
 62
    7
 10
1888.9906818039904
 20
2348.9883601826346
 11
1888.9906818039904
 21
2321.6373601826349
  0
LINE
  8
_0-0_通り芯
  6
CONTINUOUS
 62
    7
 10
2188.9904818039904
 20
2348.9883601826346
 11
2188.9904818039904
 21
2321.6373601826349
  0
ARC
  8
_0-0_通り芯
  6
CONTINUOUS
 62
    7
 10
1968.9906818039904
 20
2348.9883601826346
 40
80
 50
90
 51
180
  0
ARC
  8
_0-0_通り芯
  6
CONTINUOUS
 62
    7
 10
2108.9904818039904
 20
2348.9883601826346
 40
80
 50
0
 51
90
  0
ARC
  8
_0-0_通り芯
  6
CONTINUOUS
 62
    7
 10
2086.8899818039904
 20
2320.7219601826346
 40
197.28898000000001
 50
179.84607000000003
 51
255.85775000000001
  0
ARC
  8
_0-0_通り芯
  6
CONTINUOUS
 62
    7
 10
1991.0912818039906
 20
2320.7219601826346
 40
197.28898000000001
 50
284.14224000000002
 51
0.1539250000000399
  0
LINE
  8
_0-0_通り芯
  6
CONTINUOUS
 62
    7
 10
1734.5993318039905
 20
2518.9883601826346
 11
1734.5993318039905
 21
2428.9883601826346
  0
POINT
  8
_0-0_通り芯
 62
    7
 10
1734.5993318039905
 20
2518.9883601826346
  0
POINT
  8
_0-0_通り芯
 62
    7
 10
1734.5993318039905
 20
2428.9883601826346
  0
LINE
  8
_0-0_通り芯
  6
CONTINUOUS
 62
    7
 10
1734.5993318039905
 20
2518.9883601826346
 11
1787.4045218039905
 21
2518.9883601826346
  0
LINE
  8
_0-0_通り芯
  6
CONTINUOUS
 62
    7
 10
1734.5993318039905
 20
2428.9883601826346
 11
1787.4045218039905
 21
2428.9883601826346
  0
LINE
  8
_0-0_通り芯
  6
CONTINUOUS
 62
    7
 10
1734.5993318039905
 20
2428.9883601826346
 11
1734.5993318039905
 21
2129.412360182635
  0
POINT
  8
_0-0_通り芯
 62
    7
 10
1734.5993318039905
 20
2129.412360182635
  0
LINE
  8
_0-0_通り芯
  6
CONTINUOUS
 62
    7
 10
1734.5993318039905
 20
2129.412360182635
 11
1787.4045218039905
 21
2129.412360182635
  0
LINE
  8
_0-0_通り芯
  6
CONTINUOUS
 62
    7
 10
1734.5993318039905
 20
2129.412360182635
 11
1734.5993318039905
 21
2038.9883601826346
  0
POINT
  8
_0-0_通り芯
 62
    7
 10
1734.5993318039905
 20
2038.9883601826346
  0
LINE
  8
_0-0_通り芯
  6
CONTINUOUS
 62
    7
 10
1734.5993318039905
 20
2038.9883601826346
 11
1787.4045218039905
 21
2038.9883601826346
  0
LINE
  8
_0-0_通り芯
  6
CONTINUOUS
 62
    7
 10
1798.9906718039904
 20
1973.0624601826346
 11
2278.9905818039906
 21
1973.0624601826346
  0
POINT
  8
_0-0_通り芯
 62
    7
 10
1798.9906718039904
 20
1973.0624601826346
  0
POINT
  8
_0-0_通り芯
 62
    7
 10
2278.9905818039906
 20
1973.0624601826346
  0
LINE
  8
_0-0_通り芯
  6
CONTINUOUS
 62
    7
 10
1798.9906718039904
 20
1973.0624601826346
 11
1798.9906718039904
 21
2021.1147601826349
  0
LINE
  8
_0-0_通り芯
  6
CONTINUOUS
 62
    7
 10
2278.9905818039906
 20
1973.0624601826346
 11
2278.9905818039906
 21
2021.1147601826349
  0
LINE
  8
_0-0_通り芯
  6
CONTINUOUS
 62
    7
 10
1808.9906718039904
 20
2518.9883601826346
 11
1798.9906718039904
 21
2508.9883601826346
  0
LINE
  8
_0-0_通り芯
  6
CONTINUOUS
 62
    7
 10
2268.9905818039906
 20
2518.9883601826346
 11
2278.9905818039906
 21
2508.9883601826346
  0
LINE
  8
_0-0_通り芯
  6
CONTINUOUS
 62
    7
 10
2278.9905818039906
 20
2048.9883601826346
 11
2268.9905818039906
 21
2038.9883601826346
  0
LINE
  8
_0-0_通り芯
  6
CONTINUOUS
 62
    7
 10
1798.9906718039904
 20
2048.9883601826346
 11
1798.9906718039904
 21
2508.9883601826346
  0
LINE
  8
_0-0_通り芯
  6
CONTINUOUS
 62
    7
 10
1808.9906718039904
 20
2038.9883601826346
 11
2268.9905818039906
 21
2038.9883601826346
  0
LINE
  8
_0-0_通り芯
  6
CONTINUOUS
 62
    7
 10
1798.9906718039904
 20
2048.9883601826346
 11
1808.9906718039904
 21
2038.9883601826346
  0
LINE
  8
_0-0_通り芯
  6
CONTINUOUS
 62
    7
 10
1798.9906718039904
 20
2298.9883601826346
 11
1838.9906718039904
 21
2298.9883601826346
  0
LINE
  8
_0-0_通り芯
  6
CONTINUOUS
 62
    7
 10
1838.9906718039904
 20
2258.9883601826346
 11
1838.9906718039904
 21
2298.9883601826346
  0
LINE
  8
_0-0_通り芯
  6
CONTINUOUS
 62
    7
 10
1798.9906718039904
 20
2258.9883601826346
 11
1838.9906718039904
 21
2258.9883601826346
  0
LINE
  8
_0-0_通り芯
  6
CONTINUOUS
 62
    7
 10
2238.9905818039906
 20
2298.9883601826346
 11
2278.9905818039906
 21
2298.9883601826346
  0
LINE
  8
_0-0_通り芯
  6
CONTINUOUS
 62
    7
 10
2238.9905818039906
 20
2258.9883601826346
 11
2238.9905818039906
 21
2298.9883601826346
  0
LINE
  8
_0-0_通り芯
  6
CONTINUOUS
 62
    7
 10
2238.9905818039906
 20
2258.9883601826346
 11
2278.9905818039906
 21
2258.9883601826346
  0
LINE
  8
_0-0_通り芯
  6
CONTINUOUS
 62
    7
 10
2251.5047818039902
 20
2272.4629601826346
 11
2252.0599818039905
 21
2271.7870601826348
  0
LINE
  8
_0-0_通り芯
  6
CONTINUOUS
 62
    7
 10
2252.0599818039905
 20
2271.7870601826348
 11
2252.8257818039906
 21
2271.3299601826347
  0
LINE
  8
_0-0_通り芯
  6
CONTINUOUS
 62
    7
 10
2252.8257818039906
 20
2271.3299601826347
 11
2253.7788818039908
 21
2271.1056601826349
  0
LINE
  8
_0-0_通り芯
  6
CONTINUOUS
 62
    7
 10
2253.7788818039908
 20
2271.1056601826349
 11
2254.8903818039907
 21
2271.120760182635
  0
LINE
  8
_0-0_通り芯
  6
CONTINUOUS
 62
    7
 10
2254.8903818039907
 20
2271.120760182635
 11
2256.1263818039906
 21
2271.3749601826348
  0
LINE
  8
_0-0_通り芯
  6
CONTINUOUS
 62
    7
 10
2256.1263818039906
 20
2271.3749601826348
 11
2257.4494818039902
 21
2271.8604601826346
  0
LINE
  8
_0-0_通り芯
  6
CONTINUOUS
 62
    7
 10
2257.4494818039902
 20
2271.8604601826346
 11
2258.8193818039904
 21
2272.5625601826346
  0
LINE
  8
_0-0_通り芯
  6
CONTINUOUS
 62
    7
 10
2258.8193818039904
 20
2272.5625601826346
 11
2260.1944818039901
 21
2273.4598601826347
  0
LINE
  8
_0-0_通り芯
  6
CONTINUOUS
 62
    7
 10
2260.1944818039901
 20
2273.4598601826347
 11
2261.5329818039904
 21
2274.5251601826349
  0
LINE
  8
_0-0_通り芯
  6
CONTINUOUS
 62
    7
 10
2261.5329818039904
 20
2274.5251601826349
 11
2262.7941818039908
 21
2275.7260601826347
  0
LINE
  8
_0-0_通り芯
  6
CONTINUOUS
 62
    7
 10
2262.7941818039908
 20
2275.7260601826347
 11
2263.9398818039904
 21
2277.0261601826351
  0
LINE
  8
_0-0_通り芯
  6
CONTINUOUS
 62
    7
 10
2263.9398818039904
 20
2277.0261601826351
 11
2264.9351818039904
 21
2278.3857601826348
  0
LINE
  8
_0-0_通り芯
  6
CONTINUOUS
 62
    7
 10
2264.9351818039904
 20
2278.3857601826348
 11
2265.7498818039908
 21
2279.7637601826345
  0
LINE
  8
_0-0_通り芯
  6
CONTINUOUS
 62
    7
 10
2265.7498818039908
 20
2279.7637601826345
 11
2266.3591818039904
 21
2281.1181601826347
  0
LINE
  8
_0-0_通り芯
  6
CONTINUOUS
 62
    7
 10
2266.3591818039904
 20
2281.1181601826347
 11
2266.7445818039905
 21
2282.407860182635
  0
LINE
  8
_0-0_通り芯
  6
CONTINUOUS
 62
    7
 10
2266.7445818039905
 20
2282.407860182635
 11
2266.8943818039902
 21
2283.5936601826347
  0
LINE
  8
_0-0_通り芯
  6
CONTINUOUS
 62
    7
 10
2266.8943818039902
 20
2283.5936601826347
 11
2266.8040818039904
 21
2284.6395601826348
  0
LINE
  8
_0-0_通り芯
  6
CONTINUOUS
 62
    7
 10
2266.8040818039904
 20
2284.6395601826348
 11
2266.4762818039908
 21
2285.5136601826348
  0
LINE
  8
_0-0_通り芯
  6
CONTINUOUS
 62
    7
 10
2266.4762818039908
 20
2285.5136601826348
 11
2265.9210818039905
 21
2286.1895601826345
  0
LINE
  8
_0-0_通り芯
  6
CONTINUOUS
 62
    7
 10
2265.9210818039905
 20
2286.1895601826345
 11
2265.1552818039904
 21
2286.6466601826346
  0
LINE
  8
_0-0_通り芯
  6
CONTINUOUS
 62
    7
 10
2265.1552818039904
 20
2286.6466601826346
 11
2264.2021818039902
 21
2286.8710601826347
  0
LINE
  8
_0-0_通り芯
  6
CONTINUOUS
 62
    7
 10
2264.2021818039902
 20
2286.8710601826347
 11
2263.0906818039903
 21
2286.8558601826348
  0
LINE
  8
_0-0_通り芯
  6
CONTINUOUS
 62
    7
 10
2263.0906818039903
 20
2286.8558601826348
 11
2261.8546818039904
 21
2286.6017601826347
  0
LINE
  8
_0-0_通り芯
  6
CONTINUOUS
 62
    7
 10
2261.8546818039904
 20
2286.6017601826347
 11
2260.5315818039908
 21
2286.1161601826348
  0
LINE
  8
_0-0_通り芯
  6
CONTINUOUS
 62
    7
 10
2260.5315818039908
 20
2286.1161601826348
 11
2259.1617818039904
 21
2285.414160182635
  0
LINE
  8
_0-0_通り芯
  6
CONTINUOUS
 62
    7
 10
2259.1617818039904
 20
2285.414160182635
 11
2257.7866818039906
 21
2284.5167601826347
  0
LINE
  8
_0-0_通り芯
  6
CONTINUOUS
 62
    7
 10
2257.7866818039906
 20
2284.5167601826347
 11
2256.4481818039903
 21
2283.4514601826349
  0
LINE
  8
_0-0_通り芯
  6
CONTINUOUS
 62
    7
 10
2256.4481818039903
 20
2283.4514601826349
 11
2255.1868818039902
 21
2282.2505601826347
  0
LINE
  8
_0-0_通り芯
  6
CONTINUOUS
 62
    7
 10
2255.1868818039902
 20
2282.2505601826347
 11
2254.0411818039906
 21
2280.9504601826347
  0
LINE
  8
_0-0_通り芯
  6
CONTINUOUS
 62
    7
 10
2254.0411818039906
 20
2280.9504601826347
 11
2253.0458818039906
 21
2279.590860182635
  0
LINE
  8
_0-0_通り芯
  6
CONTINUOUS
 62
    7
 10
2253.0458818039906
 20
2279.590860182635
 11
2252.2311818039902
 21
2278.2128601826348
  0
LINE
  8
_0-0_通り芯
  6
CONTINUOUS
 62
    7
 10
2252.2311818039902
 20
2278.2128601826348
 11
2251.6218818039902
 21
2276.8584601826346
  0
LINE
  8
_0-0_通り芯
  6
CONTINUOUS
 62
    7
 10
2251.6218818039902
 20
2276.8584601826346
 11
2251.2364818039905
 21
2275.5687601826348
  0
LINE
  8
_0-0_通り芯
  6
CONTINUOUS
 62
    7
 10
2251.2364818039905
 20
2275.5687601826348
 11
2251.0866818039904
 21
2274.3829601826346
  0
LINE
  8
_0-0_通り芯
  6
CONTINUOUS
 62
    7
 10
2251.0866818039904
 20
2274.3829601826346
 11
2251.1770818039904
 21
2273.3371601826348
  0
LINE
  8
_0-0_通り芯
  6
CONTINUOUS
 62
    7
 10
2251.1770818039904
 20
2273.3371601826348
 11
2251.5047818039902
 21
2272.4629601826346
  0
LINE
  8
_0-0_通り芯
  6
CONTINUOUS
 62
    7
 10
1826.0617418039901
 20
2271.9172601826349
 11
1826.5682618039905
 21
2272.6386601826343
  0
LINE
  8
_0-0_通り芯
  6
CONTINUOUS
 62
    7
 10
1826.5682618039905
 20
2272.6386601826343
 11
1826.8445318039905
 21
2273.5529601826347
  0
LINE
  8
_0-0_通り芯
  6
CONTINUOUS
 62
    7
 10
1826.8445318039905
 20
2273.5529601826347
 11
1826.8821718039906
 21
2274.6323601826348
  0
LINE
  8
_0-0_通り芯
  6
CONTINUOUS
 62
    7
 10
1826.8821718039906
 20
2274.6323601826348
 11
1826.6800218039905
 21
2275.8441601826348
  0
LINE
  8
_0-0_通り芯
  6
CONTINUOUS
 62
    7
 10
1826.6800218039905
 20
2275.8441601826348
 11
1826.2442518039904
 21
2277.1514601826348
  0
LINE
  8
_0-0_通り芯
  6
CONTINUOUS
 62
    7
 10
1826.2442518039904
 20
2277.1514601826348
 11
1825.5880718039905
 21
2278.5146601826345
  0
LINE
  8
_0-0_通り芯
  6
CONTINUOUS
 62
    7
 10
1825.5880718039905
 20
2278.5146601826345
 11
1824.7314418039905
 21
2279.8921601826346
  0
LINE
  8
_0-0_通り芯
  6
CONTINUOUS
 62
    7
 10
1824.7314418039905
 20
2279.8921601826346
 11
1823.7003718039905
 21
2281.2422601826347
  0
LINE
  8
_0-0_通り芯
  6
CONTINUOUS
 62
    7
 10
1823.7003718039905
 20
2281.2422601826347
 11
1822.5262118039905
 21
2282.523860182635
  0
LINE
  8
_0-0_通り芯
  6
CONTINUOUS
 62
    7
 10
1822.5262118039905
 20
2282.523860182635
 11
1821.2446218039904
 21
2283.6980601826349
  0
LINE
  8
_0-0_通り芯
  6
CONTINUOUS
 62
    7
 10
1821.2446218039904
 20
2283.6980601826349
 11
1819.8945418039903
 21
2284.7290601826348
  0
LINE
  8
_0-0_通り芯
  6
CONTINUOUS
 62
    7
 10
1819.8945418039903
 20
2284.7290601826348
 11
1818.5170018039908
 21
2285.5857601826347
  0
LINE
  8
_0-0_通り芯
  6
CONTINUOUS
 62
    7
 10
1818.5170018039908
 20
2285.5857601826347
 11
1817.1538618039906
 21
2286.2418601826348
  0
LINE
  8
_0-0_通り芯
  6
CONTINUOUS
 62
    7
 10
1817.1538618039906
 20
2286.2418601826348
 11
1815.8465218039901
 21
2286.677660182635
  0
LINE
  8
_0-0_通り芯
  6
CONTINUOUS
 62
    7
 10
1815.8465218039901
 20
2286.677660182635
 11
1814.6347218039905
 21
2286.8798601826347
  0
LINE
  8
_0-0_通り芯
  6
CONTINUOUS
 62
    7
 10
1814.6347218039905
 20
2286.8798601826347
 11
1813.5552718039908
 21
2286.8421601826349
  0
LINE
  8
_0-0_通り芯
  6
CONTINUOUS
 62
    7
 10
1813.5552718039908
 20
2286.8421601826349
 11
1812.6409718039906
 21
2286.5658601826349
  0
LINE
  8
_0-0_通り芯
  6
CONTINUOUS
 62
    7
 10
1812.6409718039906
 20
2286.5658601826349
 11
1811.9196118039906
 21
2286.0593601826349
  0
LINE
  8
_0-0_通り芯
  6
CONTINUOUS
 62
    7
 10
1811.9196118039906
 20
2286.0593601826349
 11
1811.4130918039905
 21
2285.3380601826348
  0
LINE
  8
_0-0_通り芯
  6
CONTINUOUS
 62
    7
 10
1811.4130918039905
 20
2285.3380601826348
 11
1811.1368218039906
 21
2284.4237601826349
  0
LINE
  8
_0-0_通り芯
  6
CONTINUOUS
 62
    7
 10
1811.1368218039906
 20
2284.4237601826349
 11
1811.0991818039904
 21
2283.3442601826346
  0
LINE
  8
_0-0_通り芯
  6
CONTINUOUS
 62
    7
 10
1811.0991818039904
 20
2283.3442601826346
 11
1811.3013218039905
 21
2282.1324601826345
  0
LINE
  8
_0-0_通り芯
  6
CONTINUOUS
 62
    7
 10
1811.3013218039905
 20
2282.1324601826345
 11
1811.7371018039903
 21
2280.8251601826346
  0
LINE
  8
_0-0_通り芯
  6
CONTINUOUS
 62
    7
 10
1811.7371018039903
 20
2280.8251601826346
 11
1812.3932818039905
 21
2279.4619601826348
  0
LINE
  8
_0-0_通り芯
  6
CONTINUOUS
 62
    7
 10
1812.3932818039905
 20
2279.4619601826348
 11
1813.2499118039905
 21
2278.0844601826348
  0
LINE
  8
_0-0_通り芯
  6
CONTINUOUS
 62
    7
 10
1813.2499118039905
 20
2278.0844601826348
 11
1814.2809818039905
 21
2276.7343601826351
  0
LINE
  8
_0-0_通り芯
  6
CONTINUOUS
 62
    7
 10
1814.2809818039905
 20
2276.7343601826351
 11
1815.4551418039905
 21
2275.4527601826348
  0
LINE
  8
_0-0_通り芯
  6
CONTINUOUS
 62
    7
 10
1815.4551418039905
 20
2275.4527601826348
 11
1816.7367318039901
 21
2274.2786601826347
  0
LINE
  8
_0-0_通り芯
  6
CONTINUOUS
 62
    7
 10
1816.7367318039901
 20
2274.2786601826347
 11
1818.0868118039905
 21
2273.247560182635
  0
LINE
  8
_0-0_通り芯
  6
CONTINUOUS
 62
    7
 10
1818.0868118039905
 20
2273.247560182635
 11
1819.4643518039904
 21
2272.3909601826344
  0
LINE
  8
_0-0_通り芯
  6
CONTINUOUS
 62
    7
 10
1819.4643518039904
 20
2272.3909601826344
 11
1820.8274918039906
 21
2271.7347601826345
  0
LINE
  8
_0-0_通り芯
  6
CONTINUOUS
 62
    7
 10
1820.8274918039906
 20
2271.7347601826345
 11
1822.1348318039904
 21
2271.2989601826348
  0
LINE
  8
_0-0_通り芯
  6
CONTINUOUS
 62
    7
 10
1822.1348318039904
 20
2271.2989601826348
 11
1823.3466318039905
 21
2271.0968601826344
  0
LINE
  8
_0-0_通り芯
  6
CONTINUOUS
 62
    7
 10
1823.3466318039905
 20
2271.0968601826344
 11
1824.4260818039904
 21
2271.1344601826349
  0
LINE
  8
_0-0_通り芯
  6
CONTINUOUS
 62
    7
 10
1824.4260818039904
 20
2271.1344601826349
 11
1825.3403818039901
 21
2271.4107601826349
  0
LINE
  8
_0-0_通り芯
  6
CONTINUOUS
 62
    7
 10
1825.3403818039901
 20
2271.4107601826349
 11
1826.0617418039901
 21
2271.9172601826349
  0
LINE
  8
_0-0_通り芯
  6
DASHED1
 62
    7
 10
2498.3125818039907
 20
2428.9883601826346
 11
4498.3125818039907
 21
2428.9883601826346
  0
LINE
  8
_0-0_通り芯
  6
CONTINUOUS
 62
    7
 10
2508.3125818039907
 20
2518.9883601826346
 11
2498.3125818039907
 21
2508.9883601826346
  0
LINE
  8
_0-0_通り芯
  6
CONTINUOUS
 62
    7
 10
2498.3125818039907
 20
2048.9883601826346
 11
2498.3125818039907
 21
2508.9883601826346
  0
LINE
  8
_0-0_通り芯
  6
CONTINUOUS
 62
    7
 10
2498.3125818039907
 20
2048.9883601826346
 11
2508.3125818039907
 21
2038.9883601826346
  0
LINE
  8
_0-0_通り芯
  6
CONTINUOUS
 62
    7
 10
4488.3125818039907
 20
2518.9883601826346
 11
4498.3125818039907
 21
2508.9883601826346
  0
LINE
  8
_0-0_通り芯
  6
CONTINUOUS
 62
    7
 10
4498.3125818039907
 20
2048.9883601826346
 11
4498.3125818039907
 21
2508.9883601826346
  0
LINE
  8
_0-0_通り芯
  6
CONTINUOUS
 62
    7
 10
4488.3125818039907
 20
2038.9883601826346
 11
2508.3125818039907
 21
2038.9883601826346
  0
LINE
  8
_0-0_通り芯
  6
CONTINUOUS
 62
    7
 10
4498.3125818039907
 20
2048.9883601826346
 11
4488.3125818039907
 21
2038.9883601826346
  0
LINE
  8
_0-0_通り芯
  6
CONTINUOUS
 62
    7
 10
2503.3125818039907
 20
2263.9883601826346
 11
2503.3125818039907
 21
2293.9883601826346
  0
LINE
  8
_0-0_通り芯
  6
CONTINUOUS
 62
    7
 10
2523.3125818039907
 20
2258.9883601826346
 11
2523.3125818039907
 21
2263.9883601826346
  0
LINE
  8
_0-0_通り芯
  6
CONTINUOUS
 62
    7
 10
2523.3125818039907
 20
2293.9883601826346
 11
2523.3125818039907
 21
2298.9883601826346
  0
LINE
  8
_0-0_通り芯
  6
CONTINUOUS
 62
    7
 10
2498.3125818039907
 20
2298.9883601826346
 11
2523.3125818039907
 21
2298.9883601826346
  0
LINE
  8
_0-0_通り芯
  6
CONTINUOUS
 62
    7
 10
2503.3125818039907
 20
2293.9883601826346
 11
2523.3125818039907
 21
2293.9883601826346
  0
LINE
  8
_0-0_通り芯
  6
CONTINUOUS
 62
    7
 10
2503.3125818039907
 20
2263.9883601826346
 11
2523.3125818039907
 21
2263.9883601826346
  0
LINE
  8
_0-0_通り芯
  6
CONTINUOUS
 62
    7
 10
2498.3125818039907
 20
2258.9883601826346
 11
2523.3125818039907
 21
2258.9883601826346
  0
ARC
  8
_0-0_通り芯
  6
CONTINUOUS
 62
    7
 10
2518.3125818039907
 20
2278.9883601826346
 40
16.621789
 50
287.50625000000008
 51
71.565051000000025
  0
LINE
  8
_0-0_通り芯
  6
CONTINUOUS
 62
    7
 10
4493.3125818039907
 20
2293.9883601826346
 11
4493.3125818039907
 21
2263.9883601826346
  0
LINE
  8
_0-0_通り芯
  6
CONTINUOUS
 62
    7
 10
4473.3125818039907
 20
2298.9883601826346
 11
4473.3125818039907
 21
2293.9883601826346
  0
LINE
  8
_0-0_通り芯
  6
CONTINUOUS
 62
    7
 10
4473.3125818039907
 20
2263.9883601826346
 11
4473.3125818039907
 21
2258.9883601826346
  0
LINE
  8
_0-0_通り芯
  6
CONTINUOUS
 62
    7
 10
4498.3125818039907
 20
2258.9883601826346
 11
4473.3125818039907
 21
2258.9883601826346
  0
LINE
  8
_0-0_通り芯
  6
CONTINUOUS
 62
    7
 10
4493.3125818039907
 20
2263.9883601826346
 11
4473.3125818039907
 21
2263.9883601826346
  0
LINE
  8
_0-0_通り芯
  6
CONTINUOUS
 62
    7
 10
4493.3125818039907
 20
2293.9883601826346
 11
4473.3125818039907
 21
2293.9883601826346
  0
LINE
  8
_0-0_通り芯
  6
CONTINUOUS
 62
    7
 10
4498.3125818039907
 20
2298.9883601826346
 11
4473.3125818039907
 21
2298.9883601826346
  0
ARC
  8
_0-0_通り芯
  6
CONTINUOUS
 62
    7
 10
4478.3125818039907
 20
2278.9883601826346
 40
16.621789
 50
107.50624999999999
 51
251.56504999999999
  0
LINE
  8
_0-0_通り芯
  6
CONTINUOUS
 62
    7
 10
2436.8798818039904
 20
2518.9883601826346
 11
2436.8798818039904
 21
2038.9883601826346
  0
POINT
  8
_0-0_通り芯
 62
    7
 10
2436.8798818039904
 20
2518.9883601826346
  0
POINT
  8
_0-0_通り芯
 62
    7
 10
2436.8798818039904
 20
2038.9883601826346
  0
LINE
  8
_0-0_通り芯
  6
CONTINUOUS
 62
    7
 10
2436.8798818039904
 20
2518.9883601826346
 11
2487.9472818039908
 21
2518.9883601826346
  0
LINE
  8
_0-0_通り芯
  6
CONTINUOUS
 62
    7
 10
2436.8798818039904
 20
2038.9883601826346
 11
2487.9472818039908
 21
2038.9883601826346
  0
CIRCLE
  8
_0-0_通り芯
  6
CONTINUOUS
 62
    7
 10
3498.3125818039907
 20
2278.9883601826346
 40
10
  0
TEXT
  8
_0-0_通り芯
 62
    7
 10
2021.4905818039904
 20
1976.5624601826346
 40
28
 41
1
 50
0
  1
B
  0
TEXT
  8
_0-0_通り芯
 62
    7
 10
1710.5993318039905
 20
2459.9883601826346
 40
28
 41
1
 50
0
  1
T
  0
TEXT
  8
_0-0_通り芯
 62
    7
 10
1710.5993318039905
 20
2265.200360182635
 40
28
 41
1
 50
0
  1
D
  0
TEXT
  8
_0-0_通り芯
 62
    7
 10
1710.5993318039905
 20
2070.200360182635
 40
28
 41
1
 50
0
  1
T
  0
TEXT
  8
_0-0_通り芯
 62
    7
 10
1724.5993318039905
 20
2483.9883601826346
 40
20
 41
1
 50
0
  1
2
  0
TEXT
  8
_0-0_通り芯
 62
    7
 10
2394.8798818039904
 20
2264.9883601826346
 40
28
 41
1
 50
0
  1
B’
  0
TEXT
  8
_0-0_通り芯
 62
    7
 10
1724.5993318039905
 20
2094.200360182635
 40
20
 41
1
 50
0
  1
3
  0
LINE
  8
_0-0_通り芯
  6
CONTINUOUS
 62
    7
 10
2278.9905818039906
 20
2518.9883601826346
 11
1808.9906718039904
 21
2518.9883601826346
  0
LINE
  8
_0-0_通り芯
  6
CONTINUOUS
 62
    7
 10
2278.9905818039906
 20
2048.9883601826346
 11
2278.9905818039906
 21
2518.9883601826346
  0
LINE
  8
_0-0_通り芯
  6
CONTINUOUS
 62
    7
 10
2278.9905818039906
 20
2414.6384608826347
 11
2278.9905818039906
 21
2518.9883601826346
  0
LINE
  8
_0-0_通り芯
  6
CONTINUOUS
 62
    7
 10
2108.9905158200377
 20
2518.9883601826346
 11
2203.9905818039911
 21
2518.9883601826346
  0
LINE
  8
_0-0_通り芯
  6
CONTINUOUS
 62
    7
 10
2278.9905488120148
 20
2428.9884344145817
 11
2283.9905653080032
 21
2428.9884344145817
  0
LINE
  8
_0-0_通り芯
  6
CONTINUOUS
 62
    7
 10
2278.9905818039911
 20
2608.9884096706
 11
2278.9905818039911
 21
2571.9883618322337
  0
LINE
  8
_0-0_通り芯
  6
CONTINUOUS
 62
    7
 10
2198.9905653080018
 20
2608.9884096706
 11
2203.9905818039911
 21
2608.9884096706
  0
LINE
  8
_0-0_通り芯
  6
CONTINUOUS
 62
    7
 10
2203.9905818039911
 20
2571.9883618322337
 11
2278.9905818039911
 21
2571.9883618322337
  0
LINE
  8
_0-0_通り芯
  6
CONTINUOUS
 62
    7
 10
2203.9905818039911
 20
2566.9883453362454
 11
2278.9905818039911
 21
2566.9883453362454
  0
LINE
  8
_0-0_通り芯
  6
CONTINUOUS
 62
    7
 10
2283.9905653080032
 20
2608.9884096706
 11
2283.9905653080032
 21
2428.9884344145817
  0
LINE
  8
_0-0_通り芯
  6
CONTINUOUS
 62
    7
 10
2203.9905818039911
 20
2608.9884096706
 11
2203.9905818039911
 21
2571.9883618322337
  0
LINE
  8
_0-0_通り芯
  6
CONTINUOUS
 62
    7
 10
2203.9905818039911
 20
2566.9883453362454
 11
2203.9905818039911
 21
2518.9883601826346
  0
LINE
  8
_0-0_通り芯
  6
CONTINUOUS
 62
    7
 10
2123.9905653080018
 20
2523.9834278821709
 11
2123.9905653080018
 21
2518.9883601826346
  0
LINE
  8
_0-0_通り芯
  6
CONTINUOUS
 62
    7
 10
2198.9905653080018
 20
2608.9884096706
 11
2198.9905653080018
 21
2523.9834278821709
  0
LINE
  8
_0-0_通り芯
  6
CONTINUOUS
 62
    7
 10
2123.9905653080018
 20
2523.9834278821709
 11
2198.9905653080018
 21
2523.9834278821709
  0
LINE
  8
_0-0_通り芯
  6
CONTINUOUS
 62
    7
 10
2144.6639150493452
 20
2535.0853104043404
 11
2178.1477192881539
 21
2535.0853104043404
  0
LINE
  8
_0-0_通り芯
  6
CONTINUOUS
 62
    7
 10
2156.4058006727619
 20
2493.7148566986825
 11
2166.405833664739
 21
2493.7148566986825
  0
LINE
  8
_0-0_通り芯
  6
CONTINUOUS
 62
    7
 10
2165.980732049451
 20
2502.6220717139904
 11
2156.4058006727619
 21
2494.0047324508996
  0
LINE
  8
_0-0_通り芯
  6
CONTINUOUS
 62
    7
 10
2166.405833664739
 20
2510.8681275232175
 11
2156.4058006727619
 21
2502.1584932062838
  0
LINE
  8
_0-0_通り芯
  6
CONTINUOUS
 62
    7
 10
2166.405833664739
 20
2518.1309811972046
 11
2156.4058006727619
 21
2509.0401658335004
  0
LINE
  8
_0-0_通り芯
  6
CONTINUOUS
 62
    7
 10
2144.6639150493452
 20
2535.0853104043404
 11
2144.6639150493452
 21
2523.9834278821709
  0
LINE
  8
_0-0_通り芯
  6
CONTINUOUS
 62
    7
 10
2178.1477192881539
 20
2535.0853104043404
 11
2178.1477192881539
 21
2523.9834278821709
  0
LINE
  8
_0-0_通り芯
  6
CONTINUOUS
 62
    7
 10
2156.4058006727619
 20
2518.9883601826346
 11
2156.4058006727619
 21
2493.7148566986825
  0
LINE
  8
_0-0_通り芯
  6
CONTINUOUS
 62
    7
 10
2166.405833664739
 20
2518.9883601826346
 11
2166.405833664739
 21
2493.7148566986825
  0
LINE
  8
_0-0_通り芯
  6
CONTINUOUS
 62
    7
 10
2203.9905818039911
 20
2518.9883601826346
 11
2278.9905818039911
 21
2518.9883601826346
  0
LINE
  8
_0-0_通り芯
  6
CONTINUOUS
 62
    7
 10
2295.2362268631118
 20
2478.5990053737246
 11
2295.2362268631118
 21
2445.1152011349154
  0
LINE
  8
_0-0_通り芯
  6
CONTINUOUS
 62
    7
 10
2253.8657731574531
 20
2466.8571197503074
 11
2253.8657731574531
 21
2456.8570867583326
  0
LINE
  8
_0-0_通り芯
  6
CONTINUOUS
 62
    7
 10
2262.7729881727619
 20
2457.2821883736187
 11
2254.1556489096702
 21
2466.8571197503074
  0
LINE
  8
_0-0_通り芯
  6
CONTINUOUS
 62
    7
 10
2271.0190439819889
 20
2456.8570867583326
 11
2262.3094096650548
 21
2466.8571197503074
  0
LINE
  8
_0-0_通り芯
  6
CONTINUOUS
 62
    7
 10
2278.2818976559756
 20
2456.8570867583326
 11
2269.1910822922719
 21
2466.8571197503074
  0
LINE
  8
_0-0_通り芯
  6
CONTINUOUS
 62
    7
 10
2295.2362268631118
 20
2478.5990053737246
 11
2283.9905818039911
 21
2478.5990053737246
  0
LINE
  8
_0-0_通り芯
  6
CONTINUOUS
 62
    7
 10
2295.2362268631118
 20
2445.1152011349154
 11
2283.9905818039911
 21
2445.1152011349154
  0
LINE
  8
_0-0_通り芯
  6
CONTINUOUS
 62
    7
 10
2278.9905653080032
 20
2456.8570867583326
 11
2253.8657731574531
 21
2456.8570867583326
  0
LINE
  8
_0-0_通り芯
  6
CONTINUOUS
 62
    7
 10
2278.9905653080032
 20
2466.8571197503074
 11
2253.8657731574531
 21
2466.8571197503074
  0
LINE
  8
_0-0_通り芯
  6
CONTINUOUS
 62
    4
 10
2278.9905818039911
 20
2608.9884096706
 11
2283.9905653080032
 21
2608.9884096706
  0
LINE
  8
_0-0_通り芯
  6
CONTINUOUS
 62
    7
 10
2278.9905818039911
 20
2566.9883453362454
 11
2278.9905818039911
 21
2428.9884344145817
  0
LINE
  8
_0-0_通り芯
  6
CONTINUOUS
 62
    7
 10
2278.9905818039911
 20
2608.9884096706
 11
2283.9905653080032
 21
2608.9884096706
  0
LINE
  8
_0-0_通り芯
  6
CONTINUOUS
 62
    7
 10
2208.9905900519848
 20
2608.9884096705991
 11
2208.9905900519848
 21
2571.9883618322337
  0
LINE
  8
_0-0_通り芯
  6
CONTINUOUS
 62
    7
 10
2213.9905900519848
 20
2603.9884096705991
 11
2214.9905900519848
 21
2601.9884096705991
  0
LINE
  8
_0-0_通り芯
  6
CONTINUOUS
 62
    7
 10
2218.9905900519848
 20
2603.9884096705991
 11
2217.9905900519852
 21
2601.9884096705991
  0
LINE
  8
_0-0_通り芯
  6
CONTINUOUS
 62
    7
 10
2218.9905900519848
 20
2608.9884096705991
 11
2218.9905900519848
 21
2603.9884096705991
  0
LINE
  8
_0-0_通り芯
  6
CONTINUOUS
 62
    7
 10
2213.9905900519848
 20
2608.9884096705991
 11
2213.9905900519848
 21
2603.9884096705991
  0
LINE
  8
_0-0_通り芯
  6
CONTINUOUS
 62
    7
 10
2214.9905900519848
 20
2578.9883618322337
 11
2213.9905900519848
 21
2576.9883618322337
  0
LINE
  8
_0-0_通り芯
  6
CONTINUOUS
 62
    7
 10
2217.9905900519852
 20
2578.9883618322337
 11
2218.9905900519848
 21
2576.9883618322337
  0
LINE
  8
_0-0_通り芯
  6
CONTINUOUS
 62
    7
 10
2214.9905900519848
 20
2601.9884096705991
 11
2214.9905900519848
 21
2578.9883618322337
  0
LINE
  8
_0-0_通り芯
  6
CONTINUOUS
 62
    7
 10
2217.9905900519852
 20
2601.9884096705991
 11
2217.9905900519852
 21
2578.9883618322337
  0
LINE
  8
_0-0_通り芯
  6
CONTINUOUS
 62
    7
 10
2213.9905900519848
 20
2576.9883618322337
 11
2213.9905900519848
 21
2571.9883618322337
  0
LINE
  8
_0-0_通り芯
  6
CONTINUOUS
 62
    7
 10
2218.9905900519848
 20
2576.9883618322337
 11
2218.9905900519848
 21
2571.9883618322337
  0
LINE
  8
_0-0_通り芯
  6
CONTINUOUS
 62
    7
 10
2223.9905900519848
 20
2603.9884096705991
 11
2224.9905900519848
 21
2601.9884096705991
  0
LINE
  8
_0-0_通り芯
  6
CONTINUOUS
 62
    7
 10
2228.9905900519848
 20
2603.9884096705991
 11
2227.9905900519852
 21
2601.9884096705991
  0
LINE
  8
_0-0_通り芯
  6
CONTINUOUS
 62
    7
 10
2228.9905900519848
 20
2608.9884096705991
 11
2228.9905900519848
 21
2603.9884096705991
  0
LINE
  8
_0-0_通り芯
  6
CONTINUOUS
 62
    7
 10
2223.9905900519848
 20
2608.9884096705991
 11
2223.9905900519848
 21
2603.9884096705991
  0
LINE
  8
_0-0_通り芯
  6
CONTINUOUS
 62
    7
 10
2224.9905900519848
 20
2578.9883618322337
 11
2223.9905900519848
 21
2576.9883618322337
  0
LINE
  8
_0-0_通り芯
  6
CONTINUOUS
 62
    7
 10
2227.9905900519852
 20
2578.9883618322337
 11
2228.9905900519848
 21
2576.9883618322337
  0
LINE
  8
_0-0_通り芯
  6
CONTINUOUS
 62
    7
 10
2224.9905900519848
 20
2601.9884096705991
 11
2224.9905900519848
 21
2578.9883618322337
  0
LINE
  8
_0-0_通り芯
  6
CONTINUOUS
 62
    7
 10
2227.9905900519852
 20
2601.9884096705991
 11
2227.9905900519852
 21
2578.9883618322337
  0
LINE
  8
_0-0_通り芯
  6
CONTINUOUS
 62
    7
 10
2223.9905900519848
 20
2576.9883618322337
 11
2223.9905900519848
 21
2571.9883618322337
  0
LINE
  8
_0-0_通り芯
  6
CONTINUOUS
 62
    7
 10
2228.9905900519848
 20
2576.9883618322337
 11
2228.9905900519848
 21
2571.9883618322337
  0
LINE
  8
_0-0_通り芯
  6
CONTINUOUS
 62
    7
 10
2233.9905900519848
 20
2603.9884096705991
 11
2234.9905900519848
 21
2601.9884096705991
  0
LINE
  8
_0-0_通り芯
  6
CONTINUOUS
 62
    7
 10
2238.9905900519848
 20
2603.9884096705991
 11
2237.9905900519852
 21
2601.9884096705991
  0
LINE
  8
_0-0_通り芯
  6
CONTINUOUS
 62
    7
 10
2238.9905900519848
 20
2608.9884096705991
 11
2238.9905900519848
 21
2603.9884096705991
  0
LINE
  8
_0-0_通り芯
  6
CONTINUOUS
 62
    7
 10
2233.9905900519848
 20
2608.9884096705991
 11
2233.9905900519848
 21
2603.9884096705991
  0
LINE
  8
_0-0_通り芯
  6
CONTINUOUS
 62
    7
 10
2234.9905900519848
 20
2578.9883618322337
 11
2233.9905900519848
 21
2576.9883618322337
  0
LINE
  8
_0-0_通り芯
  6
CONTINUOUS
 62
    7
 10
2237.9905900519852
 20
2578.9883618322337
 11
2238.9905900519848
 21
2576.9883618322337
  0
LINE
  8
_0-0_通り芯
  6
CONTINUOUS
 62
    7
 10
2234.9905900519848
 20
2601.9884096705991
 11
2234.9905900519848
 21
2578.9883618322337
  0
LINE
  8
_0-0_通り芯
  6
CONTINUOUS
 62
    7
 10
2237.9905900519852
 20
2601.9884096705991
 11
2237.9905900519852
 21
2578.9883618322337
  0
LINE
  8
_0-0_通り芯
  6
CONTINUOUS
 62
    7
 10
2233.9905900519848
 20
2576.9883618322337
 11
2233.9905900519848
 21
2571.9883618322337
  0
LINE
  8
_0-0_通り芯
  6
CONTINUOUS
 62
    7
 10
2238.9905900519848
 20
2576.9883618322337
 11
2238.9905900519848
 21
2571.9883618322337
  0
LINE
  8
_0-0_通り芯
  6
CONTINUOUS
 62
    7
 10
2243.9905900519848
 20
2603.9884096705991
 11
2244.9905900519848
 21
2601.9884096705991
  0
LINE
  8
_0-0_通り芯
  6
CONTINUOUS
 62
    7
 10
2248.9905900519848
 20
2603.9884096705991
 11
2247.9905900519852
 21
2601.9884096705991
  0
LINE
  8
_0-0_通り芯
  6
CONTINUOUS
 62
    7
 10
2248.9905900519848
 20
2608.9884096705991
 11
2248.9905900519848
 21
2603.9884096705991
  0
LINE
  8
_0-0_通り芯
  6
CONTINUOUS
 62
    7
 10
2243.9905900519848
 20
2608.9884096705991
 11
2243.9905900519848
 21
2603.9884096705991
  0
LINE
  8
_0-0_通り芯
  6
CONTINUOUS
 62
    7
 10
2244.9905900519848
 20
2578.9883618322337
 11
2243.9905900519848
 21
2576.9883618322337
  0
LINE
  8
_0-0_通り芯
  6
CONTINUOUS
 62
    7
 10
2247.9905900519852
 20
2578.9883618322337
 11
2248.9905900519848
 21
2576.9883618322337
  0
LINE
  8
_0-0_通り芯
  6
CONTINUOUS
 62
    7
 10
2244.9905900519848
 20
2601.9884096705991
 11
2244.9905900519848
 21
2578.9883618322337
  0
LINE
  8
_0-0_通り芯
  6
CONTINUOUS
 62
    7
 10
2247.9905900519852
 20
2601.9884096705991
 11
2247.9905900519852
 21
2578.9883618322337
  0
LINE
  8
_0-0_通り芯
  6
CONTINUOUS
 62
    7
 10
2243.9905900519848
 20
2576.9883618322337
 11
2243.9905900519848
 21
2571.9883618322337
  0
LINE
  8
_0-0_通り芯
  6
CONTINUOUS
 62
    7
 10
2248.9905900519848
 20
2576.9883618322337
 11
2248.9905900519848
 21
2571.9883618322337
  0
LINE
  8
_0-0_通り芯
  6
CONTINUOUS
 62
    7
 10
2253.9905900519848
 20
2603.9884096705991
 11
2254.9905900519848
 21
2601.9884096705991
  0
LINE
  8
_0-0_通り芯
  6
CONTINUOUS
 62
    7
 10
2258.9905900519848
 20
2603.9884096705991
 11
2257.9905900519852
 21
2601.9884096705991
  0
LINE
  8
_0-0_通り芯
  6
CONTINUOUS
 62
    7
 10
2258.9905900519848
 20
2608.9884096705991
 11
2258.9905900519848
 21
2603.9884096705991
  0
LINE
  8
_0-0_通り芯
  6
CONTINUOUS
 62
    7
 10
2253.9905900519848
 20
2608.9884096705991
 11
2253.9905900519848
 21
2603.9884096705991
  0
LINE
  8
_0-0_通り芯
  6
CONTINUOUS
 62
    7
 10
2254.9905900519848
 20
2578.9883618322337
 11
2253.9905900519848
 21
2576.9883618322337
  0
LINE
  8
_0-0_通り芯
  6
CONTINUOUS
 62
    7
 10
2257.9905900519852
 20
2578.9883618322337
 11
2258.9905900519848
 21
2576.9883618322337
  0
LINE
  8
_0-0_通り芯
  6
CONTINUOUS
 62
    7
 10
2254.9905900519848
 20
2601.9884096705991
 11
2254.9905900519848
 21
2578.9883618322337
  0
LINE
  8
_0-0_通り芯
  6
CONTINUOUS
 62
    7
 10
2257.9905900519852
 20
2601.9884096705991
 11
2257.9905900519852
 21
2578.9883618322337
  0
LINE
  8
_0-0_通り芯
  6
CONTINUOUS
 62
    7
 10
2253.9905900519848
 20
2576.9883618322337
 11
2253.9905900519848
 21
2571.9883618322337
  0
LINE
  8
_0-0_通り芯
  6
CONTINUOUS
 62
    7
 10
2258.9905900519848
 20
2576.9883618322337
 11
2258.9905900519848
 21
2571.9883618322337
  0
LINE
  8
_0-0_通り芯
  6
CONTINUOUS
 62
    7
 10
2263.9905735559969
 20
2603.9884096705991
 11
2264.9905735559969
 21
2601.9884096705991
  0
LINE
  8
_0-0_通り芯
  6
CONTINUOUS
 62
    7
 10
2268.9905735559969
 20
2603.9884096705991
 11
2267.9905735559969
 21
2601.9884096705991
  0
LINE
  8
_0-0_通り芯
  6
CONTINUOUS
 62
    7
 10
2268.9905735559969
 20
2608.9884096705991
 11
2268.9905735559969
 21
2603.9884096705991
  0
LINE
  8
_0-0_通り芯
  6
CONTINUOUS
 62
    7
 10
2263.9905735559969
 20
2608.9884096705991
 11
2263.9905735559969
 21
2603.9884096705991
  0
LINE
  8
_0-0_通り芯
  6
CONTINUOUS
 62
    7
 10
2264.9905735559969
 20
2578.9883618322337
 11
2263.9905735559969
 21
2576.9883618322337
  0
LINE
  8
_0-0_通り芯
  6
CONTINUOUS
 62
    7
 10
2267.9905735559969
 20
2578.9883618322337
 11
2268.9905735559969
 21
2576.9883618322337
  0
LINE
  8
_0-0_通り芯
  6
CONTINUOUS
 62
    7
 10
2264.9905735559969
 20
2601.9884096705991
 11
2264.9905735559969
 21
2578.9883618322337
  0
LINE
  8
_0-0_通り芯
  6
CONTINUOUS
 62
    7
 10
2267.9905735559969
 20
2601.9884096705991
 11
2267.9905735559969
 21
2578.9883618322337
  0
LINE
  8
_0-0_通り芯
  6
CONTINUOUS
 62
    7
 10
2263.9905735559969
 20
2576.9883618322337
 11
2263.9905735559969
 21
2571.9883618322337
  0
LINE
  8
_0-0_通り芯
  6
CONTINUOUS
 62
    7
 10
2268.9905735559969
 20
2576.9883618322337
 11
2268.9905735559969
 21
2571.9883618322337
  0
LINE
  8
_0-0_通り芯
  6
CONTINUOUS
 62
    7
 10
2273.9905735559969
 20
2608.9884096705991
 11
2273.9905735559969
 21
2571.9883618322337
  0
LINE
  8
_0-0_通り芯
  6
CONTINUOUS
 62
    7
 10
2204.9905900519848
 20
2608.9884096705991
 11
2204.9905900519848
 21
2571.9883618322337
  0
LINE
  8
_0-0_通り芯
  6
CONTINUOUS
 62
    7
 10
2204.9905900519848
 20
2571.9883618322337
 11
2277.9905735559969
 21
2571.9883618322337
  0
LINE
  8
_0-0_通り芯
  6
CONTINUOUS
 62
    7
 10
2277.9905735559969
 20
2608.9884096705991
 11
2277.9905735559969
 21
2571.9883618322337
  0
LINE
  8
_0-0_通り芯
  6
CONTINUOUS
 62
    7
 10
2204.9905900519848
 20
2608.9884096705991
 11
2277.9905735559969
 21
2608.9884096705991
  0
LINE
  8
_0-0_通り芯
  6
CONTINUOUS
 62
    7
 10
2208.9905900519848
 20
2606.9884096705991
 11
2213.9905900519848
 21
2606.9884096705991
  0
LINE
  8
_0-0_通り芯
  6
CONTINUOUS
 62
    7
 10
2208.9905900519848
 20
2573.9883618322337
 11
2213.9905900519848
 21
2573.9883618322337
  0
LINE
  8
_0-0_通り芯
  6
CONTINUOUS
 62
    7
 10
2218.9905900519848
 20
2606.9884096705991
 11
2223.9905900519848
 21
2606.9884096705991
  0
LINE
  8
_0-0_通り芯
  6
CONTINUOUS
 62
    7
 10
2228.9905900519848
 20
2606.9884096705991
 11
2233.9905900519848
 21
2606.9884096705991
  0
LINE
  8
_0-0_通り芯
  6
CONTINUOUS
 62
    7
 10
2238.9905900519848
 20
2606.9884096705991
 11
2243.9905900519848
 21
2606.9884096705991
  0
LINE
  8
_0-0_通り芯
  6
CONTINUOUS
 62
    7
 10
2248.9905900519848
 20
2606.9884096705991
 11
2253.9905900519848
 21
2606.9884096705991
  0
LINE
  8
_0-0_通り芯
  6
CONTINUOUS
 62
    7
 10
2258.9905900519848
 20
2606.9884096705991
 11
2263.9905735559969
 21
2606.9884096705991
  0
LINE
  8
_0-0_通り芯
  6
CONTINUOUS
 62
    7
 10
2268.9905735559969
 20
2606.9884096705991
 11
2273.9905735559969
 21
2606.9884096705991
  0
LINE
  8
_0-0_通り芯
  6
CONTINUOUS
 62
    7
 10
2268.9905735559969
 20
2573.9883618322337
 11
2273.9905735559969
 21
2573.9883618322337
  0
LINE
  8
_0-0_通り芯
  6
CONTINUOUS
 62
    7
 10
2258.9905900519848
 20
2573.9883618322337
 11
2263.9905735559969
 21
2573.9883618322337
  0
LINE
  8
_0-0_通り芯
  6
CONTINUOUS
 62
    7
 10
2248.9905900519848
 20
2573.9883618322337
 11
2253.9905900519848
 21
2573.9883618322337
  0
LINE
  8
_0-0_通り芯
  6
CONTINUOUS
 62
    7
 10
2238.9905900519848
 20
2573.9883618322337
 11
2243.9905900519848
 21
2573.9883618322337
  0
LINE
  8
_0-0_通り芯
  6
CONTINUOUS
 62
    7
 10
2228.9905900519848
 20
2573.9883618322337
 11
2233.9905900519848
 21
2573.9883618322337
  0
LINE
  8
_0-0_通り芯
  6
CONTINUOUS
 62
    7
 10
2218.9905900519848
 20
2573.9883618322337
 11
2223.9905900519848
 21
2573.9883618322337
  0
LINE
  8
_0-0_通り芯
  6
CONTINUOUS
 62
    7
 10
2208.9905900519848
 20
2608.9884096705991
 11
2213.9905900519848
 21
2606.9884096705991
  0
LINE
  8
_0-0_通り芯
  6
CONTINUOUS
 62
    7
 10
2218.9905900519848
 20
2608.9884096705991
 11
2223.9905900519848
 21
2606.9884096705991
  0
LINE
  8
_0-0_通り芯
  6
CONTINUOUS
 62
    7
 10
2228.9905900519848
 20
2608.9884096705991
 11
2233.9905900519848
 21
2606.9884096705991
  0
LINE
  8
_0-0_通り芯
  6
CONTINUOUS
 62
    7
 10
2238.9905900519848
 20
2608.9884096705991
 11
2243.9905900519848
 21
2606.9884096705991
  0
LINE
  8
_0-0_通り芯
  6
CONTINUOUS
 62
    7
 10
2248.9905900519848
 20
2608.9884096705991
 11
2253.9905900519848
 21
2606.9884096705991
  0
LINE
  8
_0-0_通り芯
  6
CONTINUOUS
 62
    7
 10
2258.9905900519848
 20
2608.9884096705991
 11
2263.9905735559969
 21
2606.9884096705991
  0
LINE
  8
_0-0_通り芯
  6
CONTINUOUS
 62
    7
 10
2268.9905735559969
 20
2608.9884096705991
 11
2273.9905735559969
 21
2606.9884096705991
  0
LINE
  8
_0-0_通り芯
  6
CONTINUOUS
 62
    7
 10
2208.9905900519848
 20
2573.9883618322337
 11
2213.9905900519848
 21
2571.9883618322337
  0
LINE
  8
_0-0_通り芯
  6
CONTINUOUS
 62
    7
 10
2218.9905900519848
 20
2573.9883618322337
 11
2223.9905900519848
 21
2571.9883618322337
  0
LINE
  8
_0-0_通り芯
  6
CONTINUOUS
 62
    7
 10
2228.9905900519848
 20
2573.9883618322337
 11
2233.9905900519848
 21
2571.9883618322337
  0
LINE
  8
_0-0_通り芯
  6
CONTINUOUS
 62
    7
 10
2238.9905900519848
 20
2573.9883618322337
 11
2243.9905900519848
 21
2571.9883618322337
  0
LINE
  8
_0-0_通り芯
  6
CONTINUOUS
 62
    7
 10
2248.9905900519848
 20
2573.9883618322337
 11
2253.9905900519848
 21
2571.9883618322337
  0
LINE
  8
_0-0_通り芯
  6
CONTINUOUS
 62
    7
 10
2258.9905900519848
 20
2573.9883618322337
 11
2263.9905735559969
 21
2571.9883618322337
  0
LINE
  8
_0-0_通り芯
  6
CONTINUOUS
 62
    7
 10
2268.9905735559969
 20
2573.9883618322337
 11
2273.9905735559969
 21
2571.9883618322337
  0
LINE
  8
_0-0_通り芯
  6
CONTINUOUS
 62
    7
 10
4498.3125818039907
 20
2518.9883601826346
 11
2498.3125818039907
 21
2518.9883601826346
  0
LINE
  8
_0-0_通り芯
  6
CONTINUOUS
 62
    7
 10
2498.3125818039907
 20
2508.9883601826346
 11
2498.3125818039907
 21
2608.9884096706
  0
LINE
  8
_0-0_通り芯
  6
CONTINUOUS
 62
    7
 10
2498.3125818039907
 20
2608.9884096706
 11
4498.3125818039907
 21
2608.9884096706
  0
LINE
  8
_0-0_通り芯
  6
CONTINUOUS
 62
    7
 10
4498.3125818039907
 20
2508.9883601826346
 11
4498.3125818039907
 21
2608.9884096706
  0
TEXT
  8
_0-0_通り芯
 62
    7
 10
1848.9906268039904
 20
2726.4563759780458
 40
20
 41
1
 50
0
  1
1
  0
LINE
  8
_0-0_通り芯
  6
CONTINUOUS
 62
    7
 10
1798.9906718039904
 20
2691.4563759780458
 11
1888.9905818039904
 21
2691.4563759780458
  0
POINT
  8
_0-0_通り芯
 62
    7
 10
1798.9906718039904
 20
2691.4563759780458
  0
POINT
  8
_0-0_通り芯
 62
    7
 10
1888.9905818039904
 20
2691.4563759780458
  0
LINE
  8
_0-0_通り芯
  6
CONTINUOUS
 62
    7
 10
1798.9906718039904
 20
2691.4563759780458
 11
1798.9906718039904
 21
2638.6511759780456
  0
LINE
  8
_0-0_通り芯
  6
CONTINUOUS
 62
    7
 10
1888.9905818039904
 20
2691.4563759780458
 11
1888.9905818039904
 21
2638.6511759780456
  0
LINE
  8
_0-0_通り芯
  6
CONTINUOUS
 62
    7
 10
1888.9905818039904
 20
2691.4563759780458
 11
2188.9905818039906
 21
2691.4563759780458
  0
POINT
  8
_0-0_通り芯
 62
    7
 10
2188.9905818039906
 20
2691.4563759780458
  0
LINE
  8
_0-0_通り芯
  6
CONTINUOUS
 62
    7
 10
2188.9905818039906
 20
2691.4563759780458
 11
2188.9905818039906
 21
2638.6511759780456
  0
LINE
  8
_0-0_通り芯
  6
CONTINUOUS
 62
    7
 10
2188.9905818039906
 20
2691.4563759780458
 11
2278.9905818039906
 21
2691.4563759780458
  0
POINT
  8
_0-0_通り芯
 62
    7
 10
2278.9905818039906
 20
2691.4563759780458
  0
LINE
  8
_0-0_通り芯
  6
CONTINUOUS
 62
    7
 10
2278.9905818039906
 20
2691.4563759780458
 11
2278.9905818039906
 21
2638.6511759780456
  0
LINE
  8
_0-0_通り芯
  6
CONTINUOUS
 62
    7
 10
2498.3125818039907
 20
2691.4563759780458
 11
4498.3125818039907
 21
2691.4563759780458
  0
POINT
  8
_0-0_通り芯
 62
    7
 10
2498.3125818039907
 20
2691.4563759780458
  0
POINT
  8
_0-0_通り芯
 62
    7
 10
4498.3125818039907
 20
2691.4563759780458
  0
LINE
  8
_0-0_通り芯
  6
CONTINUOUS
 62
    7
 10
2498.3125818039907
 20
2691.4563759780458
 11
2498.3125818039907
 21
2638.6511759780456
  0
LINE
  8
_0-0_通り芯
  6
CONTINUOUS
 62
    7
 10
4498.3125818039907
 20
2691.4563759780458
 11
4498.3125818039907
 21
2638.6511759780456
  0
TEXT
  8
_0-0_通り芯
 62
    7
 10
1836.9906268039904
 20
2701.4563759780458
 40
28
 41
1
 50
0
  1
T
  0
TEXT
  8
_0-0_通り芯
 62
    7
 10
2031.9905818039906
 20
2701.4563759780458
 40
28
 41
1
 50
0
  1
D
  0
TEXT
  8
_0-0_通り芯
 62
    7
 10
2226.9905818039906
 20
2701.4563759780458
 40
28
 41
1
 50
0
  1
T
  0
TEXT
  8
_0-0_通り芯
 62
    7
 10
2238.9905818039906
 20
2726.4563759780458
 40
20
 41
1
 50
0
  1
1
  0
TEXT
  8
_0-0_通り芯
 62
    7
 10
3484.3125818039903
 20
2711.4563759780458
 40
28
 41
1
 50
0
  1
Ｌ
  0
LINE
  8
_0-0_通り芯
  6
CONTINUOUS
 62
    7
 10
2203.9905818039911
 20
2518.9883601826346
 11
2144.3571297045683
 21
2421.1229728977446
  0
LINE
  8
_0-0_通り芯
  6
CONTINUOUS
 62
    7
 10
2168.2685821294299
 20
2402.7108584660086
 11
2263.9905818039911
 21
2518.9883601826346
  0
LINE
  8
_0-0_通り芯
  6
CONTINUOUS
 62
    7
 10
4716.5367999999999
 20
1066.7072000000001
 11
1516.5372499999999
 21
1066.7072000000001
  0
TEXT
  8
_0-0_通り芯
 62
    7
 10
1563.7546855476887
 20
995.12078300708038
 40
40
 41
1
 50
0
  1
名称
  0
TEXT
  8
_0-0_通り芯
 62
    7
 10
1737.0928779675137
 20
997.27405247813408
 40
40
 41
1
 50
0
  1
クリーン側溝　ARK
  0
TEXT
  8
_0-0_通り芯
 62
    7
 10
3282.5188935642632
 20
997.66878741708308
 40
40
 41
1
 50
0
  1
参考重量
  0
LINE
  8
_0-0_通り芯
  6
CONTINUOUS
 62
    7
 10
1690.8974077929925
 20
1066.7072000000001
 11
1690.8974077929925
 21
966.70720000000006
  0
LINE
  8
_0-0_通り芯
  6
CONTINUOUS
 62
    7
 10
2191.1455234951504
 20
1066.7072000000001
 11
2191.1455234951504
 21
966.70720000000006
  0
LINE
  8
_0-0_通り芯
  6
CONTINUOUS
 62
    7
 10
2435.5589864181225
 20
1066.7072000000001
 11
2435.5589864181225
 21
966.70720000000006
  0
LINE
  8
_0-0_通り芯
  6
CONTINUOUS
 62
    7
 10
2748.4995884783762
 20
1066.7072000000001
 11
2748.4995884783762
 21
966.70720000000006
  0
LINE
  8
_0-0_通り芯
  6
CONTINUOUS
 62
    7
 10
3018.0396690850189
 20
1066.7072000000001
 11
3018.0396690850189
 21
994.69674001227736
  0
LINE
  8
_0-0_通り芯
  6
CONTINUOUS
 62
    7
 10
3018.0396690850189
 20
994.69674001227736
 11
3018.0396690850189
 21
966.70720000000006
  0
LINE
  8
_0-0_通り芯
  6
CONTINUOUS
 62
    7
 10
3232.7580383818349
 20
1066.7072000000001
 11
3232.7580383818349
 21
966.70720000000006
  0
LINE
  8
_0-0_通り芯
  6
CONTINUOUS
 62
    7
 10
3490.8769291322637
 20
1066.7072000000001
 11
3490.8769291322637
 21
966.70720000000006
  0
TEXT
  8
_0-0_通り芯
 62
    7
 10
2267.2583226529146
 20
997.17534951688947
 40
40
 41
1
 50
0
  1
分類
  0
TEXT
  8
_0-0_通り芯
 62
    7
 10
2539.9125856228256
 20
998.44990514687777
 40
40
 41
1
 50
0
  1
街路型
  0
TEXT
  8
_0-0_通り芯
 62
    7
 10
2833.812635317664
 20
995.67896233991166
 40
40
 41
1
 50
0
  1
図番
  0
TEXT
  8
_0-0_通り芯
 62
    7
 10
3896.1019715640714
 20
996.34223736563558
 40
40
 41
1
 50
0
  1
岩城ブロック工業株式会社
  0
ENDSEC
  0
EOF
