  0
SECTION
  2
HEADER
  9
$ACADVER
  1
AC1009
  9
$INSBASE
 10
0
 20
0
 30
0
  9
$EXTMIN
 10
0
 20
0
  9
$EXTMAX
 10
5940
 20
4200
  9
$LIMMIN
 10
0
 20
0
  9
$LIMMAX
 10
5940
 20
4200
  9
$LTSCALE
 40
10
  0
ENDSEC
  0
SECTION
  2
TABLES
  0
TABLE
  2
LTYPE
 70
     9
  0
LTYPE
  2
CONTINUOUS
 70
    64
  3
実線
 72
    65
 73
     0
 40
0.0
  0
LTYPE
  2
DASHED1
 70
    64
  3
--  --  --  --  --  --  --  --  
 72
    65
 73
     2
 40
2.5
 49
1.25
 49
-1.25
  0
LTYPE
  2
DASHED2
 70
    64
  3
----    ----    ----    ----    
 72
    65
 73
     2
 40
5.0
 49
2.5
 49
-2.5
  0
LTYPE
  2
DASHED3
 70
    64
  3
------  ------  ------  ------  
 72
    65
 73
     2
 40
5.0
 49
3.75
 49
-1.25
  0
LTYPE
  2
CENTER1
 70
    64
  3
----- - ----- - ----- - ----- - 
 72
    65
 73
     4
 40
10.0
 49
6.25
 49
-1.25
 49
1.25
 49
-1.25
  0
LTYPE
  2
CENTER2
 70
    64
  3
----------  --  ----------  --  
 72
    65
 73
     4
 40
20.0
 49
12.5
 49
-2.5
 49
2.5
 49
-2.5
  0
LTYPE
  2
PHANTOM1
 70
    64
  3
--- - - --- - - --- - - --- - - 
 72
    65
 73
     6
 40
10.0
 49
3.25
 49
-1.25
 49
1.25
 49
-1.25
 49
1.25
 49
-1.25
  0
LTYPE
  2
PHANTOM2
 70
    64
  3
--------  -  -  --------  -  -  
 72
    65
 73
     6
 40
20.0
 49
10.0
 49
-2.5
 49
1.25
 49
-2.5
 49
1.25
 49
-2.5
  0
LTYPE
  2
DOT
 70
    64
  3
-   -   -   -   -   -   -   -   
 72
    65
 73
     2
 40
2.5
 49
0.625
 49
-1.875
  0
LTYPE
  2
DUMMY
 70
    64
  3
ダミー
 72
    65
 73
     0
 40
0.0
  0
LTYPE
  2
RAND1
 70
    64
  3
ランダム線1
 72
    65
 73
     4
 40
10.0
 49
1.0
 49
-2.0
 49
3.0
 49
-4.0
  0
LTYPE
  2
RAND2
 70
    64
  3
ランダム線2
 72
    65
 73
     4
 40
14.0
 49
2.0
 49
-3.0
 49
4.0
 49
-5.0
  0
LTYPE
  2
RAND3
 70
    64
  3
ランダム線3
 72
    65
 73
     4
 40
18.0
 49
3.0
 49
-4.0
 49
5.0
 49
-6.0
  0
LTYPE
  2
RAND4
 70
    64
  3
ランダム線4
 72
    65
 73
     4
 40
22.0
 49
4.0
 49
-5.0
 49
6.0
 49
-7.0
  0
LTYPE
  2
RAND5
 70
    64
  3
ランダム線5
 72
    65
 73
     4
 40
26.0
 49
5.0
 49
-6.0
 49
7.0
 49
-8.0
  0
LTYPE
  2
LONG1
 70
    64
  3
----------  --  ----------  --  
 72
    65
 73
     4
 40
40.0
 49
32.5
 49
-2.5
 49
2.5
 49
-2.5
  0
LTYPE
  2
LONG2
 70
    64
  3
--------  -  -  --------  -  -  
 72
    65
 73
     6
 40
40.0
 49
30.0
 49
-2.5
 49
1.25
 49
-2.5
 49
1.25
 49
-2.5
  0
LTYPE
  2
LONG3
 70
    64
  3
+++++++++++++++..+++++++++++++++
 72
    65
 73
     2
 40
40.0
 49
37.5
 49
-2.5
  0
LTYPE
  2
LONG4
 70
    64
  3
+++++++++++++++..+++++++++++++++
 72
    65
 73
     2
 40
80.0
 49
75.0
 49
-5.0
  0
LTYPE
  2
LONG5
 70
    64
  3
----------  --  ----------  --  
 72
    65
 73
     4
 40
60.0
 49
37.5
 49
-7.5
 49
7.5
 49
-7.5
  0
LTYPE
  2
dashed
 70
   64
  3
-------   -------------   ------
 72
   65
 73
    2
 40
7.5
 49
6
 49
-1.5
  0
LTYPE
  2
dashed_spaced
 70
   64
  3
----        --------        ----
 72
   65
 73
    2
 40
12
 49
6
 49
-6
  0
LTYPE
  2
long_dashed_dotted
 70
   64
  3
------------- --- --------------
 72
   65
 73
    4
 40
15.25
 49
12
 49
-1.5
 49
0.25
 49
-1.5
  0
LTYPE
  2
long_dashed_double-dotted
 70
   64
  3
----------- --- --- ------------
 72
   65
 73
    6
 40
17
 49
12
 49
-1.5
 49
0.25
 49
-1.5
 49
0.25
 49
-1.5
  0
LTYPE
  2
long_dashed_triplicate-dotted
 70
   64
  3
--------- --- --- --- ----------
 72
   65
 73
    8
 40
18.75
 49
12
 49
-1.5
 49
0.25
 49
-1.5
 49
0.25
 49
-1.5
 49
0.25
 49
-1.5
  0
LTYPE
  2
dotted
 70
   64
  3
   -       -       -       -    
 72
   65
 73
    2
 40
1.75
 49
0.25
 49
-1.5
  0
LTYPE
  2
chain
 70
   64
  3
-------------- -- --------------
 72
   65
 73
    4
 40
18.5
 49
12
 49
-1.5
 49
3.5
 49
-1.5
  0
LTYPE
  2
chain_double_dash
 70
   64
  3
------------ -- -- -------------
 72
   65
 73
    6
 40
23.5
 49
12
 49
-1.5
 49
3.5
 49
-1.5
 49
3.5
 49
-1.5
  0
LTYPE
  2
dashed_dotted
 70
   64
  3
-----------     -     ----------
 72
   65
 73
    4
 40
9.25
 49
6
 49
-1.5
 49
0.25
 49
-1.5
  0
LTYPE
  2
double-dashed_dotted
 70
   64
  3
------   -----------   -   -----
 72
   65
 73
    6
 40
16.75
 49
6
 49
-1.5
 49
6
 49
-1.5
 49
0.25
 49
-1.5
  0
LTYPE
  2
dashed_double-dotted
 70
   64
  3
---------    -    -    ---------
 72
   65
 73
    6
 40
11
 49
6
 49
-1.5
 49
0.25
 49
-1.5
 49
0.25
 49
-1.5
  0
LTYPE
  2
double-dashed_double-dotted
 70
   64
  3
-----   ---------   -   -   ----
 72
   65
 73
    8
 40
18.5
 49
6
 49
-1.5
 49
6
 49
-1.5
 49
0.25
 49
-1.5
 49
0.25
 49
-1.5
  0
LTYPE
  2
dashed_triplicate-dotted
 70
   64
  3
-------    -    -    -    ------
 72
   65
 73
    8
 40
12.75
 49
6
 49
-1.5
 49
0.25
 49
-1.5
 49
0.25
 49
-1.5
 49
0.25
 49
-1.5
  0
LTYPE
  2
double-dashed_triplicate-dotted
 70
   64
  3
-----  ---------  -  -  -  -----
 72
   65
 73
   10
 40
20.25
 49
6
 49
-1.5
 49
6
 49
-1.5
 49
0.25
 49
-1.5
 49
0.25
 49
-1.5
 49
0.25
 49
-1.5
  0
LTYPE
  2
undefined
 70
   64
  3
--------------------------------
 72
   65
 73
    0
 40
0
  0
ENDTAB
  0
TABLE
  2
STYLE
  5
3
100
AcDbSymbolTable
 70
     1
  0
STYLE
  5
10
100
AcDbSymbolTableRecord
100
AcDbTextStyleTableRecord
  2
STANDARD
 70
     0
 40
0.0
 41
1.0
 50
0.0
 71
     0
 42
0.2
  3
txt
  4
bigfont.shx
  0
STYLE
  5
26
100
AcDbSymbolTableRecord
100
AcDbTextStyleTableRecord
  2
TATEGAKI
 70
    68
 40
0.0
 41
1.0
 50
0.0
 71
     0
 42
1.0
  3
txt
  4
bigfont.shx
  0
ENDTAB
  0
TABLE
  2
LAYER
 70
    2
  0
LAYER
  2
_0-0_1
 70
   64
 62
    7
  6
CONTINUOUS
  0
LAYER
  2
ADD_LINE
 70
   64
 62
    7
  6
CONTINUOUS
  0
ENDTAB
  0
ENDSEC
  0
SECTION
  2
BLOCKS
  0
ENDSEC
  0
SECTION
  2
ENTITIES
  0
TEXT
  8
_0-0_1
 62
    7
 10
4137.9233000000004
 20
1772.1968999999999
 40
40
 41
0.8
 50
0
  1
 
  0
TEXT
  8
_0-0_1
 62
    7
 10
3573.6732499999998
 20
2335.3893410429068
 40
30
 41
1
 50
0
  1
1000
  0
TEXT
  8
_0-0_1
 62
    7
 10
3146.1732499999998
 20
2281.6516362106859
 40
30
 41
1
 50
0
  1
115
  0
TEXT
  8
_0-0_1
 62
    7
 10
4026.1732000000002
 20
2281.6516362106859
 40
30
 41
1
 50
0
  1
115
  0
TEXT
  8
_0-0_1
 62
    7
 10
3586.1732000000002
 20
2281.6516362106859
 40
30
 41
1
 50
0
  1
770
  0
TEXT
  8
_0-0_1
 62
    7
 10
3588.4231999999997
 20
2206.114385161829
 40
30
 41
1
 50
0
  1
505
  0
TEXT
  8
_0-0_1
 62
    7
 10
3573.6732499999998
 20
1281.0717462288064
 40
30
 41
1
 50
0
  1
1000
  0
TEXT
  8
_0-0_1
 62
    7
 10
1924.1273751535596
 20
2225.8143241234129
 40
30
 41
1
 50
0
  1
412
  0
TEXT
  8
_0-0_1
 62
    7
 10
1745.8968101984242
 20
2157.9918090963456
 40
30
 41
1
 50
-3.4335660200000078
  1
6％
  0
TEXT
  8
_0-0_1
 62
    7
 10
2087.3471374469464
 20
2153.2851003247497
 40
30
 41
1
 50
3.4335660200000078
  1
6％
  0
TEXT
  8
_0-0_1
 62
    7
 10
1830.5626752516014
 20
1952.5817628221889
 40
30
 41
1
 50
-44.999942119999979
  1
80
  0
TEXT
  8
_0-0_1
 62
    7
 10
1881.4388331269924
 20
1782.9945699042185
 40
30
 41
1
 50
39.231536509999962
  1
200
  0
TEXT
  8
_0-0_1
 62
    7
 10
1927.3721251535596
 20
2335.3893410429068
 40
30
 41
1
 50
0
  1
420
  0
TEXT
  8
_0-0_1
 62
    7
 10
1694.8772251535595
 20
2279.7360645172007
 40
30
 41
1
 50
0
  1
50
  0
TEXT
  8
_0-0_1
 62
    7
 10
2171.1221251535599
 20
2279.7360645172007
 40
30
 41
1
 50
0
  1
50
  0
TEXT
  8
_0-0_1
 62
    7
 10
2178.5544116290139
 20
2223.497651594018
 40
30
 41
1
 50
0
  1
30
  0
TEXT
  8
_0-0_1
 62
    7
 10
1608.6278934536813
 20
2110.8206770361667
 40
30
 41
1
 50
90
  1
9
  0
TEXT
  8
_0-0_1
 62
    7
 10
1517.8670920234467
 20
2045.913484006529
 40
30
 41
1
 50
90
  1
105
  0
TEXT
  8
_0-0_1
 62
    7
 10
1517.8670920234467
 20
1488.4135365216935
 40
30
 41
1
 50
90
  1
250
  0
TEXT
  8
_0-0_1
 62
    7
 10
1928.3772251535595
 20
1251.5017766311375
 40
30
 41
1
 50
0
  1
440
  0
TEXT
  8
_0-0_1
 62
    7
 10
2406.4121863960468
 20
1965.1465793509758
 40
30
 41
1
 50
90
  1
30
  0
TEXT
  8
_0-0_1
 62
    7
 10
2409.9641071313276
 20
2045.9134686608525
 40
30
 41
1
 50
90
  1
105
  0
TEXT
  8
_0-0_1
 62
    7
 10
2261.4335048770536
 20
2084.6634186608526
 40
30
 41
1
 50
90
  1
60
  0
TEXT
  8
_0-0_1
 62
    7
 10
1954.1407605354993
 20
1877.5060366721516
 40
30
 41
1
 50
0
  1
300
  0
LINE
  8
_0-0_1
  6
CONTINUOUS
 62
    7
 10
3604.9234000000001
 20
1964.308
 11
3864.9232000000002
 21
1964.308
  0
LINE
  8
_0-0_1
  6
CONTINUOUS
 62
    7
 10
1414.6023599999999
 20
1013.3049000000001
 11
1414.6023599999999
 21
913.30484999999999
  0
LINE
  8
_0-0_1
  6
CONTINUOUS
 62
    7
 10
2702.7046999999998
 20
1013.3049000000001
 11
2702.7046999999998
 21
913.30484999999999
  0
LINE
  8
_0-0_1
  6
CONTINUOUS
 62
    7
 10
2372.7046999999998
 20
1013.3049000000001
 11
2372.7046999999998
 21
913.30484999999999
  0
LINE
  8
_0-0_1
  6
CONTINUOUS
 62
    7
 10
2192.7046999999998
 20
1013.3049000000001
 11
2192.7046999999998
 21
913.30484999999999
  0
LINE
  8
_0-0_1
  6
CONTINUOUS
 62
    7
 10
3304.8437000000004
 20
1013.3049000000001
 11
3304.8437000000004
 21
913.30484999999999
  0
LINE
  8
_0-0_1
  6
CONTINUOUS
 62
    7
 10
3604.8437000000004
 20
1013.3049000000001
 11
3604.8437000000004
 21
913.30484999999999
  0
LINE
  8
_0-0_1
  6
CONTINUOUS
 62
    7
 10
3004.8437000000004
 20
1013.3049000000001
 11
3004.8437000000004
 21
913.30484999999999
  0
LINE
  8
_0-0_1
  6
CONTINUOUS
 62
    7
 10
1241.37673
 20
913.30484999999999
 11
1241.37673
 21
3257.4467
  0
LINE
  8
_0-0_1
  6
CONTINUOUS
 62
    7
 10
4824.8433000000005
 20
3257.4467
 11
4824.8433000000005
 21
913.30484999999999
  0
LINE
  8
_0-0_1
  6
CONTINUOUS
 62
    7
 10
1241.37673
 20
3257.4467
 11
4824.8433000000005
 21
3257.4467
  0
LINE
  8
_0-0_1
  6
CONTINUOUS
 62
    7
 10
4824.8433000000005
 20
913.30484999999999
 11
1241.37673
 21
913.30484999999999
  0
LINE
  8
_0-0_1
  6
CONTINUOUS
 62
    7
 10
4824.8433000000005
 20
1013.3049000000001
 11
1241.3769500000001
 21
1013.3049000000001
  0
LINE
  8
_0-0_1
  6
CONTINUOUS
 62
    7
 10
3609.3696
 20
1854.9809
 11
3610.5167000000001
 21
1853.3425999999999
  0
LINE
  8
_0-0_1
  6
CONTINUOUS
 62
    7
 10
3609.3696
 20
1854.9809
 11
3609.5438000000004
 21
1852.9884999999999
  0
LINE
  8
_0-0_1
  6
CONTINUOUS
 62
    7
 10
3104.9232000000002
 20
2115.1968999999999
 11
3604.9234000000001
 21
2115.1968999999999
  0
LINE
  8
_0-0_1
  6
CONTINUOUS
 62
    7
 10
3212.9877999999999
 20
1632.1969000000001
 11
3104.9232000000002
 21
1632.1969000000001
  0
LINE
  8
_0-0_1
  6
CONTINUOUS
 62
    7
 10
3204.9232999999999
 20
1382.1969999999999
 11
3212.9877999999999
 21
1632.1969000000001
  0
LINE
  8
_0-0_1
  6
CONTINUOUS
 62
    7
 10
3354.9232999999999
 20
2083.1968999999999
 11
3604.9234000000001
 21
2083.1968999999999
  0
LINE
  8
_0-0_1
  6
CONTINUOUS
 62
    7
 10
3354.9232999999999
 20
2078.6968999999999
 11
3348.2354999999998
 21
2002.1969999999999
  0
LINE
  8
_0-0_1
  6
CONTINUOUS
 62
    7
 10
3212.9877999999999
 20
1632.1969000000001
 11
3224.9232999999999
 21
2002.1969999999999
  0
LINE
  8
_0-0_1
  6
CONTINUOUS
 62
    7
 10
3104.9232000000002
 20
2002.1969999999999
 11
3604.9234000000001
 21
2002.1969999999999
  0
LINE
  8
_0-0_1
  6
CONTINUOUS
 62
    7
 10
3104.9232000000002
 20
1962.1969999999999
 11
3604.9234000000001
 21
1962.1969999999999
  0
LINE
  8
_0-0_1
  6
CONTINUOUS
 62
    7
 10
4083.5019000000002
 20
2002.1969999999999
 11
4104.9232999999995
 21
2023.6183000000001
  0
LINE
  8
_0-0_1
  6
CONTINUOUS
 62
    7
 10
4055.2175999999999
 20
2002.1969999999999
 11
4104.9232999999995
 21
2051.9025000000001
  0
LINE
  8
_0-0_1
  6
CONTINUOUS
 62
    7
 10
4026.9335000000001
 20
2002.1969999999999
 11
4104.9232999999995
 21
2080.1867999999999
  0
LINE
  8
_0-0_1
  6
CONTINUOUS
 62
    7
 10
3998.6491000000001
 20
2002.1969999999999
 11
4104.9232999999995
 21
2108.4710999999998
  0
LINE
  8
_0-0_1
  6
CONTINUOUS
 62
    7
 10
3970.3647999999998
 20
2002.1969999999999
 11
4083.3647999999998
 21
2115.1968999999999
  0
LINE
  8
_0-0_1
  6
CONTINUOUS
 62
    7
 10
3942.0807000000004
 20
2002.1969999999999
 11
4055.0805
 21
2115.1968999999999
  0
LINE
  8
_0-0_1
  6
CONTINUOUS
 62
    7
 10
3913.7963
 20
2002.1969999999999
 11
4026.7964000000002
 21
2115.1968999999999
  0
LINE
  8
_0-0_1
  6
CONTINUOUS
 62
    7
 10
3885.5119999999997
 20
2002.1969999999999
 11
3998.5120000000002
 21
2115.1968999999999
  0
LINE
  8
_0-0_1
  6
CONTINUOUS
 62
    7
 10
3861.2586000000001
 20
2006.2277999999997
 11
3970.2276999999999
 21
2115.1968999999999
  0
LINE
  8
_0-0_1
  6
CONTINUOUS
 62
    7
 10
3858.9847
 20
2032.2381
 11
3941.9432999999999
 21
2115.1968999999999
  0
LINE
  8
_0-0_1
  6
CONTINUOUS
 62
    7
 10
3856.7109
 20
2058.2485999999999
 11
3913.6592000000001
 21
2115.1968999999999
  0
LINE
  8
_0-0_1
  6
CONTINUOUS
 62
    7
 10
3997.7267000000002
 20
1605.29468
 11
4024.6288
 21
1632.1969000000001
  0
LINE
  8
_0-0_1
  6
CONTINUOUS
 62
    7
 10
3998.6104999999998
 20
1577.8943100000001
 11
4052.9132
 21
1632.1969000000001
  0
LINE
  8
_0-0_1
  6
CONTINUOUS
 62
    7
 10
3999.4943999999996
 20
1550.4939400000001
 11
4081.1975000000002
 21
1632.1969000000001
  0
LINE
  8
_0-0_1
  6
CONTINUOUS
 62
    7
 10
4000.3782000000001
 20
1523.0934999999999
 11
4104.9232999999995
 21
1627.6386
  0
LINE
  8
_0-0_1
  6
CONTINUOUS
 62
    7
 10
4001.2620999999999
 20
1495.6931299999999
 11
4104.9232999999995
 21
1599.3543299999999
  0
LINE
  8
_0-0_1
  6
CONTINUOUS
 62
    7
 10
4002.1459
 20
1468.2927599999998
 11
4104.9232999999995
 21
1571.0700399999998
  0
LINE
  8
_0-0_1
  6
CONTINUOUS
 62
    7
 10
4003.0297999999998
 20
1440.89239
 11
4104.9232999999995
 21
1542.7857599999998
  0
LINE
  8
_0-0_1
  6
CONTINUOUS
 62
    7
 10
4003.9135999999999
 20
1413.4919500000001
 11
4104.9232999999995
 21
1514.5014700000002
  0
LINE
  8
_0-0_1
  6
CONTINUOUS
 62
    7
 10
4004.7975000000001
 20
1386.09158
 11
4104.9232999999995
 21
1486.2172399999999
  0
LINE
  8
_0-0_1
  6
CONTINUOUS
 62
    7
 10
4029.1873999999998
 20
1382.1969999999999
 11
4104.9232999999995
 21
1457.9329499999999
  0
LINE
  8
_0-0_1
  6
CONTINUOUS
 62
    7
 10
4057.4715000000006
 20
1382.1969999999999
 11
4104.9232999999995
 21
1429.6486600000001
  0
LINE
  8
_0-0_1
  6
CONTINUOUS
 62
    7
 10
4085.7557999999999
 20
1382.1969999999999
 11
4104.9232999999995
 21
1401.3644299999999
  0
LINE
  8
_0-0_1
  6
CONTINUOUS
 62
    7
 10
3859.4231
 20
2089.2453
 11
3885.3748999999998
 21
2115.1968999999999
  0
LINE
  8
_0-0_1
  6
CONTINUOUS
 62
    7
 10
3237.9232999999999
 20
1890.1968999999999
 11
3237.9232999999999
 21
1844.1968999999999
  0
LINE
  8
_0-0_1
  6
CONTINUOUS
 62
    7
 10
3209.9232999999999
 20
1890.1968999999999
 11
3237.9232999999999
 21
1890.1968999999999
  0
LINE
  8
_0-0_1
  6
CONTINUOUS
 62
    7
 10
3209.9232999999999
 20
1844.1968999999999
 11
3237.9232999999999
 21
1844.1968999999999
  0
LINE
  8
_0-0_1
  6
CONTINUOUS
 62
    7
 10
3209.9232999999999
 20
1890.1968999999999
 11
3209.9232999999999
 21
1844.1968999999999
  0
LINE
  8
_0-0_1
  6
CONTINUOUS
 62
    7
 10
3209.9232999999999
 20
1890.1968999999999
 11
3204.9232999999999
 21
1897.1968999999999
  0
LINE
  8
_0-0_1
  6
CONTINUOUS
 62
    7
 10
3237.9232999999999
 20
1890.1968999999999
 11
3244.9232000000002
 21
1897.1968999999999
  0
LINE
  8
_0-0_1
  6
CONTINUOUS
 62
    7
 10
3237.9232999999999
 20
1844.1968999999999
 11
3244.9232000000002
 21
1837.1968999999999
  0
LINE
  8
_0-0_1
  6
CONTINUOUS
 62
    7
 10
3209.9232999999999
 20
1844.1968999999999
 11
3204.9232999999999
 21
1837.1968999999999
  0
LINE
  8
_0-0_1
  6
CONTINUOUS
 62
    7
 10
3104.9232000000002
 20
1872.1968999999999
 11
3206.8265999999999
 21
1872.1968999999999
  0
LINE
  8
_0-0_1
  6
CONTINUOUS
 62
    7
 10
3104.9232000000002
 20
1862.1968999999999
 11
3206.8265999999999
 21
1862.1968999999999
  0
LINE
  8
_0-0_1
  6
CONTINUOUS
 62
    7
 10
4104.9232999999995
 20
1632.1969000000001
 11
4104.9232999999995
 21
1382.1969999999999
  0
LINE
  8
_0-0_1
  6
CONTINUOUS
 62
    7
 10
3104.9232000000002
 20
2127.1968999999999
 11
3104.9232000000002
 21
1382.1969999999999
  0
LINE
  8
_0-0_1
  6
CONTINUOUS
 62
    7
 10
3104.9232000000002
 20
1382.1969999999999
 11
3604.9234000000001
 21
1382.1969999999999
  0
LINE
  8
_0-0_1
  6
CONTINUOUS
 62
    7
 10
3104.9232000000002
 20
2127.1968999999999
 11
3604.9234000000001
 21
2127.1968999999999
  0
LINE
  8
_0-0_1
  6
CONTINUOUS
 62
    7
 10
4104.9232999999995
 20
2115.1968999999999
 11
4104.9232999999995
 21
2002.1969999999999
  0
LINE
  8
_0-0_1
  6
CONTINUOUS
 62
    7
 10
3996.8586
 20
1632.1969000000001
 11
4104.9232999999995
 21
1632.1969000000001
  0
LINE
  8
_0-0_1
  6
CONTINUOUS
 62
    7
 10
4004.9232000000002
 20
1382.1969999999999
 11
4104.9232999999995
 21
1382.1969999999999
  0
LINE
  8
_0-0_1
  6
CONTINUOUS
 62
    7
 10
4004.9232000000002
 20
1382.1969999999999
 11
3996.8586
 21
1632.1969000000001
  0
LINE
  8
_0-0_1
  6
CONTINUOUS
 62
    7
 10
3854.9232000000002
 20
2115.1968999999999
 11
4104.9232999999995
 21
2115.1968999999999
  0
LINE
  8
_0-0_1
  6
CONTINUOUS
 62
    7
 10
4104.9232999999995
 20
2002.1969999999999
 11
3861.6109999999999
 21
2002.1969999999999
  0
LINE
  8
_0-0_1
  6
CONTINUOUS
 62
    7
 10
3859.4231
 20
2078.6968999999999
 11
3859.4231
 21
2115.1968999999999
  0
LINE
  8
_0-0_1
  6
CONTINUOUS
 62
    7
 10
3854.9232000000002
 20
2078.6968999999999
 11
3859.4231
 21
2078.6968999999999
  0
LINE
  8
_0-0_1
  6
CONTINUOUS
 62
    7
 10
3854.9232000000002
 20
2078.6968999999999
 11
3854.9232000000002
 21
2115.1968999999999
  0
LINE
  8
_0-0_1
  6
CONTINUOUS
 62
    7
 10
3854.9232000000002
 20
2078.6968999999999
 11
3861.6109999999999
 21
2002.1969999999999
  0
LINE
  8
_0-0_1
  6
CONTINUOUS
 62
    7
 10
3204.9232999999999
 20
1857.1968999999999
 11
3104.9232000000002
 21
1857.1968999999999
  0
LINE
  8
_0-0_1
  6
CONTINUOUS
 62
    7
 10
4104.9232999999995
 20
2127.1968999999999
 11
4104.9232999999995
 21
2115.1968999999999
  0
LINE
  8
_0-0_1
  6
CONTINUOUS
 62
    7
 10
3104.9232000000002
 20
2122.1968999999999
 11
3604.9234000000001
 21
2122.1968999999999
  0
LINE
  8
_0-0_1
  6
CONTINUOUS
 62
    7
 10
3213.4232999999999
 20
2127.1968999999999
 11
3214.9232999999999
 21
2130.1970000000001
  0
LINE
  8
_0-0_1
  6
CONTINUOUS
 62
    7
 10
3214.9232999999999
 20
2130.1970000000001
 11
3294.9232999999999
 21
2130.1970000000001
  0
LINE
  8
_0-0_1
  6
CONTINUOUS
 62
    7
 10
3294.9232999999999
 20
2130.1970000000001
 11
3296.4233000000004
 21
2127.1968999999999
  0
LINE
  8
_0-0_1
  6
CONTINUOUS
 62
    7
 10
3113.4232000000002
 20
2127.1968999999999
 11
3114.9232000000002
 21
2130.1970000000001
  0
LINE
  8
_0-0_1
  6
CONTINUOUS
 62
    7
 10
3114.9232000000002
 20
2130.1970000000001
 11
3194.9232000000002
 21
2130.1970000000001
  0
LINE
  8
_0-0_1
  6
CONTINUOUS
 62
    7
 10
3194.9232000000002
 20
2130.1970000000001
 11
3196.4232000000002
 21
2127.1968999999999
  0
LINE
  8
_0-0_1
  6
CONTINUOUS
 62
    7
 10
3996.4231
 20
2127.1968999999999
 11
4013.4232000000002
 21
2127.1968999999999
  0
LINE
  8
_0-0_1
  6
CONTINUOUS
 62
    7
 10
3913.4232000000002
 20
2127.1968999999999
 11
3914.9231
 21
2130.1970000000001
  0
LINE
  8
_0-0_1
  6
CONTINUOUS
 62
    7
 10
3914.9231
 20
2130.1970000000001
 11
3994.9232000000002
 21
2130.1970000000001
  0
LINE
  8
_0-0_1
  6
CONTINUOUS
 62
    7
 10
3994.9232000000002
 20
2130.1970000000001
 11
3996.4231
 21
2127.1968999999999
  0
LINE
  8
_0-0_1
  6
CONTINUOUS
 62
    7
 10
3913.4232000000002
 20
2115.1968999999999
 11
3914.9231
 21
2118.1968999999999
  0
LINE
  8
_0-0_1
  6
CONTINUOUS
 62
    7
 10
3914.9231
 20
2118.1968999999999
 11
3994.9232000000002
 21
2118.1968999999999
  0
LINE
  8
_0-0_1
  6
CONTINUOUS
 62
    7
 10
3994.9232000000002
 20
2118.1968999999999
 11
3996.4231
 21
2115.1968999999999
  0
LINE
  8
_0-0_1
  6
CONTINUOUS
 62
    7
 10
3996.4231
 20
2127.1968999999999
 11
3996.4231
 21
2115.1968999999999
  0
LINE
  8
_0-0_1
  6
CONTINUOUS
 62
    7
 10
3994.9232000000002
 20
2130.1970000000001
 11
3994.9232000000002
 21
2118.1968999999999
  0
LINE
  8
_0-0_1
  6
CONTINUOUS
 62
    7
 10
3914.9231
 20
2118.1968999999999
 11
3914.9231
 21
2130.1970000000001
  0
LINE
  8
_0-0_1
  6
CONTINUOUS
 62
    7
 10
3913.4232000000002
 20
2127.1968999999999
 11
3913.4232000000002
 21
2115.1968999999999
  0
LINE
  8
_0-0_1
  6
CONTINUOUS
 62
    7
 10
4096.4232000000002
 20
2127.1968999999999
 11
4104.9232999999995
 21
2127.1968999999999
  0
LINE
  8
_0-0_1
  6
CONTINUOUS
 62
    7
 10
4013.4232000000002
 20
2127.1968999999999
 11
4014.9232000000002
 21
2130.1970000000001
  0
LINE
  8
_0-0_1
  6
CONTINUOUS
 62
    7
 10
4014.9232000000002
 20
2130.1970000000001
 11
4094.9232000000002
 21
2130.1970000000001
  0
LINE
  8
_0-0_1
  6
CONTINUOUS
 62
    7
 10
4094.9232000000002
 20
2130.1970000000001
 11
4096.4232000000002
 21
2127.1968999999999
  0
LINE
  8
_0-0_1
  6
CONTINUOUS
 62
    7
 10
4013.4232000000002
 20
2115.1968999999999
 11
4014.9232000000002
 21
2118.1968999999999
  0
LINE
  8
_0-0_1
  6
CONTINUOUS
 62
    7
 10
4014.9232000000002
 20
2118.1968999999999
 11
4094.9232000000002
 21
2118.1968999999999
  0
LINE
  8
_0-0_1
  6
CONTINUOUS
 62
    7
 10
4094.9232000000002
 20
2118.1968999999999
 11
4096.4232000000002
 21
2115.1968999999999
  0
LINE
  8
_0-0_1
  6
CONTINUOUS
 62
    7
 10
4096.4232000000002
 20
2115.1968999999999
 11
4096.4232000000002
 21
2127.1968999999999
  0
LINE
  8
_0-0_1
  6
CONTINUOUS
 62
    7
 10
4094.9232000000002
 20
2130.1970000000001
 11
4094.9232000000002
 21
2118.1968999999999
  0
LINE
  8
_0-0_1
  6
CONTINUOUS
 62
    7
 10
4014.9232000000002
 20
2118.1968999999999
 11
4014.9232000000002
 21
2130.1970000000001
  0
LINE
  8
_0-0_1
  6
CONTINUOUS
 62
    7
 10
4013.4232000000002
 20
2127.1968999999999
 11
4013.4232000000002
 21
2115.1968999999999
  0
LINE
  8
_0-0_1
  6
CONTINUOUS
 62
    7
 10
4104.9232999999995
 20
2002.1969999999999
 11
4104.9232999999995
 21
1632.1969000000001
  0
LINE
  8
_0-0_1
  6
CONTINUOUS
 62
    7
 10
3604.9234000000001
 20
1382.1969999999999
 11
4004.9232000000002
 21
1382.1969999999999
  0
LINE
  8
_0-0_1
  6
CONTINUOUS
 62
    7
 10
3104.9232000000002
 20
1917.1968999999999
 11
3264.9232000000002
 21
1917.1968999999999
  0
LINE
  8
_0-0_1
  6
CONTINUOUS
 62
    7
 10
3104.9232000000002
 20
1817.1969999999999
 11
3264.9232000000002
 21
1817.1969999999999
  0
LINE
  8
_0-0_1
  6
CONTINUOUS
 62
    7
 10
3264.9232000000002
 20
1917.1968999999999
 11
3264.9232000000002
 21
1817.1969999999999
  0
LINE
  8
_0-0_1
  6
CONTINUOUS
 62
    7
 10
3104.9232000000002
 20
1907.1968999999999
 11
3254.9232000000002
 21
1907.1968999999999
  0
LINE
  8
_0-0_1
  6
CONTINUOUS
 62
    7
 10
3104.9232000000002
 20
1827.1968999999999
 11
3254.9232000000002
 21
1827.1968999999999
  0
LINE
  8
_0-0_1
  6
CONTINUOUS
 62
    7
 10
3254.9232000000002
 20
1907.1968999999999
 11
3254.9232000000002
 21
1827.1968999999999
  0
LINE
  8
_0-0_1
  6
CONTINUOUS
 62
    7
 10
3254.9232000000002
 20
1907.1968999999999
 11
3264.9232000000002
 21
1917.1968999999999
  0
LINE
  8
_0-0_1
  6
CONTINUOUS
 62
    7
 10
3254.9232000000002
 20
1827.1968999999999
 11
3264.9232000000002
 21
1817.1969999999999
  0
LINE
  8
_0-0_1
  6
CONTINUOUS
 62
    7
 10
3996.8586
 20
1632.1969000000001
 11
3984.9231
 21
2002.1969999999999
  0
LINE
  8
_0-0_1
  6
CONTINUOUS
 62
    7
 10
3604.9234000000001
 20
2127.1968999999999
 11
3864.4232000000002
 21
2127.1968999999999
  0
LINE
  8
_0-0_1
  6
CONTINUOUS
 62
    7
 10
3854.9232000000002
 20
2078.6968999999999
 11
3604.9234000000001
 21
2078.6968999999999
  0
LINE
  8
_0-0_1
  6
CONTINUOUS
 62
    7
 10
3854.9232000000002
 20
2083.1968999999999
 11
3604.9234000000001
 21
2083.1968999999999
  0
LINE
  8
_0-0_1
  6
CONTINUOUS
 62
    7
 10
3859.4231
 20
2115.1968999999999
 11
3859.4231
 21
2127.1968999999999
  0
LINE
  8
_0-0_1
  6
CONTINUOUS
 62
    7
 10
3854.9232000000002
 20
2115.1968999999999
 11
3854.9232000000002
 21
2127.1968999999999
  0
LINE
  8
_0-0_1
  6
CONTINUOUS
 62
    7
 10
3354.9232999999999
 20
2078.6968999999999
 11
3354.9232999999999
 21
2127.1968999999999
  0
LINE
  8
_0-0_1
  6
CONTINUOUS
 62
    7
 10
3350.4232999999999
 20
2102.1968999999999
 11
3604.9234000000001
 21
2102.1968999999999
  0
LINE
  8
_0-0_1
  6
CONTINUOUS
 62
    7
 10
3350.4232999999999
 20
2102.1968999999999
 11
3350.4232999999999
 21
2127.1968999999999
  0
LINE
  8
_0-0_1
  6
CONTINUOUS
 62
    7
 10
3345.4232999999999
 20
2127.1968999999999
 11
3343.9233000000004
 21
2130.1970000000001
  0
LINE
  8
_0-0_1
  6
CONTINUOUS
 62
    7
 10
3343.9233000000004
 20
2130.1970000000001
 11
3314.9231
 21
2130.1970000000001
  0
LINE
  8
_0-0_1
  6
CONTINUOUS
 62
    7
 10
3314.9231
 20
2130.1970000000001
 11
3313.4232000000002
 21
2127.1968999999999
  0
LINE
  8
_0-0_1
  6
CONTINUOUS
 62
    7
 10
3600.1733000000004
 20
2130.1970000000001
 11
3609.6732000000002
 21
2130.1970000000001
  0
LINE
  8
_0-0_1
  6
CONTINUOUS
 62
    7
 10
3598.6732999999999
 20
2127.1968999999999
 11
3600.1733000000004
 21
2130.1970000000001
  0
LINE
  8
_0-0_1
  6
CONTINUOUS
 62
    7
 10
3611.1732000000002
 20
2127.1968999999999
 11
3609.6732000000002
 21
2130.1970000000001
  0
LINE
  8
_0-0_1
  6
CONTINUOUS
 62
    7
 10
3619.2088000000003
 20
2130.1970000000001
 11
3628.7087999999999
 21
2130.1970000000001
  0
LINE
  8
_0-0_1
  6
CONTINUOUS
 62
    7
 10
3617.7087999999999
 20
2127.1968999999999
 11
3619.2088000000003
 21
2130.1970000000001
  0
LINE
  8
_0-0_1
  6
CONTINUOUS
 62
    7
 10
3630.2087000000001
 20
2127.1968999999999
 11
3628.7087999999999
 21
2130.1970000000001
  0
LINE
  8
_0-0_1
  6
CONTINUOUS
 62
    7
 10
3638.2443000000003
 20
2130.1970000000001
 11
3647.7442999999998
 21
2130.1970000000001
  0
LINE
  8
_0-0_1
  6
CONTINUOUS
 62
    7
 10
3636.7444
 20
2127.1968999999999
 11
3638.2443000000003
 21
2130.1970000000001
  0
LINE
  8
_0-0_1
  6
CONTINUOUS
 62
    7
 10
3649.2442999999998
 20
2127.1968999999999
 11
3647.7442999999998
 21
2130.1970000000001
  0
LINE
  8
_0-0_1
  6
CONTINUOUS
 62
    7
 10
3657.2798999999995
 20
2130.1970000000001
 11
3666.7799000000005
 21
2130.1970000000001
  0
LINE
  8
_0-0_1
  6
CONTINUOUS
 62
    7
 10
3655.7799
 20
2127.1968999999999
 11
3657.2798999999995
 21
2130.1970000000001
  0
LINE
  8
_0-0_1
  6
CONTINUOUS
 62
    7
 10
3668.2797999999998
 20
2127.1968999999999
 11
3666.7799000000005
 21
2130.1970000000001
  0
LINE
  8
_0-0_1
  6
CONTINUOUS
 62
    7
 10
3676.3153999999995
 20
2130.1970000000001
 11
3685.8154000000004
 21
2130.1970000000001
  0
LINE
  8
_0-0_1
  6
CONTINUOUS
 62
    7
 10
3674.8155000000002
 20
2127.1968999999999
 11
3676.3153999999995
 21
2130.1970000000001
  0
LINE
  8
_0-0_1
  6
CONTINUOUS
 62
    7
 10
3687.3154
 20
2127.1968999999999
 11
3685.8154000000004
 21
2130.1970000000001
  0
LINE
  8
_0-0_1
  6
CONTINUOUS
 62
    7
 10
3695.3510000000001
 20
2130.1970000000001
 11
3704.8509000000004
 21
2130.1970000000001
  0
LINE
  8
_0-0_1
  6
CONTINUOUS
 62
    7
 10
3693.8510000000001
 20
2127.1968999999999
 11
3695.3510000000001
 21
2130.1970000000001
  0
LINE
  8
_0-0_1
  6
CONTINUOUS
 62
    7
 10
3706.3508999999999
 20
2127.1968999999999
 11
3704.8509000000004
 21
2130.1970000000001
  0
LINE
  8
_0-0_1
  6
CONTINUOUS
 62
    7
 10
3714.3865000000001
 20
2130.1970000000001
 11
3723.8864999999996
 21
2130.1970000000001
  0
LINE
  8
_0-0_1
  6
CONTINUOUS
 62
    7
 10
3712.8865000000001
 20
2127.1968999999999
 11
3714.3865000000001
 21
2130.1970000000001
  0
LINE
  8
_0-0_1
  6
CONTINUOUS
 62
    7
 10
3725.3865000000001
 20
2127.1968999999999
 11
3723.8864999999996
 21
2130.1970000000001
  0
LINE
  8
_0-0_1
  6
CONTINUOUS
 62
    7
 10
3733.4220999999998
 20
2130.1970000000001
 11
3742.9219999999996
 21
2130.1970000000001
  0
LINE
  8
_0-0_1
  6
CONTINUOUS
 62
    7
 10
3731.9220999999998
 20
2127.1968999999999
 11
3733.4220999999998
 21
2130.1970000000001
  0
LINE
  8
_0-0_1
  6
CONTINUOUS
 62
    7
 10
3744.422
 20
2127.1968999999999
 11
3742.9219999999996
 21
2130.1970000000001
  0
LINE
  8
_0-0_1
  6
CONTINUOUS
 62
    7
 10
3752.4576000000002
 20
2130.1970000000001
 11
3761.9576000000002
 21
2130.1970000000001
  0
LINE
  8
_0-0_1
  6
CONTINUOUS
 62
    7
 10
3750.9573999999998
 20
2127.1968999999999
 11
3752.4576000000002
 21
2130.1970000000001
  0
LINE
  8
_0-0_1
  6
CONTINUOUS
 62
    7
 10
3763.4576000000006
 20
2127.1968999999999
 11
3761.9576000000002
 21
2130.1970000000001
  0
LINE
  8
_0-0_1
  6
CONTINUOUS
 62
    7
 10
3771.4931999999999
 20
2130.1970000000001
 11
3780.9931000000001
 21
2130.1970000000001
  0
LINE
  8
_0-0_1
  6
CONTINUOUS
 62
    7
 10
3769.9929000000002
 20
2127.1968999999999
 11
3771.4931999999999
 21
2130.1970000000001
  0
LINE
  8
_0-0_1
  6
CONTINUOUS
 62
    7
 10
3782.4931000000006
 20
2127.1968999999999
 11
3780.9931000000001
 21
2130.1970000000001
  0
LINE
  8
_0-0_1
  6
CONTINUOUS
 62
    7
 10
3790.5284999999999
 20
2130.1970000000001
 11
3800.0286999999998
 21
2130.1970000000001
  0
LINE
  8
_0-0_1
  6
CONTINUOUS
 62
    7
 10
3789.0284999999999
 20
2127.1968999999999
 11
3790.5284999999999
 21
2130.1970000000001
  0
LINE
  8
_0-0_1
  6
CONTINUOUS
 62
    7
 10
3801.5286000000006
 20
2127.1968999999999
 11
3800.0286999999998
 21
2130.1970000000001
  0
LINE
  8
_0-0_1
  6
CONTINUOUS
 62
    7
 10
3809.5639999999999
 20
2130.1970000000001
 11
3819.0641999999998
 21
2130.1970000000001
  0
LINE
  8
_0-0_1
  6
CONTINUOUS
 62
    7
 10
3808.0639999999999
 20
2127.1968999999999
 11
3809.5639999999999
 21
2130.1970000000001
  0
LINE
  8
_0-0_1
  6
CONTINUOUS
 62
    7
 10
3820.5641999999998
 20
2127.1968999999999
 11
3819.0641999999998
 21
2130.1970000000001
  0
LINE
  8
_0-0_1
  6
CONTINUOUS
 62
    7
 10
3828.5996
 20
2130.1970000000001
 11
3838.0998
 21
2130.1970000000001
  0
LINE
  8
_0-0_1
  6
CONTINUOUS
 62
    7
 10
3827.0996000000005
 20
2127.1968999999999
 11
3828.5996
 21
2130.1970000000001
  0
LINE
  8
_0-0_1
  6
CONTINUOUS
 62
    7
 10
3839.5996999999998
 20
2127.1968999999999
 11
3838.0998
 21
2130.1970000000001
  0
LINE
  8
_0-0_1
  6
CONTINUOUS
 62
    7
 10
3847.6351
 20
2130.1970000000001
 11
3857.1352999999999
 21
2130.1970000000001
  0
LINE
  8
_0-0_1
  6
CONTINUOUS
 62
    7
 10
3846.1351000000004
 20
2127.1968999999999
 11
3847.6351
 21
2130.1970000000001
  0
LINE
  8
_0-0_1
  6
CONTINUOUS
 62
    7
 10
3858.6352999999999
 20
2127.1968999999999
 11
3857.1352999999999
 21
2130.1970000000001
  0
LINE
  8
_0-0_1
  6
CONTINUOUS
 62
    7
 10
3590.6377000000002
 20
2130.1970000000001
 11
3581.1377000000002
 21
2130.1970000000001
  0
LINE
  8
_0-0_1
  6
CONTINUOUS
 62
    7
 10
3592.1376
 20
2127.1968999999999
 11
3590.6377000000002
 21
2130.1970000000001
  0
LINE
  8
_0-0_1
  6
CONTINUOUS
 62
    7
 10
3579.6377000000002
 20
2127.1968999999999
 11
3581.1377000000002
 21
2130.1970000000001
  0
LINE
  8
_0-0_1
  6
CONTINUOUS
 62
    7
 10
3571.6021000000001
 20
2130.1970000000001
 11
3562.1021999999998
 21
2130.1970000000001
  0
LINE
  8
_0-0_1
  6
CONTINUOUS
 62
    7
 10
3573.1021000000001
 20
2127.1968999999999
 11
3571.6021000000001
 21
2130.1970000000001
  0
LINE
  8
_0-0_1
  6
CONTINUOUS
 62
    7
 10
3560.6021999999994
 20
2127.1968999999999
 11
3562.1021999999998
 21
2130.1970000000001
  0
LINE
  8
_0-0_1
  6
CONTINUOUS
 62
    7
 10
3552.5666000000001
 20
2130.1970000000001
 11
3543.0666000000001
 21
2130.1970000000001
  0
LINE
  8
_0-0_1
  6
CONTINUOUS
 62
    7
 10
3554.0666000000001
 20
2127.1968999999999
 11
3552.5666000000001
 21
2130.1970000000001
  0
LINE
  8
_0-0_1
  6
CONTINUOUS
 62
    7
 10
3541.5666000000001
 20
2127.1968999999999
 11
3543.0666000000001
 21
2130.1970000000001
  0
LINE
  8
_0-0_1
  6
CONTINUOUS
 62
    7
 10
3533.5309999999999
 20
2130.1970000000001
 11
3524.0311000000002
 21
2130.1970000000001
  0
LINE
  8
_0-0_1
  6
CONTINUOUS
 62
    7
 10
3535.0309999999999
 20
2127.1968999999999
 11
3533.5309999999999
 21
2130.1970000000001
  0
LINE
  8
_0-0_1
  6
CONTINUOUS
 62
    7
 10
3522.5311000000002
 20
2127.1968999999999
 11
3524.0311000000002
 21
2130.1970000000001
  0
LINE
  8
_0-0_1
  6
CONTINUOUS
 62
    7
 10
3514.4955
 20
2130.1970000000001
 11
3504.9955
 21
2130.1970000000001
  0
LINE
  8
_0-0_1
  6
CONTINUOUS
 62
    7
 10
3515.9955
 20
2127.1968999999999
 11
3514.4955
 21
2130.1970000000001
  0
LINE
  8
_0-0_1
  6
CONTINUOUS
 62
    7
 10
3503.4955
 20
2127.1968999999999
 11
3504.9955
 21
2130.1970000000001
  0
LINE
  8
_0-0_1
  6
CONTINUOUS
 62
    7
 10
3495.4598999999998
 20
2130.1970000000001
 11
3485.96
 21
2130.1970000000001
  0
LINE
  8
_0-0_1
  6
CONTINUOUS
 62
    7
 10
3496.9598999999998
 20
2127.1968999999999
 11
3495.4598999999998
 21
2130.1970000000001
  0
LINE
  8
_0-0_1
  6
CONTINUOUS
 62
    7
 10
3484.46
 20
2127.1968999999999
 11
3485.96
 21
2130.1970000000001
  0
LINE
  8
_0-0_1
  6
CONTINUOUS
 62
    7
 10
3476.4243999999999
 20
2130.1970000000001
 11
3466.9243999999999
 21
2130.1970000000001
  0
LINE
  8
_0-0_1
  6
CONTINUOUS
 62
    7
 10
3477.9246000000003
 20
2127.1968999999999
 11
3476.4243999999999
 21
2130.1970000000001
  0
LINE
  8
_0-0_1
  6
CONTINUOUS
 62
    7
 10
3465.4245000000001
 20
2127.1968999999999
 11
3466.9243999999999
 21
2130.1970000000001
  0
LINE
  8
_0-0_1
  6
CONTINUOUS
 62
    7
 10
3457.3887999999997
 20
2130.1970000000001
 11
3447.8888999999999
 21
2130.1970000000001
  0
LINE
  8
_0-0_1
  6
CONTINUOUS
 62
    7
 10
3458.8891000000003
 20
2127.1968999999999
 11
3457.3887999999997
 21
2130.1970000000001
  0
LINE
  8
_0-0_1
  6
CONTINUOUS
 62
    7
 10
3446.3888999999999
 20
2127.1968999999999
 11
3447.8888999999999
 21
2130.1970000000001
  0
LINE
  8
_0-0_1
  6
CONTINUOUS
 62
    7
 10
3438.3535999999999
 20
2130.1970000000001
 11
3428.8533000000002
 21
2130.1970000000001
  0
LINE
  8
_0-0_1
  6
CONTINUOUS
 62
    7
 10
3439.8535000000002
 20
2127.1968999999999
 11
3438.3535999999999
 21
2130.1970000000001
  0
LINE
  8
_0-0_1
  6
CONTINUOUS
 62
    7
 10
3427.3534
 20
2127.1968999999999
 11
3428.8533000000002
 21
2130.1970000000001
  0
LINE
  8
_0-0_1
  6
CONTINUOUS
 62
    7
 10
3419.3180000000002
 20
2130.1970000000001
 11
3409.8177999999998
 21
2130.1970000000001
  0
LINE
  8
_0-0_1
  6
CONTINUOUS
 62
    7
 10
3420.8180000000002
 20
2127.1968999999999
 11
3419.3180000000002
 21
2130.1970000000001
  0
LINE
  8
_0-0_1
  6
CONTINUOUS
 62
    7
 10
3408.3177999999998
 20
2127.1968999999999
 11
3409.8177999999998
 21
2130.1970000000001
  0
LINE
  8
_0-0_1
  6
CONTINUOUS
 62
    7
 10
3400.2824999999993
 20
2130.1970000000001
 11
3390.7822999999999
 21
2130.1970000000001
  0
LINE
  8
_0-0_1
  6
CONTINUOUS
 62
    7
 10
3401.7824000000001
 20
2127.1968999999999
 11
3400.2824999999993
 21
2130.1970000000001
  0
LINE
  8
_0-0_1
  6
CONTINUOUS
 62
    7
 10
3389.2822999999999
 20
2127.1968999999999
 11
3390.7822999999999
 21
2130.1970000000001
  0
LINE
  8
_0-0_1
  6
CONTINUOUS
 62
    7
 10
3381.2469000000001
 20
2130.1970000000001
 11
3371.7469999999998
 21
2130.1970000000001
  0
LINE
  8
_0-0_1
  6
CONTINUOUS
 62
    7
 10
3382.7469000000001
 20
2127.1968999999999
 11
3381.2469000000001
 21
2130.1970000000001
  0
LINE
  8
_0-0_1
  6
CONTINUOUS
 62
    7
 10
3370.2467000000001
 20
2127.1968999999999
 11
3371.7469999999998
 21
2130.1970000000001
  0
LINE
  8
_0-0_1
  6
CONTINUOUS
 62
    7
 10
3362.2114000000001
 20
2130.1970000000001
 11
3352.7114000000001
 21
2130.1970000000001
  0
LINE
  8
_0-0_1
  6
CONTINUOUS
 62
    7
 10
3363.7112999999999
 20
2127.1968999999999
 11
3362.2114000000001
 21
2130.1970000000001
  0
LINE
  8
_0-0_1
  6
CONTINUOUS
 62
    7
 10
3351.2112000000002
 20
2127.1968999999999
 11
3352.7114000000001
 21
2130.1970000000001
  0
LINE
  8
_0-0_1
  6
CONTINUOUS
 62
    7
 10
3846.9232000000002
 20
2127.1968999999999
 11
3846.9232000000002
 21
2083.1968999999999
  0
LINE
  8
_0-0_1
  6
CONTINUOUS
 62
    7
 10
3840.9232999999999
 20
2127.1968999999999
 11
3840.9232999999999
 21
2083.1968999999999
  0
LINE
  8
_0-0_1
  6
CONTINUOUS
 62
    7
 10
3832.9232999999999
 20
2127.1968999999999
 11
3832.9232999999999
 21
2115.1968999999999
  0
LINE
  8
_0-0_1
  6
CONTINUOUS
 62
    7
 10
3826.9232000000002
 20
2127.1968999999999
 11
3826.9232000000002
 21
2115.1968999999999
  0
LINE
  8
_0-0_1
  6
CONTINUOUS
 62
    7
 10
3817.9232999999999
 20
2127.1968999999999
 11
3817.9232999999999
 21
2083.1968999999999
  0
LINE
  8
_0-0_1
  6
CONTINUOUS
 62
    7
 10
3811.9232999999995
 20
2127.1968999999999
 11
3811.9232999999995
 21
2083.1968999999999
  0
LINE
  8
_0-0_1
  6
CONTINUOUS
 62
    7
 10
3802.9232000000002
 20
2127.1968999999999
 11
3802.9232000000002
 21
2083.1968999999999
  0
LINE
  8
_0-0_1
  6
CONTINUOUS
 62
    7
 10
3796.9232999999995
 20
2127.1968999999999
 11
3796.9232999999995
 21
2083.1968999999999
  0
LINE
  8
_0-0_1
  6
CONTINUOUS
 62
    7
 10
3787.9232000000002
 20
2127.1968999999999
 11
3787.9232000000002
 21
2083.1968999999999
  0
LINE
  8
_0-0_1
  6
CONTINUOUS
 62
    7
 10
3781.9232999999995
 20
2127.1968999999999
 11
3781.9232999999995
 21
2083.1968999999999
  0
LINE
  8
_0-0_1
  6
CONTINUOUS
 62
    7
 10
3772.9231
 20
2127.1968999999999
 11
3772.9231
 21
2083.1968999999999
  0
LINE
  8
_0-0_1
  6
CONTINUOUS
 62
    7
 10
3766.9232000000002
 20
2127.1968999999999
 11
3766.9232000000002
 21
2083.1968999999999
  0
LINE
  8
_0-0_1
  6
CONTINUOUS
 62
    7
 10
3757.9232999999999
 20
2127.1968999999999
 11
3757.9232999999999
 21
2083.1968999999999
  0
LINE
  8
_0-0_1
  6
CONTINUOUS
 62
    7
 10
3751.9232000000002
 20
2127.1968999999999
 11
3751.9232000000002
 21
2083.1968999999999
  0
LINE
  8
_0-0_1
  6
CONTINUOUS
 62
    7
 10
3742.9232999999999
 20
2127.1968999999999
 11
3742.9232999999999
 21
2083.1968999999999
  0
LINE
  8
_0-0_1
  6
CONTINUOUS
 62
    7
 10
3736.9232999999995
 20
2127.1968999999999
 11
3736.9232999999995
 21
2083.1968999999999
  0
LINE
  8
_0-0_1
  6
CONTINUOUS
 62
    7
 10
3727.9232000000002
 20
2127.1968999999999
 11
3727.9232000000002
 21
2083.1968999999999
  0
LINE
  8
_0-0_1
  6
CONTINUOUS
 62
    7
 10
3721.9232999999995
 20
2127.1968999999999
 11
3721.9232999999995
 21
2083.1968999999999
  0
LINE
  8
_0-0_1
  6
CONTINUOUS
 62
    7
 10
3712.9232000000002
 20
2127.1968999999999
 11
3712.9232000000002
 21
2083.1968999999999
  0
LINE
  8
_0-0_1
  6
CONTINUOUS
 62
    7
 10
3706.9232999999995
 20
2127.1968999999999
 11
3706.9232999999995
 21
2083.1968999999999
  0
LINE
  8
_0-0_1
  6
CONTINUOUS
 62
    7
 10
3697.9231
 20
2127.1968999999999
 11
3697.9231
 21
2083.1968999999999
  0
LINE
  8
_0-0_1
  6
CONTINUOUS
 62
    7
 10
3691.9232000000002
 20
2127.1968999999999
 11
3691.9232000000002
 21
2083.1968999999999
  0
LINE
  8
_0-0_1
  6
CONTINUOUS
 62
    7
 10
3682.9232999999999
 20
2127.1968999999999
 11
3682.9232999999999
 21
2083.1968999999999
  0
LINE
  8
_0-0_1
  6
CONTINUOUS
 62
    7
 10
3676.9232000000002
 20
2127.1968999999999
 11
3676.9232000000002
 21
2083.1968999999999
  0
LINE
  8
_0-0_1
  6
CONTINUOUS
 62
    7
 10
3667.9232999999999
 20
2127.1968999999999
 11
3667.9232999999999
 21
2083.1968999999999
  0
LINE
  8
_0-0_1
  6
CONTINUOUS
 62
    7
 10
3661.9232999999995
 20
2127.1968999999999
 11
3661.9232999999995
 21
2083.1968999999999
  0
LINE
  8
_0-0_1
  6
CONTINUOUS
 62
    7
 10
3652.9232000000002
 20
2127.1968999999999
 11
3652.9232000000002
 21
2083.1968999999999
  0
LINE
  8
_0-0_1
  6
CONTINUOUS
 62
    7
 10
3646.9232999999995
 20
2127.1968999999999
 11
3646.9232999999995
 21
2083.1968999999999
  0
LINE
  8
_0-0_1
  6
CONTINUOUS
 62
    7
 10
3637.9232000000002
 20
2127.1968999999999
 11
3637.9232000000002
 21
2083.1968999999999
  0
LINE
  8
_0-0_1
  6
CONTINUOUS
 62
    7
 10
3631.9232999999995
 20
2127.1968999999999
 11
3631.9232999999995
 21
2083.1968999999999
  0
LINE
  8
_0-0_1
  6
CONTINUOUS
 62
    7
 10
3607.9232999999999
 20
2115.1968999999999
 11
3616.9232000000002
 21
2115.1968999999999
  0
LINE
  8
_0-0_1
  6
CONTINUOUS
 62
    7
 10
3622.9231
 20
2115.1968999999999
 11
3631.9232999999995
 21
2115.1968999999999
  0
LINE
  8
_0-0_1
  6
CONTINUOUS
 62
    7
 10
3637.9232000000002
 20
2115.1968999999999
 11
3646.9232999999995
 21
2115.1968999999999
  0
LINE
  8
_0-0_1
  6
CONTINUOUS
 62
    7
 10
3652.9232000000002
 20
2115.1968999999999
 11
3661.9232999999995
 21
2115.1968999999999
  0
LINE
  8
_0-0_1
  6
CONTINUOUS
 62
    7
 10
3667.9232999999999
 20
2115.1968999999999
 11
3676.9232000000002
 21
2115.1968999999999
  0
LINE
  8
_0-0_1
  6
CONTINUOUS
 62
    7
 10
3682.9232999999999
 20
2115.1968999999999
 11
3691.9232000000002
 21
2115.1968999999999
  0
LINE
  8
_0-0_1
  6
CONTINUOUS
 62
    7
 10
3697.9231
 20
2115.1968999999999
 11
3706.9232999999995
 21
2115.1968999999999
  0
LINE
  8
_0-0_1
  6
CONTINUOUS
 62
    7
 10
3712.9232000000002
 20
2115.1968999999999
 11
3721.9232999999995
 21
2115.1968999999999
  0
LINE
  8
_0-0_1
  6
CONTINUOUS
 62
    7
 10
3727.9232000000002
 20
2115.1968999999999
 11
3736.9232999999995
 21
2115.1968999999999
  0
LINE
  8
_0-0_1
  6
CONTINUOUS
 62
    7
 10
3742.9232999999999
 20
2115.1968999999999
 11
3751.9232000000002
 21
2115.1968999999999
  0
LINE
  8
_0-0_1
  6
CONTINUOUS
 62
    7
 10
3757.9232999999999
 20
2115.1968999999999
 11
3766.9232000000002
 21
2115.1968999999999
  0
LINE
  8
_0-0_1
  6
CONTINUOUS
 62
    7
 10
3772.9231
 20
2115.1968999999999
 11
3781.9232999999995
 21
2115.1968999999999
  0
LINE
  8
_0-0_1
  6
CONTINUOUS
 62
    7
 10
3787.9232000000002
 20
2115.1968999999999
 11
3796.9232999999995
 21
2115.1968999999999
  0
LINE
  8
_0-0_1
  6
CONTINUOUS
 62
    7
 10
3802.9232000000002
 20
2115.1968999999999
 11
3811.9232999999995
 21
2115.1968999999999
  0
LINE
  8
_0-0_1
  6
CONTINUOUS
 62
    7
 10
3817.9232999999999
 20
2115.1968999999999
 11
3840.9232999999999
 21
2115.1968999999999
  0
LINE
  8
_0-0_1
  6
CONTINUOUS
 62
    7
 10
3607.9232999999999
 20
2127.1968999999999
 11
3607.9232999999999
 21
2083.1968999999999
  0
LINE
  8
_0-0_1
  6
CONTINUOUS
 62
    7
 10
3616.9232000000002
 20
2127.1968999999999
 11
3616.9232000000002
 21
2083.1968999999999
  0
LINE
  8
_0-0_1
  6
CONTINUOUS
 62
    7
 10
3622.9231
 20
2127.1968999999999
 11
3622.9231
 21
2083.1968999999999
  0
LINE
  8
_0-0_1
  6
CONTINUOUS
 62
    7
 10
3829.9234000000001
 20
2115.1968999999999
 11
3829.3132000000005
 21
2115.1587999999997
  0
LINE
  8
_0-0_1
  6
CONTINUOUS
 62
    7
 10
3829.3132000000005
 20
2115.1587999999997
 11
3828.7076999999999
 21
2115.0450000000001
  0
LINE
  8
_0-0_1
  6
CONTINUOUS
 62
    7
 10
3828.7076999999999
 20
2115.0450000000001
 11
3828.1116000000002
 21
2114.8561999999997
  0
LINE
  8
_0-0_1
  6
CONTINUOUS
 62
    7
 10
3828.1116000000002
 20
2114.8561999999997
 11
3827.5291000000007
 21
2114.5938000000001
  0
LINE
  8
_0-0_1
  6
CONTINUOUS
 62
    7
 10
3827.5291000000007
 20
2114.5938000000001
 11
3826.9650000000001
 21
2114.2599999999998
  0
LINE
  8
_0-0_1
  6
CONTINUOUS
 62
    7
 10
3826.9650000000001
 20
2114.2599999999998
 11
3826.4233000000004
 21
2113.8570999999997
  0
LINE
  8
_0-0_1
  6
CONTINUOUS
 62
    7
 10
3826.4233000000004
 20
2113.8570999999997
 11
3825.9081999999999
 21
2113.3883999999998
  0
LINE
  8
_0-0_1
  6
CONTINUOUS
 62
    7
 10
3825.9081999999999
 20
2113.3883999999998
 11
3825.4237000000003
 21
2112.8573999999999
  0
LINE
  8
_0-0_1
  6
CONTINUOUS
 62
    7
 10
3825.4237000000003
 20
2112.8573999999999
 11
3824.9735999999994
 21
2112.268
  0
LINE
  8
_0-0_1
  6
CONTINUOUS
 62
    7
 10
3824.9735999999994
 20
2112.268
 11
3824.5608000000002
 21
2111.6247000000003
  0
LINE
  8
_0-0_1
  6
CONTINUOUS
 62
    7
 10
3824.5608000000002
 20
2111.6247000000003
 11
3824.1891999999998
 21
2110.9327000000003
  0
LINE
  8
_0-0_1
  6
CONTINUOUS
 62
    7
 10
3824.1891999999998
 20
2110.9327000000003
 11
3823.8611000000001
 21
2110.1968999999999
  0
LINE
  8
_0-0_1
  6
CONTINUOUS
 62
    7
 10
3823.8611000000001
 20
2110.1968999999999
 11
3823.5790000000002
 21
2109.4232000000002
  0
LINE
  8
_0-0_1
  6
CONTINUOUS
 62
    7
 10
3823.5790000000002
 20
2109.4232000000002
 11
3823.3454000000002
 21
2108.6170999999999
  0
LINE
  8
_0-0_1
  6
CONTINUOUS
 62
    7
 10
3823.3454000000002
 20
2108.6170999999999
 11
3823.1617999999999
 21
2107.7851000000001
  0
LINE
  8
_0-0_1
  6
CONTINUOUS
 62
    7
 10
3823.1617999999999
 20
2107.7851000000001
 11
3823.0297
 21
2106.9333999999999
  0
LINE
  8
_0-0_1
  6
CONTINUOUS
 62
    7
 10
3823.0297
 20
2106.9333999999999
 11
3822.9498000000003
 21
2106.0685000000003
  0
LINE
  8
_0-0_1
  6
CONTINUOUS
 62
    7
 10
3822.9498000000003
 20
2106.0685000000003
 11
3822.9232999999999
 21
2105.1968999999999
  0
LINE
  8
_0-0_1
  6
CONTINUOUS
 62
    7
 10
3822.9232999999999
 20
2105.1968999999999
 11
3822.9498000000003
 21
2104.3253999999997
  0
LINE
  8
_0-0_1
  6
CONTINUOUS
 62
    7
 10
3822.9498000000003
 20
2104.3253999999997
 11
3823.0297
 21
2103.4605000000001
  0
LINE
  8
_0-0_1
  6
CONTINUOUS
 62
    7
 10
3823.0297
 20
2103.4605000000001
 11
3823.1617999999999
 21
2102.6088
  0
LINE
  8
_0-0_1
  6
CONTINUOUS
 62
    7
 10
3823.1617999999999
 20
2102.6088
 11
3823.3454000000002
 21
2101.7768000000001
  0
LINE
  8
_0-0_1
  6
CONTINUOUS
 62
    7
 10
3823.3454000000002
 20
2101.7768000000001
 11
3823.5790000000002
 21
2100.9706999999999
  0
LINE
  8
_0-0_1
  6
CONTINUOUS
 62
    7
 10
3823.5790000000002
 20
2100.9706999999999
 11
3823.8611000000001
 21
2100.1968999999999
  0
LINE
  8
_0-0_1
  6
CONTINUOUS
 62
    7
 10
3823.8611000000001
 20
2100.1968999999999
 11
3824.1891999999998
 21
2099.4611
  0
LINE
  8
_0-0_1
  6
CONTINUOUS
 62
    7
 10
3824.1891999999998
 20
2099.4611
 11
3824.5608000000002
 21
2098.7690000000002
  0
LINE
  8
_0-0_1
  6
CONTINUOUS
 62
    7
 10
3824.5608000000002
 20
2098.7690000000002
 11
3824.9735999999994
 21
2098.1257999999998
  0
LINE
  8
_0-0_1
  6
CONTINUOUS
 62
    7
 10
3824.9735999999994
 20
2098.1257999999998
 11
3825.4237000000003
 21
2097.5365000000002
  0
LINE
  8
_0-0_1
  6
CONTINUOUS
 62
    7
 10
3825.4237000000003
 20
2097.5365000000002
 11
3825.9081999999999
 21
2097.0054
  0
LINE
  8
_0-0_1
  6
CONTINUOUS
 62
    7
 10
3825.9081999999999
 20
2097.0054
 11
3826.4233000000004
 21
2096.5365999999999
  0
LINE
  8
_0-0_1
  6
CONTINUOUS
 62
    7
 10
3826.4233000000004
 20
2096.5365999999999
 11
3826.9650000000001
 21
2096.1338000000001
  0
LINE
  8
_0-0_1
  6
CONTINUOUS
 62
    7
 10
3826.9650000000001
 20
2096.1338000000001
 11
3827.5291000000007
 21
2095.7999999999997
  0
LINE
  8
_0-0_1
  6
CONTINUOUS
 62
    7
 10
3827.5291000000007
 20
2095.7999999999997
 11
3828.1116000000002
 21
2095.5377000000003
  0
LINE
  8
_0-0_1
  6
CONTINUOUS
 62
    7
 10
3828.1116000000002
 20
2095.5377000000003
 11
3828.7076999999999
 21
2095.3487999999998
  0
LINE
  8
_0-0_1
  6
CONTINUOUS
 62
    7
 10
3828.7076999999999
 20
2095.3487999999998
 11
3829.3132000000005
 21
2095.2349999999997
  0
LINE
  8
_0-0_1
  6
CONTINUOUS
 62
    7
 10
3829.3132000000005
 20
2095.2349999999997
 11
3829.9234000000001
 21
2095.1970000000001
  0
LINE
  8
_0-0_1
  6
CONTINUOUS
 62
    7
 10
3829.9234000000001
 20
2095.1970000000001
 11
3830.5333000000001
 21
2095.2349999999997
  0
LINE
  8
_0-0_1
  6
CONTINUOUS
 62
    7
 10
3830.5333000000001
 20
2095.2349999999997
 11
3831.1387999999997
 21
2095.3487999999998
  0
LINE
  8
_0-0_1
  6
CONTINUOUS
 62
    7
 10
3831.1387999999997
 20
2095.3487999999998
 11
3831.7349000000004
 21
2095.5377000000003
  0
LINE
  8
_0-0_1
  6
CONTINUOUS
 62
    7
 10
3831.7349000000004
 20
2095.5377000000003
 11
3832.3173000000002
 21
2095.7999999999997
  0
LINE
  8
_0-0_1
  6
CONTINUOUS
 62
    7
 10
3832.3173000000002
 20
2095.7999999999997
 11
3832.8814999999995
 21
2096.1338000000001
  0
LINE
  8
_0-0_1
  6
CONTINUOUS
 62
    7
 10
3832.8814999999995
 20
2096.1338000000001
 11
3833.4231
 21
2096.5365999999999
  0
LINE
  8
_0-0_1
  6
CONTINUOUS
 62
    7
 10
3833.4231
 20
2096.5365999999999
 11
3833.9382999999998
 21
2097.0054
  0
LINE
  8
_0-0_1
  6
CONTINUOUS
 62
    7
 10
3833.9382999999998
 20
2097.0054
 11
3834.4227999999998
 21
2097.5365000000002
  0
LINE
  8
_0-0_1
  6
CONTINUOUS
 62
    7
 10
3834.4227999999998
 20
2097.5365000000002
 11
3834.8728999999998
 21
2098.1257999999998
  0
LINE
  8
_0-0_1
  6
CONTINUOUS
 62
    7
 10
3834.8728999999998
 20
2098.1257999999998
 11
3835.2856000000002
 21
2098.7690000000002
  0
LINE
  8
_0-0_1
  6
CONTINUOUS
 62
    7
 10
3835.2856000000002
 20
2098.7690000000002
 11
3835.6572999999999
 21
2099.4611
  0
LINE
  8
_0-0_1
  6
CONTINUOUS
 62
    7
 10
3835.6572999999999
 20
2099.4611
 11
3835.9854
 21
2100.1968999999999
  0
LINE
  8
_0-0_1
  6
CONTINUOUS
 62
    7
 10
3835.9854
 20
2100.1968999999999
 11
3836.2674999999999
 21
2100.9706999999999
  0
LINE
  8
_0-0_1
  6
CONTINUOUS
 62
    7
 10
3836.2674999999999
 20
2100.9706999999999
 11
3836.5011
 21
2101.7768000000001
  0
LINE
  8
_0-0_1
  6
CONTINUOUS
 62
    7
 10
3836.5011
 20
2101.7768000000001
 11
3836.6846999999998
 21
2102.6088
  0
LINE
  8
_0-0_1
  6
CONTINUOUS
 62
    7
 10
3836.6846999999998
 20
2102.6088
 11
3836.8168000000005
 21
2103.4605000000001
  0
LINE
  8
_0-0_1
  6
CONTINUOUS
 62
    7
 10
3836.8168000000005
 20
2103.4605000000001
 11
3836.8966999999998
 21
2104.3253999999997
  0
LINE
  8
_0-0_1
  6
CONTINUOUS
 62
    7
 10
3836.8966999999998
 20
2104.3253999999997
 11
3836.9232000000002
 21
2105.1968999999999
  0
LINE
  8
_0-0_1
  6
CONTINUOUS
 62
    7
 10
3836.9232000000002
 20
2105.1968999999999
 11
3836.8966999999998
 21
2106.0685000000003
  0
LINE
  8
_0-0_1
  6
CONTINUOUS
 62
    7
 10
3836.8966999999998
 20
2106.0685000000003
 11
3836.8168000000005
 21
2106.9333999999999
  0
LINE
  8
_0-0_1
  6
CONTINUOUS
 62
    7
 10
3836.8168000000005
 20
2106.9333999999999
 11
3836.6846999999998
 21
2107.7851000000001
  0
LINE
  8
_0-0_1
  6
CONTINUOUS
 62
    7
 10
3836.6846999999998
 20
2107.7851000000001
 11
3836.5011
 21
2108.6170999999999
  0
LINE
  8
_0-0_1
  6
CONTINUOUS
 62
    7
 10
3836.5011
 20
2108.6170999999999
 11
3836.2674999999999
 21
2109.4232000000002
  0
LINE
  8
_0-0_1
  6
CONTINUOUS
 62
    7
 10
3836.2674999999999
 20
2109.4232000000002
 11
3835.9854
 21
2110.1968999999999
  0
LINE
  8
_0-0_1
  6
CONTINUOUS
 62
    7
 10
3835.9854
 20
2110.1968999999999
 11
3835.6572999999999
 21
2110.9327000000003
  0
LINE
  8
_0-0_1
  6
CONTINUOUS
 62
    7
 10
3835.6572999999999
 20
2110.9327000000003
 11
3835.2856000000002
 21
2111.6247000000003
  0
LINE
  8
_0-0_1
  6
CONTINUOUS
 62
    7
 10
3835.2856000000002
 20
2111.6247000000003
 11
3834.8728999999998
 21
2112.268
  0
LINE
  8
_0-0_1
  6
CONTINUOUS
 62
    7
 10
3834.8728999999998
 20
2112.268
 11
3834.4227999999998
 21
2112.8573999999999
  0
LINE
  8
_0-0_1
  6
CONTINUOUS
 62
    7
 10
3834.4227999999998
 20
2112.8573999999999
 11
3833.9382999999998
 21
2113.3883999999998
  0
LINE
  8
_0-0_1
  6
CONTINUOUS
 62
    7
 10
3833.9382999999998
 20
2113.3883999999998
 11
3833.4231
 21
2113.8570999999997
  0
LINE
  8
_0-0_1
  6
CONTINUOUS
 62
    7
 10
3833.4231
 20
2113.8570999999997
 11
3832.8814999999995
 21
2114.2599999999998
  0
LINE
  8
_0-0_1
  6
CONTINUOUS
 62
    7
 10
3832.8814999999995
 20
2114.2599999999998
 11
3832.3173000000002
 21
2114.5938000000001
  0
LINE
  8
_0-0_1
  6
CONTINUOUS
 62
    7
 10
3832.3173000000002
 20
2114.5938000000001
 11
3831.7349000000004
 21
2114.8561999999997
  0
LINE
  8
_0-0_1
  6
CONTINUOUS
 62
    7
 10
3831.7349000000004
 20
2114.8561999999997
 11
3831.1387999999997
 21
2115.0450000000001
  0
LINE
  8
_0-0_1
  6
CONTINUOUS
 62
    7
 10
3831.1387999999997
 20
2115.0450000000001
 11
3830.5333000000001
 21
2115.1587999999997
  0
LINE
  8
_0-0_1
  6
CONTINUOUS
 62
    7
 10
3830.5333000000001
 20
2115.1587999999997
 11
3829.9234000000001
 21
2115.1968999999999
  0
LINE
  8
_0-0_1
  6
CONTINUOUS
 62
    7
 10
3896.4233000000004
 20
2115.1968999999999
 11
3896.4233000000004
 21
2127.1968999999999
  0
LINE
  8
_0-0_1
  6
CONTINUOUS
 62
    7
 10
3894.9232999999999
 20
2130.1970000000001
 11
3894.9232999999999
 21
2118.1968999999999
  0
LINE
  8
_0-0_1
  6
CONTINUOUS
 62
    7
 10
3865.9231
 20
2118.1968999999999
 11
3894.9232999999999
 21
2118.1968999999999
  0
LINE
  8
_0-0_1
  6
CONTINUOUS
 62
    7
 10
3894.9232999999999
 20
2118.1968999999999
 11
3896.4233000000004
 21
2115.1968999999999
  0
LINE
  8
_0-0_1
  6
CONTINUOUS
 62
    7
 10
3865.9231
 20
2118.1968999999999
 11
3865.9231
 21
2130.1970000000001
  0
LINE
  8
_0-0_1
  6
CONTINUOUS
 62
    7
 10
3864.4232000000002
 20
2127.1968999999999
 11
3864.4232000000002
 21
2115.1968999999999
  0
LINE
  8
_0-0_1
  6
CONTINUOUS
 62
    7
 10
3864.4232000000002
 20
2115.1968999999999
 11
3865.9231
 21
2118.1968999999999
  0
LINE
  8
_0-0_1
  6
CONTINUOUS
 62
    7
 10
3864.4232000000002
 20
2127.1968999999999
 11
3865.9231
 21
2130.1970000000001
  0
LINE
  8
_0-0_1
  6
CONTINUOUS
 62
    7
 10
3865.9231
 20
2130.1970000000001
 11
3894.9232999999999
 21
2130.1970000000001
  0
LINE
  8
_0-0_1
  6
CONTINUOUS
 62
    7
 10
3894.9232999999999
 20
2130.1970000000001
 11
3896.4233000000004
 21
2127.1968999999999
  0
LINE
  8
_0-0_1
  6
CONTINUOUS
 62
    7
 10
3864.4232000000002
 20
2127.1968999999999
 11
3604.9234000000001
 21
2127.1968999999999
  0
LINE
  8
_0-0_1
  6
CONTINUOUS
 62
    7
 10
3861.6109999999999
 20
2002.1969999999999
 11
3864.9232000000002
 21
1964.308
  0
LINE
  8
_0-0_1
  6
CONTINUOUS
 62
    7
 10
3896.4233000000004
 20
2127.1968999999999
 11
3913.4232000000002
 21
2127.1968999999999
  0
LINE
  8
_0-0_1
  6
CONTINUOUS
 62
    7
 10
3104.9232000000002
 20
1877.1968999999999
 11
3204.9232999999999
 21
1877.1968999999999
  0
LINE
  8
_0-0_1
  6
CONTINUOUS
 62
    7
 10
3204.9232999999999
 20
1897.1968999999999
 11
3204.9232999999999
 21
1877.1968999999999
  0
LINE
  8
_0-0_1
  6
CONTINUOUS
 62
    7
 10
3244.9232000000002
 20
1897.1968999999999
 11
3244.9232000000002
 21
1837.1968999999999
  0
LINE
  8
_0-0_1
  6
CONTINUOUS
 62
    7
 10
3204.9232999999999
 20
1897.1968999999999
 11
3244.9232000000002
 21
1897.1968999999999
  0
LINE
  8
_0-0_1
  6
CONTINUOUS
 62
    7
 10
3204.9232999999999
 20
1837.1968999999999
 11
3244.9232000000002
 21
1837.1968999999999
  0
LINE
  8
_0-0_1
  6
CONTINUOUS
 62
    7
 10
3204.9232999999999
 20
1857.1968999999999
 11
3204.9232999999999
 21
1837.1968999999999
  0
ARC
  8
_0-0_1
  6
CONTINUOUS
 62
    7
 10
3604.9234000000001
 20
1867.1968999999999
 40
13
 50
270
 51
90
  0
ARC
  8
_0-0_1
  6
CONTINUOUS
 62
    7
 10
3604.9234000000001
 20
1867.1968999999999
 40
10
 50
270
 51
90
  0
ARC
  8
_0-0_1
  6
CONTINUOUS
 62
    7
 10
3604.9234000000001
 20
1867.1968999999999
 40
13
 50
90
 51
270
  0
ARC
  8
_0-0_1
  6
CONTINUOUS
 62
    7
 10
3604.9234000000001
 20
1867.1968999999999
 40
10
 50
90
 51
270
  0
CIRCLE
  8
_0-0_1
  6
CONTINUOUS
 62
    7
 10
3829.9234000000001
 20
2110.6969999999997
 40
4.5
  0
ARC
  8
_0-0_1
  6
CONTINUOUS
 62
    7
 10
3186.1732999999999
 20
1867.1968999999999
 40
21.25
 50
331.92750000000001
 51
28.072478999999984
  0
LINE
  8
_0-0_1
  6
CONTINUOUS
 62
    7
 10
3604.9234000000001
 20
1962.1969999999999
 11
3604.9234000000001
 21
2157.1968999999999
  0
LINE
  8
_0-0_1
  6
CONTINUOUS
 62
    7
 10
3604.9234000000001
 20
1964.308
 11
3604.9234000000001
 21
1382.1969999999999
  0
LINE
  8
_0-0_1
  6
CONTINUOUS
 62
    7
 10
3104.9232000000002
 20
2330.3893410429068
 11
4104.9232999999995
 21
2330.3893410429068
  0
POINT
  8
_0-0_1
 62
    7
 10
3104.9232000000002
 20
2330.3893410429068
  0
POINT
  8
_0-0_1
 62
    7
 10
4104.9232999999995
 20
2330.3893410429068
  0
LINE
  8
_0-0_1
  6
CONTINUOUS
 62
    7
 10
3104.9232000000002
 20
2330.3893410429068
 11
3104.9232000000002
 21
2181.8430761966401
  0
LINE
  8
_0-0_1
  6
CONTINUOUS
 62
    7
 10
4104.9232999999995
 20
2330.3893410429068
 11
4104.9232999999995
 21
2181.8430761966401
  0
LINE
  8
_0-0_1
  6
CONTINUOUS
 62
    7
 10
3104.9232000000002
 20
2276.6516362106859
 11
3224.9232999999999
 21
2276.6516362106859
  0
POINT
  8
_0-0_1
 62
    7
 10
3104.9232000000002
 20
2276.6516362106859
  0
POINT
  8
_0-0_1
 62
    7
 10
3224.9232999999999
 20
2276.6516362106859
  0
LINE
  8
_0-0_1
  6
CONTINUOUS
 62
    7
 10
3104.9232000000002
 20
2276.6516362106859
 11
3104.9232000000002
 21
2181.8430761966401
  0
LINE
  8
_0-0_1
  6
CONTINUOUS
 62
    7
 10
3224.9232999999999
 20
2276.6516362106859
 11
3224.9232999999999
 21
2181.8430761966401
  0
LINE
  8
_0-0_1
  6
CONTINUOUS
 62
    7
 10
3224.9232999999999
 20
2276.6516362106859
 11
3984.9231
 21
2276.6516362106859
  0
POINT
  8
_0-0_1
 62
    7
 10
3984.9231
 20
2276.6516362106859
  0
LINE
  8
_0-0_1
  6
CONTINUOUS
 62
    7
 10
3984.9231
 20
2276.6516362106859
 11
3984.9231
 21
2181.8430761966401
  0
LINE
  8
_0-0_1
  6
CONTINUOUS
 62
    7
 10
3984.9231
 20
2276.6516362106859
 11
4104.9232999999995
 21
2276.6516362106859
  0
POINT
  8
_0-0_1
 62
    7
 10
4104.9232999999995
 20
2276.6516362106859
  0
LINE
  8
_0-0_1
  6
CONTINUOUS
 62
    7
 10
4104.9232999999995
 20
2276.6516362106859
 11
4104.9232999999995
 21
2181.8430761966401
  0
LINE
  8
_0-0_1
  6
CONTINUOUS
 62
    7
 10
3354.9232999999999
 20
2201.114385161829
 11
3859.4231
 21
2201.114385161829
  0
POINT
  8
_0-0_1
 62
    7
 10
3354.9232999999999
 20
2201.114385161829
  0
POINT
  8
_0-0_1
 62
    7
 10
3859.4231
 20
2201.114385161829
  0
LINE
  8
_0-0_1
  6
CONTINUOUS
 62
    7
 10
3354.9232999999999
 20
2201.114385161829
 11
3354.9232999999999
 21
2181.8430761966401
  0
LINE
  8
_0-0_1
  6
CONTINUOUS
 62
    7
 10
3859.4231
 20
2201.114385161829
 11
3859.4231
 21
2181.8430761966401
  0
LINE
  8
_0-0_1
  6
CONTINUOUS
 62
    7
 10
3104.9232000000002
 20
1276.0717462288064
 11
4104.9233000000004
 21
1276.0717462288064
  0
POINT
  8
_0-0_1
 62
    7
 10
3104.9232000000002
 20
1276.0717462288064
  0
POINT
  8
_0-0_1
 62
    7
 10
4104.9233000000004
 20
1276.0717462288064
  0
LINE
  8
_0-0_1
  6
CONTINUOUS
 62
    7
 10
3104.9232000000002
 20
1276.0717462288064
 11
3104.9232000000002
 21
1374.4571414460063
  0
LINE
  8
_0-0_1
  6
CONTINUOUS
 62
    7
 10
4104.9233000000004
 20
1276.0717462288064
 11
4104.9233000000004
 21
1374.4571414460063
  0
LINE
  8
_0-0_1
  6
CONTINUOUS
 62
    7
 10
3104.9232000000002
 20
1338.4112179903809
 11
3204.9232999999999
 21
1338.4112179903809
  0
POINT
  8
_0-0_1
 62
    7
 10
3104.9232000000002
 20
1338.4112179903809
  0
POINT
  8
_0-0_1
 62
    7
 10
3204.9232999999999
 20
1338.4112179903809
  0
LINE
  8
_0-0_1
  6
CONTINUOUS
 62
    7
 10
3104.9232000000002
 20
1338.4112179903809
 11
3104.9232000000002
 21
1374.4571414460063
  0
LINE
  8
_0-0_1
  6
CONTINUOUS
 62
    7
 10
3204.9232999999999
 20
1338.4112179903809
 11
3204.9232999999999
 21
1374.4571414460063
  0
POINT
  8
_0-0_1
 62
    7
 10
4004.9232000000002
 20
1338.4112179903809
  0
LINE
  8
_0-0_1
  6
CONTINUOUS
 62
    7
 10
4004.9232000000002
 20
1338.4112179903809
 11
4004.9232000000002
 21
1374.4571414460063
  0
LINE
  8
_0-0_1
  6
CONTINUOUS
 62
    7
 10
4004.9232000000002
 20
1338.4112179903809
 11
4104.9233000000004
 21
1338.4112179903809
  0
POINT
  8
_0-0_1
 62
    7
 10
4104.9233000000004
 20
1338.4112179903809
  0
LINE
  8
_0-0_1
  6
CONTINUOUS
 62
    7
 10
4104.9233000000004
 20
1338.4112179903809
 11
4104.9233000000004
 21
1374.4571414460063
  0
LINE
  8
_0-0_1
  6
CONTINUOUS
 62
    7
 10
1947.1272251535597
 20
1352.1635486608525
 11
1947.1272251535597
 21
2157.1634186608526
  0
LINE
  8
_0-0_1
  6
CONTINUOUS
 62
    7
 10
1737.1273251535599
 20
1382.1635286608523
 11
1747.1539251535596
 21
1894.9007186608526
  0
LINE
  8
_0-0_1
  6
CONTINUOUS
 62
    7
 10
1788.1323251535593
 20
1991.1583186608527
 11
1887.1273251535599
 21
1892.1635186608526
  0
LINE
  8
_0-0_1
  6
CONTINUOUS
 62
    7
 10
1803.4780251535597
 20
1718.9985186608524
 11
1997.1272251535597
 21
1877.1125186608526
  0
LINE
  8
_0-0_1
  6
CONTINUOUS
 62
    7
 10
2120.9797251535597
 20
2034.5947186608528
 11
2165.0486251535594
 21
2078.6634186608526
  0
LINE
  8
_0-0_1
  6
CONTINUOUS
 62
    7
 10
2123.2535251535596
 20
2008.5842186608525
 11
2182.1271251535595
 21
2067.4578186608524
  0
LINE
  8
_0-0_1
  6
CONTINUOUS
 62
    7
 10
2125.5275251535595
 20
1982.5738186608528
 11
2210.1170251535596
 21
2067.1634186608526
  0
LINE
  8
_0-0_1
  6
CONTINUOUS
 62
    7
 10
2130.1764251535596
 20
1958.9384186608527
 11
2212.1272251535597
 21
2040.8893186608525
  0
LINE
  8
_0-0_1
  6
CONTINUOUS
 62
    7
 10
2138.9188251535593
 20
1939.3966186608527
 11
2212.1272251535597
 21
2012.6049186608525
  0
LINE
  8
_0-0_1
  6
CONTINUOUS
 62
    7
 10
2144.8913251535596
 20
1917.0847186608526
 11
2215.6957251535596
 21
1987.8893186608525
  0
LINE
  8
_0-0_1
  6
CONTINUOUS
 62
    7
 10
2147.1750251535595
 20
1891.0843186608527
 11
2221.3525251535593
 21
1965.2618186608527
  0
LINE
  8
_0-0_1
  6
CONTINUOUS
 62
    7
 10
2147.7175251535596
 20
1863.3425186608524
 11
2222.1272251535597
 21
1937.7522186608526
  0
LINE
  8
_0-0_1
  6
CONTINUOUS
 62
    7
 10
2148.2602251535595
 20
1835.6007186608526
 11
2222.1272251535597
 21
1909.4679186608528
  0
LINE
  8
_0-0_1
  6
CONTINUOUS
 62
    7
 10
2148.8027251535595
 20
1807.8590186608526
 11
2222.1272251535597
 21
1881.1836186608525
  0
LINE
  8
_0-0_1
  6
CONTINUOUS
 62
    7
 10
2149.3452251535596
 20
1780.1173186608526
 11
2222.1272251535597
 21
1852.8994186608525
  0
LINE
  8
_0-0_1
  6
CONTINUOUS
 62
    7
 10
2149.8876251535598
 20
1752.3754186608528
 11
2222.1272251535597
 21
1824.6151186608527
  0
LINE
  8
_0-0_1
  6
CONTINUOUS
 62
    7
 10
2150.4301251535599
 20
1724.6337186608525
 11
2222.1272251535597
 21
1796.3308186608526
  0
LINE
  8
_0-0_1
  6
CONTINUOUS
 62
    7
 10
2150.9726251535594
 20
1696.8919186608525
 11
2222.1272251535597
 21
1768.0465186608524
  0
LINE
  8
_0-0_1
  6
CONTINUOUS
 62
    7
 10
2151.5151251535594
 20
1669.1502186608525
 11
2222.1272251535597
 21
1739.7623186608528
  0
LINE
  8
_0-0_1
  6
CONTINUOUS
 62
    7
 10
2152.0575251535597
 20
1641.4083186608525
 11
2222.1272251535597
 21
1711.4780186608527
  0
LINE
  8
_0-0_1
  6
CONTINUOUS
 62
    7
 10
2152.6000251535597
 20
1613.6666186608525
 11
2222.1272251535597
 21
1683.1937186608525
  0
LINE
  8
_0-0_1
  6
CONTINUOUS
 62
    7
 10
2153.1425251535593
 20
1585.9249586608526
 11
2222.1272251535597
 21
1654.9094186608525
  0
LINE
  8
_0-0_1
  6
CONTINUOUS
 62
    7
 10
2153.6851251535595
 20
1558.1831786608527
 11
2222.1272251535597
 21
1626.6252186608526
  0
LINE
  8
_0-0_1
  6
CONTINUOUS
 62
    7
 10
2154.2277251535597
 20
1530.4413386608526
 11
2222.1272251535597
 21
1598.3409186608526
  0
LINE
  8
_0-0_1
  6
CONTINUOUS
 62
    7
 10
2154.7702251535593
 20
1502.6995686608527
 11
2222.1272251535597
 21
1570.0567686608524
  0
LINE
  8
_0-0_1
  6
CONTINUOUS
 62
    7
 10
2155.3126251535596
 20
1474.9578486608527
 11
2222.1272251535597
 21
1541.7724786608526
  0
LINE
  8
_0-0_1
  6
CONTINUOUS
 62
    7
 10
2155.8551251535596
 20
1447.2160686608527
 11
2222.1272251535597
 21
1513.4881886608525
  0
LINE
  8
_0-0_1
  6
CONTINUOUS
 62
    7
 10
2156.3976251535596
 20
1419.4742986608526
 11
2222.1272251535597
 21
1485.2039586608525
  0
LINE
  8
_0-0_1
  6
CONTINUOUS
 62
    7
 10
2156.9401251535596
 20
1391.7325786608524
 11
2222.1272251535597
 21
1456.9196686608527
  0
LINE
  8
_0-0_1
  6
CONTINUOUS
 62
    7
 10
2175.6555251535597
 20
1382.1635286608523
 11
2222.1272251535597
 21
1428.6353786608527
  0
LINE
  8
_0-0_1
  6
CONTINUOUS
 62
    7
 10
2203.9397251535597
 20
1382.1635286608523
 11
2222.1272251535597
 21
1400.3510886608524
  0
LINE
  8
_0-0_1
  6
CONTINUOUS
 62
    7
 10
2118.7058251535595
 20
2060.6050186608527
 11
2136.7643251535596
 21
2078.6634186608526
  0
LINE
  8
_0-0_1
  6
CONTINUOUS
 62
    7
 10
2222.1272251535597
 20
1382.1635286608523
 11
2157.1272251535597
 21
1382.1635286608523
  0
LINE
  8
_0-0_1
  6
CONTINUOUS
 62
    7
 10
1682.1272251535595
 20
1827.1634186608526
 11
1682.1272251535595
 21
1907.1634186608526
  0
LINE
  8
_0-0_1
  6
CONTINUOUS
 62
    7
 10
1947.1272251535597
 20
2115.1634186608526
 11
1937.1272251535595
 21
2115.1634186608526
  0
LINE
  8
_0-0_1
  6
CONTINUOUS
 62
    7
 10
1937.1272251535595
 20
2115.1634186608526
 11
1737.1273251535599
 21
2127.1634186608526
  0
LINE
  8
_0-0_1
  6
CONTINUOUS
 62
    7
 10
1737.1273251535599
 20
2127.1634186608526
 11
1687.1272251535595
 21
2127.1634186608526
  0
LINE
  8
_0-0_1
  6
CONTINUOUS
 62
    7
 10
1682.1272251535595
 20
2122.1634186608526
 11
1687.1272251535595
 21
2127.1634186608526
  0
LINE
  8
_0-0_1
  6
CONTINUOUS
 62
    7
 10
1747.1272251535595
 20
1877.1125186608526
 11
1747.1272251535595
 21
1892.1635186608526
  0
LINE
  8
_0-0_1
  6
CONTINUOUS
 62
    7
 10
1800.5247251535593
 20
2002.1635186608526
 11
1947.1272251535597
 21
2002.1635186608526
  0
LINE
  8
_0-0_1
  6
CONTINUOUS
 62
    7
 10
2222.1272251535597
 20
1962.1635186608526
 11
2222.1272251535597
 21
1382.1635286608523
  0
LINE
  8
_0-0_1
  6
CONTINUOUS
 62
    7
 10
2212.1272251535597
 20
2002.1635186608526
 11
2222.1272251535597
 21
1962.1635186608526
  0
LINE
  8
_0-0_1
  6
CONTINUOUS
 62
    7
 10
2212.1272251535597
 20
2067.1634186608526
 11
2212.1272251535597
 21
2002.1635186608526
  0
LINE
  8
_0-0_1
  6
CONTINUOUS
 62
    7
 10
1672.1272251535595
 20
1962.1635186608526
 11
1672.1272251535595
 21
1382.1635286608523
  0
LINE
  8
_0-0_1
  6
CONTINUOUS
 62
    7
 10
1682.1272251535595
 20
2002.1635186608526
 11
1672.1272251535595
 21
1962.1635186608526
  0
LINE
  8
_0-0_1
  6
CONTINUOUS
 62
    7
 10
1682.1272251535595
 20
2122.1634186608526
 11
1682.1272251535595
 21
2002.1635186608526
  0
LINE
  8
_0-0_1
  6
CONTINUOUS
 62
    7
 10
1682.1272251535595
 20
1827.1634186608526
 11
1672.1272251535595
 21
1817.1635186608526
  0
LINE
  8
_0-0_1
  6
CONTINUOUS
 62
    7
 10
1682.1272251535595
 20
1907.1634186608526
 11
1672.1272251535595
 21
1917.1634186608526
  0
LINE
  8
_0-0_1
  6
CONTINUOUS
 62
    7
 10
2157.1272251535597
 20
1382.1635286608523
 11
2147.1004251535596
 21
1894.9007186608526
  0
LINE
  8
_0-0_1
  6
CONTINUOUS
 62
    7
 10
1692.1274251535597
 20
1877.1634186608526
 11
1687.1272251535595
 21
1877.1634186608526
  0
LINE
  8
_0-0_1
  6
CONTINUOUS
 62
    7
 10
1692.1274251535597
 20
1857.1634186608526
 11
1687.1272251535595
 21
1857.1634186608526
  0
LINE
  8
_0-0_1
  6
CONTINUOUS
 62
    7
 10
2212.1272251535597
 20
2067.1634186608526
 11
2182.1271251535595
 21
2067.1634186608526
  0
LINE
  8
_0-0_1
  6
CONTINUOUS
 62
    7
 10
2127.1272251535597
 20
1964.2745186608524
 11
2117.1273251535599
 21
2078.6634186608526
  0
LINE
  8
_0-0_1
  6
CONTINUOUS
 62
    7
 10
2157.1272251535597
 20
2127.1634186608526
 11
2182.1271251535595
 21
2127.1634186608526
  0
LINE
  8
_0-0_1
  6
CONTINUOUS
 62
    7
 10
2182.1271251535595
 20
2067.1634186608526
 11
2182.1271251535595
 21
2127.1634186608526
  0
LINE
  8
_0-0_1
  6
CONTINUOUS
 62
    7
 10
2157.1272251535597
 20
2122.6634186608526
 11
2177.6272251535597
 21
2122.6634186608526
  0
LINE
  8
_0-0_1
  6
CONTINUOUS
 62
    7
 10
2157.1272251535597
 20
2127.1634186608526
 11
2157.1272251535597
 21
2122.6634186608526
  0
LINE
  8
_0-0_1
  6
CONTINUOUS
 62
    7
 10
2177.6272251535597
 20
2122.6634186608526
 11
2177.6272251535597
 21
2083.1634186608526
  0
LINE
  8
_0-0_1
  6
CONTINUOUS
 62
    7
 10
2182.1271251535595
 20
2078.6634186608526
 11
2117.1273251535599
 21
2078.6634186608526
  0
LINE
  8
_0-0_1
  6
CONTINUOUS
 62
    7
 10
2177.6272251535597
 20
2083.1634186608526
 11
2117.1273251535599
 21
2083.1634186608526
  0
LINE
  8
_0-0_1
  6
CONTINUOUS
 62
    7
 10
2117.1273251535599
 20
2078.6634186608526
 11
2117.1273251535599
 21
2083.1634186608526
  0
LINE
  8
_0-0_1
  6
CONTINUOUS
 62
    7
 10
1947.1272251535597
 20
1382.1635286608523
 11
1672.1272251535595
 21
1382.1635286608523
  0
LINE
  8
_0-0_1
  6
CONTINUOUS
 62
    7
 10
1732.6272251535597
 20
2122.6634186608526
 11
1690.6628251535597
 21
2122.6634186608526
  0
LINE
  8
_0-0_1
  6
CONTINUOUS
 62
    7
 10
1686.6273251535597
 20
2118.6278186608524
 11
1686.6273251535597
 21
2102.1634186608526
  0
LINE
  8
_0-0_1
  6
CONTINUOUS
 62
    7
 10
1686.6273251535597
 20
2102.1634186608526
 11
1682.1272251535595
 21
2102.1634186608526
  0
LINE
  8
_0-0_1
  6
CONTINUOUS
 62
    7
 10
1732.6272251535597
 20
2127.1634186608526
 11
1732.6272251535597
 21
2078.6634186608526
  0
LINE
  8
_0-0_1
  6
CONTINUOUS
 62
    7
 10
1737.1273251535599
 20
2127.1634186608526
 11
1737.1273251535599
 21
2083.1634186608526
  0
LINE
  8
_0-0_1
  6
CONTINUOUS
 62
    7
 10
1732.6272251535597
 20
2078.6634186608526
 11
1777.1273251535599
 21
2078.6634186608526
  0
LINE
  8
_0-0_1
  6
CONTINUOUS
 62
    7
 10
1737.1273251535599
 20
2083.1634186608526
 11
1777.1273251535599
 21
2083.1634186608526
  0
LINE
  8
_0-0_1
  6
CONTINUOUS
 62
    7
 10
1777.1273251535599
 20
2078.6634186608526
 11
1777.1273251535599
 21
2083.1634186608526
  0
LINE
  8
_0-0_1
  6
CONTINUOUS
 62
    7
 10
1777.1273251535599
 20
2083.1634186608526
 11
1947.1272251535597
 21
2083.1634186608526
  0
LINE
  8
_0-0_1
  6
CONTINUOUS
 62
    7
 10
2137.1272251535597
 20
2118.6635186608528
 11
2153.1272251535597
 21
2118.6635186608528
  0
LINE
  8
_0-0_1
  6
CONTINUOUS
 62
    7
 10
2137.1272251535597
 20
2109.6634186608526
 11
2153.1272251535597
 21
2109.6634186608526
  0
LINE
  8
_0-0_1
  6
CONTINUOUS
 62
    7
 10
2137.1272251535597
 20
2109.6634186608526
 11
2137.1272251535597
 21
2118.6635186608528
  0
LINE
  8
_0-0_1
  6
CONTINUOUS
 62
    7
 10
1777.1273251535599
 20
2078.6634186608526
 11
1767.1274251535597
 21
1964.2745186608524
  0
LINE
  8
_0-0_1
  6
CONTINUOUS
 62
    7
 10
1937.1272251535595
 20
2115.1634186608526
 11
1935.8096251535596
 21
2118.2479186608525
  0
LINE
  8
_0-0_1
  6
CONTINUOUS
 62
    7
 10
1935.8096251535596
 20
2118.2479186608525
 11
1855.9532251535595
 21
2123.0393186608526
  0
LINE
  8
_0-0_1
  6
CONTINUOUS
 62
    7
 10
1855.9532251535595
 20
2123.0393186608526
 11
1854.2763251535596
 21
2120.1345186608528
  0
LINE
  8
_0-0_1
  6
CONTINUOUS
 62
    7
 10
1837.3069251535594
 20
2121.1527186608528
 11
1835.9891251535596
 21
2124.2372186608527
  0
LINE
  8
_0-0_1
  6
CONTINUOUS
 62
    7
 10
1835.9891251535596
 20
2124.2372186608527
 11
1756.1326251535597
 21
2129.0285186608526
  0
LINE
  8
_0-0_1
  6
CONTINUOUS
 62
    7
 10
1756.1326251535597
 20
2129.0285186608526
 11
1754.4557251535593
 21
2126.1238186608525
  0
LINE
  8
_0-0_1
  6
CONTINUOUS
 62
    7
 10
1700.6272251535597
 20
2130.1635186608528
 11
1699.1272251535597
 21
2127.1634186608526
  0
LINE
  8
_0-0_1
  6
CONTINUOUS
 62
    7
 10
1735.6273251535595
 20
2130.1635186608528
 11
1700.6272251535597
 21
2130.1635186608528
  0
LINE
  8
_0-0_1
  6
CONTINUOUS
 62
    7
 10
1735.6273251535595
 20
2130.1635186608528
 11
1737.1273251535599
 21
2127.1634186608526
  0
LINE
  8
_0-0_1
  6
CONTINUOUS
 62
    7
 10
2147.1272251535597
 20
1892.1635186608526
 11
2147.1272251535597
 21
1877.1125186608526
  0
LINE
  8
_0-0_1
  6
CONTINUOUS
 62
    7
 10
1947.1272251535597
 20
2002.1635186608526
 11
2093.7299251535596
 21
2002.1635186608526
  0
LINE
  8
_0-0_1
  6
CONTINUOUS
 62
    7
 10
1947.1272251535597
 20
2083.1634186608526
 11
2117.1273251535599
 21
2083.1634186608526
  0
LINE
  8
_0-0_1
  6
CONTINUOUS
 62
    7
 10
1947.1272251535597
 20
2115.0735186608526
 11
2148.6274251535597
 21
2127.1634186608526
  0
LINE
  8
_0-0_1
  6
CONTINUOUS
 62
    7
 10
2153.1272251535597
 20
2127.1634186608526
 11
2153.1272251535597
 21
2083.1634186608526
  0
LINE
  8
_0-0_1
  6
CONTINUOUS
 62
    7
 10
2148.6274251535597
 20
2127.1634186608526
 11
2148.6274251535597
 21
2083.1634186608526
  0
LINE
  8
_0-0_1
  6
CONTINUOUS
 62
    7
 10
2153.1272251535597
 20
2127.1634186608526
 11
2148.6274251535597
 21
2127.1634186608526
  0
LINE
  8
_0-0_1
  6
CONTINUOUS
 62
    7
 10
2153.1272251535597
 20
2118.6635186608528
 11
2157.1272251535597
 21
2118.6635186608528
  0
LINE
  8
_0-0_1
  6
CONTINUOUS
 62
    7
 10
2153.1272251535597
 20
2109.6634186608526
 11
2157.1272251535597
 21
2109.6634186608526
  0
LINE
  8
_0-0_1
  6
CONTINUOUS
 62
    7
 10
2157.1272251535597
 20
2122.6634186608526
 11
2157.1272251535597
 21
2083.1634186608526
  0
LINE
  8
_0-0_1
  6
CONTINUOUS
 62
    7
 10
2157.1272251535597
 20
1382.1635286608523
 11
1947.1272251535597
 21
1382.1635286608523
  0
ARC
  8
_0-0_1
  6
CONTINUOUS
 62
    7
 10
2007.1272251535597
 20
1892.1635186608526
 40
139.99997999999999
 50
0
 51
31.002700000000001
  0
ARC
  8
_0-0_1
  6
CONTINUOUS
 62
    7
 10
1997.1272251535597
 20
1877.1125186608526
 40
250
 50
180
 51
258.46301
  0
ARC
  8
_0-0_1
  6
CONTINUOUS
 62
    7
 10
1887.1273251535599
 20
1892.1635186608526
 40
139.99997999999999
 50
128.21317999999999
 51
180
  0
ARC
  8
_0-0_1
  6
CONTINUOUS
 62
    7
 10
1692.1274251535597
 20
1867.1634186608526
 40
10
 50
270
 51
90
  0
ARC
  8
_0-0_1
  6
CONTINUOUS
 62
    7
 10
1687.1272251535595
 20
1852.1635186608526
 40
5
 50
90
 51
180
  0
ARC
  8
_0-0_1
  6
CONTINUOUS
 62
    7
 10
1687.1272251535595
 20
1882.1634186608526
 40
5
 50
180
 51
270
  0
ARC
  8
_0-0_1
  6
CONTINUOUS
 62
    7
 10
1690.6628251535597
 20
2118.6278186608524
 40
4.0355340000000002
 50
90
 51
180
  0
ARC
  8
_0-0_1
  6
CONTINUOUS
 62
    7
 10
1897.1272251535595
 20
1877.1125186608526
 40
250
 50
281.53694000000007
 51
0.0000000000000508
  0
ARC
  8
_0-0_1
  6
CONTINUOUS
 62
    7
 10
2007.1272251535597
 20
1892.1635186608526
 40
139.99997999999999
 50
31.002700000000001
 51
51.786772999999997
  0
CIRCLE
  8
_0-0_1
  6
CONTINUOUS
 62
    7
 10
1997.1272251535597
 20
2115.0735186608526
 40
3.0000000000000004
  0
CIRCLE
  8
_0-0_1
  6
CONTINUOUS
 62
    7
 10
2097.1272251535597
 20
2121.0734186608524
 40
3.0000000000000004
  0
LINE
  8
_0-0_1
  6
CONTINUOUS
 62
    7
 10
1682.1272251535595
 20
2330.3893410429068
 11
2210.1170251535596
 21
2330.3893410429068
  0
POINT
  8
_0-0_1
 62
    7
 10
1682.1272251535595
 20
2330.3893410429068
  0
POINT
  8
_0-0_1
 62
    7
 10
2210.1170251535596
 20
2330.3893410429068
  0
LINE
  8
_0-0_1
  6
CONTINUOUS
 62
    7
 10
1682.1272251535595
 20
2330.3893410429068
 11
1682.1272251535595
 21
2181.8430761966401
  0
LINE
  8
_0-0_1
  6
CONTINUOUS
 62
    7
 10
2210.1170251535596
 20
2330.3893410429068
 11
2210.1170251535596
 21
2181.8430761966401
  0
LINE
  8
_0-0_1
  6
CONTINUOUS
 62
    7
 10
1682.1272251535595
 20
2274.7360645172007
 11
1732.6272251535597
 21
2274.7360645172007
  0
POINT
  8
_0-0_1
 62
    7
 10
1682.1272251535595
 20
2274.7360645172007
  0
POINT
  8
_0-0_1
 62
    7
 10
1732.6272251535597
 20
2274.7360645172007
  0
LINE
  8
_0-0_1
  6
CONTINUOUS
 62
    7
 10
1682.1272251535595
 20
2274.7360645172007
 11
1682.1272251535595
 21
2181.8430761966401
  0
LINE
  8
_0-0_1
  6
CONTINUOUS
 62
    7
 10
1732.6272251535597
 20
2274.7360645172007
 11
1732.6272251535597
 21
2181.8430761966401
  0
LINE
  8
_0-0_1
  6
CONTINUOUS
 62
    7
 10
1732.6272251535597
 20
2274.7360645172007
 11
2157.1272251535597
 21
2274.7360645172007
  0
POINT
  8
_0-0_1
 62
    7
 10
2157.1272251535597
 20
2274.7360645172007
  0
LINE
  8
_0-0_1
  6
CONTINUOUS
 62
    7
 10
2157.1272251535597
 20
2274.7360645172007
 11
2157.1272251535597
 21
2181.8430761966401
  0
LINE
  8
_0-0_1
  6
CONTINUOUS
 62
    7
 10
2157.1272251535597
 20
2274.7360645172007
 11
2210.1170251535596
 21
2274.7360645172007
  0
POINT
  8
_0-0_1
 62
    7
 10
2210.1170251535596
 20
2274.7360645172007
  0
LINE
  8
_0-0_1
  6
CONTINUOUS
 62
    7
 10
2210.1170251535596
 20
2274.7360645172007
 11
2210.1170251535596
 21
2181.8430761966401
  0
LINE
  8
_0-0_1
  6
CONTINUOUS
 62
    7
 10
1737.1273251535599
 20
2220.8143241234129
 11
2148.6274251535597
 21
2220.8143241234129
  0
POINT
  8
_0-0_1
 62
    7
 10
1737.1273251535599
 20
2220.8143241234129
  0
POINT
  8
_0-0_1
 62
    7
 10
2148.6274251535597
 20
2220.8143241234129
  0
LINE
  8
_0-0_1
  6
CONTINUOUS
 62
    7
 10
1737.1273251535599
 20
2220.8143241234129
 11
1737.1273251535599
 21
2181.8430761966401
  0
LINE
  8
_0-0_1
  6
CONTINUOUS
 62
    7
 10
2148.6274251535597
 20
2220.8143241234129
 11
2148.6274251535597
 21
2181.8430761966401
  0
LINE
  8
_0-0_1
  6
CONTINUOUS
 62
    7
 10
1672.1272251535595
 20
1246.5017766311375
 11
2222.1272251535597
 21
1246.5017766311375
  0
POINT
  8
_0-0_1
 62
    7
 10
1672.1272251535595
 20
1246.5017766311375
  0
POINT
  8
_0-0_1
 62
    7
 10
2222.1272251535597
 20
1246.5017766311375
  0
LINE
  8
_0-0_1
  6
CONTINUOUS
 62
    7
 10
1672.1272251535595
 20
1246.5017766311375
 11
1672.1272251535595
 21
1364.1091318441177
  0
LINE
  8
_0-0_1
  6
CONTINUOUS
 62
    7
 10
2222.1272251535597
 20
1246.5017766311375
 11
2222.1272251535597
 21
1364.1091318441177
  0
LINE
  8
_0-0_1
  6
CONTINUOUS
 62
    7
 10
1672.1272251535595
 20
1321.988520075424
 11
1737.1273251535599
 21
1321.988520075424
  0
POINT
  8
_0-0_1
 62
    7
 10
1672.1272251535595
 20
1321.988520075424
  0
POINT
  8
_0-0_1
 62
    7
 10
1737.1273251535599
 20
1321.988520075424
  0
LINE
  8
_0-0_1
  6
CONTINUOUS
 62
    7
 10
1672.1272251535595
 20
1321.988520075424
 11
1672.1272251535595
 21
1364.1091318441177
  0
LINE
  8
_0-0_1
  6
CONTINUOUS
 62
    7
 10
1737.1273251535599
 20
1321.988520075424
 11
1737.1273251535599
 21
1364.1091318441177
  0
POINT
  8
_0-0_1
 62
    7
 10
2157.1272251535597
 20
1321.988520075424
  0
LINE
  8
_0-0_1
  6
CONTINUOUS
 62
    7
 10
2157.1272251535597
 20
1321.988520075424
 11
2157.1272251535597
 21
1364.1091318441177
  0
LINE
  8
_0-0_1
  6
CONTINUOUS
 62
    7
 10
2157.1272251535597
 20
1321.988520075424
 11
2222.1272251535597
 21
1321.988520075424
  0
POINT
  8
_0-0_1
 62
    7
 10
2222.1272251535597
 20
1321.988520075424
  0
LINE
  8
_0-0_1
  6
CONTINUOUS
 62
    7
 10
2222.1272251535597
 20
1321.988520075424
 11
2222.1272251535597
 21
1364.1091318441177
  0
LINE
  8
_0-0_1
  6
CONTINUOUS
 62
    7
 10
1425.9764586280346
 20
2127.1634186608526
 11
1425.9764586280346
 21
1382.1635286608523
  0
POINT
  8
_0-0_1
 62
    7
 10
1425.9764586280346
 20
2127.1634186608526
  0
POINT
  8
_0-0_1
 62
    7
 10
1425.9764586280346
 20
1382.1635286608523
  0
LINE
  8
_0-0_1
  6
CONTINUOUS
 62
    7
 10
1425.9764586280346
 20
2127.1634186608526
 11
1621.3577542272233
 21
2127.1634186608521
  0
LINE
  8
_0-0_1
  6
CONTINUOUS
 62
    7
 10
1425.9764586280346
 20
1382.1635286608523
 11
1621.3577542272233
 21
1382.1635286608523
  0
LINE
  8
_0-0_1
  6
CONTINUOUS
 62
    7
 10
1522.8670920234467
 20
2127.1634186608526
 11
1522.8670920234467
 21
2002.1635493522056
  0
POINT
  8
_0-0_1
 62
    7
 10
1522.8670920234467
 20
2127.1634186608526
  0
POINT
  8
_0-0_1
 62
    7
 10
1522.8670920234467
 20
2002.1635493522056
  0
LINE
  8
_0-0_1
  6
CONTINUOUS
 62
    7
 10
1522.8670920234467
 20
2127.1634186608526
 11
1621.3577542272233
 21
2127.1634186608526
  0
LINE
  8
_0-0_1
  6
CONTINUOUS
 62
    7
 10
1522.8670920234467
 20
2002.1635493522056
 11
1621.3577542272233
 21
2002.1635493522056
  0
LINE
  8
_0-0_1
  6
CONTINUOUS
 62
    7
 10
1522.8670920234467
 20
2002.1635493522056
 11
1522.8670920234467
 21
1632.1635443825346
  0
POINT
  8
_0-0_1
 62
    7
 10
1522.8670920234467
 20
1632.1635443825346
  0
LINE
  8
_0-0_1
  6
CONTINUOUS
 62
    7
 10
1522.8670920234467
 20
1632.1635443825346
 11
1621.3577542272233
 21
1632.1635443825346
  0
LINE
  8
_0-0_1
  6
CONTINUOUS
 62
    7
 10
1522.8670920234467
 20
1632.1635443825346
 11
1522.8670920234467
 21
1382.1635286608523
  0
POINT
  8
_0-0_1
 62
    7
 10
1522.8670920234467
 20
1382.1635286608523
  0
LINE
  8
_0-0_1
  6
CONTINUOUS
 62
    7
 10
1522.8670920234467
 20
1382.1635286608523
 11
1621.3577542272233
 21
1382.1635286608523
  0
LINE
  8
_0-0_1
  6
CONTINUOUS
 62
    7
 10
1614.7993877805097
 20
2127.1634186608526
 11
1614.7993877805097
 21
2122.1634186608526
  0
POINT
  8
_0-0_1
 62
    7
 10
1614.7993877805097
 20
2127.1634186608526
  0
POINT
  8
_0-0_1
 62
    7
 10
1614.7993877805097
 20
2122.1634186608526
  0
LINE
  8
_0-0_1
  6
CONTINUOUS
 62
    7
 10
1614.7993877805097
 20
2127.1634186608526
 11
1621.3577542272233
 21
2127.1634186608526
  0
LINE
  8
_0-0_1
  6
CONTINUOUS
 62
    7
 10
1614.7993877805097
 20
2122.1634186608526
 11
1621.3577542272233
 21
2122.1634186608526
  0
LINE
  8
_0-0_1
  6
CONTINUOUS
 62
    7
 10
2414.9641071313276
 20
2127.1634186608526
 11
2414.9641071313276
 21
2002.1635186608526
  0
POINT
  8
_0-0_1
 62
    7
 10
2414.9641071313276
 20
2127.1634186608526
  0
POINT
  8
_0-0_1
 62
    7
 10
2414.9641071313276
 20
2002.1635186608526
  0
LINE
  8
_0-0_1
  6
CONTINUOUS
 62
    7
 10
2414.9641071313276
 20
2127.1634186608526
 11
2235.4896294074124
 21
2127.1634186608526
  0
LINE
  8
_0-0_1
  6
CONTINUOUS
 62
    7
 10
2414.9641071313276
 20
2002.1635186608526
 11
2235.4896294074124
 21
2002.1635186608526
  0
LINE
  8
_0-0_1
  6
CONTINUOUS
 62
    7
 10
2414.9641071313276
 20
2002.1635186608526
 11
2414.9641071313276
 21
1965.2618186608524
  0
POINT
  8
_0-0_1
 62
    7
 10
2414.9641071313276
 20
1965.2618186608524
  0
LINE
  8
_0-0_1
  6
CONTINUOUS
 62
    7
 10
2414.9641071313276
 20
1965.2618186608524
 11
2235.4896294074124
 21
1965.2618186608527
  0
LINE
  8
_0-0_1
  6
CONTINUOUS
 62
    7
 10
2414.9641071313276
 20
1965.2618186608524
 11
2414.9641071313276
 21
1382.1635286608523
  0
POINT
  8
_0-0_1
 62
    7
 10
2414.9641071313276
 20
1382.1635286608523
  0
LINE
  8
_0-0_1
  6
CONTINUOUS
 62
    7
 10
2414.9641071313276
 20
1382.1635286608523
 11
2235.4896294074124
 21
1382.1635286608523
  0
LINE
  8
_0-0_1
  6
CONTINUOUS
 62
    7
 10
2266.4335048770536
 20
2127.1634186608521
 11
2266.4335048770536
 21
2067.1634186608521
  0
POINT
  8
_0-0_1
 62
    7
 10
2266.4335048770536
 20
2127.1634186608521
  0
POINT
  8
_0-0_1
 62
    7
 10
2266.4335048770536
 20
2067.1634186608521
  0
LINE
  8
_0-0_1
  6
CONTINUOUS
 62
    7
 10
2266.4335048770536
 20
2127.1634186608521
 11
2235.4896294074124
 21
2127.1634186608521
  0
LINE
  8
_0-0_1
  6
CONTINUOUS
 62
    7
 10
2266.4335048770536
 20
2067.1634186608521
 11
2235.4896294074124
 21
2067.1634186608521
  0
LINE
  8
_0-0_1
  6
CONTINUOUS
 62
    7
 10
2182.1271251535595
 20
2219.4427182274076
 11
2210.1170251535596
 21
2219.4427182274076
  0
POINT
  8
_0-0_1
 62
    7
 10
2182.1271251535595
 20
2219.4427182274076
  0
POINT
  8
_0-0_1
 62
    7
 10
2210.1170251535596
 20
2219.4427182274076
  0
LINE
  8
_0-0_1
  6
CONTINUOUS
 62
    7
 10
2182.1271251535595
 20
2219.4427182274076
 11
2182.1271251535595
 21
2181.8430761966401
  0
LINE
  8
_0-0_1
  6
CONTINUOUS
 62
    7
 10
2210.1170251535596
 20
2219.4427182274076
 11
2210.1170251535596
 21
2181.8430761966401
  0
LINE
  8
_0-0_1
  6
CONTINUOUS
 62
    7
 10
1735.6300459096537
 20
2156.8879533785539
 11
1835.4505371819987
 21
2150.8988364029306
  0
LINE
  8
_0-0_1
  6
CONTINUOUS
 62
    7
 10
2150.1247043974654
 20
2156.8879533785539
 11
2050.3042131251204
 21
2150.8988364029306
  0
LINE
  8
_0-0_1
  6
CONTINUOUS
 62
    7
 10
1735.6300459096537
 20
2156.8879533785539
 11
1835.4505371819987
 21
2150.8988364029306
  0
LINE
  8
_0-0_1
  6
CONTINUOUS
 62
    7
 10
1835.4505371819987
 20
2150.8988364029306
 11
1806.0597507671609
 21
2144.8837159621248
  0
LINE
  8
_0-0_1
  6
CONTINUOUS
 62
    7
 10
1835.4505371819987
 20
2150.8988364029306
 11
1806.989809289144
 21
2160.3849825017887
  0
LINE
  8
_0-0_1
  6
CONTINUOUS
 62
    7
 10
2150.1247043974654
 20
2156.8879533785539
 11
2050.3042131251204
 21
2150.8988364029306
  0
LINE
  8
_0-0_1
  6
CONTINUOUS
 62
    7
 10
2050.3042131251204
 20
2150.8988364029306
 11
2078.7649410179752
 21
2160.3849825017887
  0
LINE
  8
_0-0_1
  6
CONTINUOUS
 62
    7
 10
2050.3042131251204
 20
2150.8988364029306
 11
2079.6949995399582
 21
2144.8837159621248
  0
LINE
  8
_0-0_1
  6
CONTINUOUS
 62
    7
 10
1747.1637318063918
 20
1872.8401711870913
 11
2147.1272251535593
 21
1872.8401711870913
  0
POINT
  8
_0-0_1
 62
    7
 10
1747.1637318063918
 20
1872.8401711870913
  0
POINT
  8
_0-0_1
 62
    7
 10
2147.1272251535593
 20
1872.8401711870913
  0
LINE
  8
_0-0_1
  6
CONTINUOUS
 62
    7
 10
1747.1637318063918
 20
1872.8401711870913
 11
1747.1637318063918
 21
1849.5108437617896
  0
LINE
  8
_0-0_1
  6
CONTINUOUS
 62
    7
 10
2147.1272251535593
 20
1872.8401711870913
 11
2147.1272251535593
 21
1849.5108437617896
  0
TEXT
  8
_0-0_1
 62
    7
 10
1517.8670920234467
 20
1798.4135468673703
 40
30
 41
1
 50
90
  1
475
  0
TEXT
  8
_0-0_1
 62
    7
 10
1689.9720460655667
 20
1323.8139543185036
 40
30
 41
1
 50
0
  1
60
  0
TEXT
  8
_0-0_1
 62
    7
 10
2169.2221014899701
 20
1322.3121354374352
 40
30
 41
1
 50
0
  1
60
  0
TEXT
  8
_0-0_1
 62
    7
 10
3136.1732499999998
 20
1343.4112179903809
 40
30
 41
1
 50
0
  1
100
  0
TEXT
  8
_0-0_1
 62
    7
 10
4036.1732500000007
 20
1343.4112179903809
 40
30
 41
1
 50
0
  1
100
  0
TEXT
  8
_0-0_1
 62
    7
 10
1420.9764586280346
 20
1735.9134736608526
 40
30
 41
1
 50
90
  1
830
  0
TEXT
  8
_0-0_1
 62
    7
 10
2409.9641071313276
 20
1654.9626736608525
 40
30
 41
1
 50
90
  1
695
  0
LINE
  8
_0-0_1
  6
CONTINUOUS
 62
    7
 10
1788.1323251535593
 20
1991.1583186608527
 11
1887.1273251535599
 21
1892.1635186608526
  0
LINE
  8
_0-0_1
  6
CONTINUOUS
 62
    7
 10
1788.1323251535593
 20
1991.1583186608527
 11
1814.1131024193751
 21
1976.1583449054065
  0
LINE
  8
_0-0_1
  6
CONTINUOUS
 62
    7
 10
1788.1323251535593
 20
1991.1583186608527
 11
1803.1323513980979
 21
1965.1775716996283
  0
LINE
  8
_0-0_1
  6
CONTINUOUS
 62
    7
 10
1803.4780251535597
 20
1718.9985186608524
 11
1997.1272251535597
 21
1877.1125186608526
  0
LINE
  8
_0-0_1
  6
CONTINUOUS
 62
    7
 10
1803.4780251535597
 20
1718.9985186608524
 11
1821.0133600703398
 21
1743.3400886462982
  0
LINE
  8
_0-0_1
  6
CONTINUOUS
 62
    7
 10
1803.4780251535597
 20
1718.9985186608524
 11
1830.8348556480826
 21
1731.3112691778551
  0
TEXT
  8
_0-0_1
 62
    7
 10
1289.6938775510205
 20
945
 40
40
 41
1
 50
0
  1
名称
  0
TEXT
  8
_0-0_1
 62
    7
 10
1510.1062057476051
 20
942.39622379564071
 40
40
 41
1
 50
0
  1
クリーン深型側溝　300×500VAM
  0
TEXT
  8
_0-0_1
 62
    7
 10
2239.4021588227129
 20
941.35585866999872
 40
40
 41
1
 50
0
  1
分類
  0
TEXT
  8
_0-0_1
 62
    7
 10
2389.7767198625074
 20
941.19330161911694
 40
40
 41
1
 50
0
  1
街路集水桝ﾀｲﾌﾟ
  0
TEXT
  8
_0-0_1
 62
    7
 10
2802.7645188450742
 20
942.78171623058824
 40
40
 41
1
 50
0
  1
図番
  0
TEXT
  8
_0-0_1
 62
    7
 10
4055.1707106673844
 20
945.90675241080407
 40
40
 41
1
 50
0
  1
岩城ブロック工業株式会社
  0
TEXT
  8
_0-0_1
 62
    7
 10
3652.3085580017168
 20
943.25051843718438
 40
40
 41
1
 50
0
  1
342㎏
  0
TEXT
  8
_0-0_1
 62
    7
 10
3360.1228209035407
 20
943.25051843718438
 40
40
 41
1
 50
0
  1
参考重量
  0
LINE
  8
_0-0_1
  6
CONTINUOUS
 62
    7
 10
3828.5054115851626
 20
1013.3049000000001
 11
3828.5054115851626
 21
913.30484999999999
  0
TEXT
  8
_0-0_1
 62
    7
 10
1620.6578947368421
 20
2482.2368421052629
 40
50
 41
1
 50
0
  1
断面図
  0
TEXT
  8
_0-0_1
 62
    7
 10
3016.0526315789475
 20
2482.2368421052629
 40
50
 41
1
 50
0
  1
側面図
  0
LINE
  8
_0-0_1
  6
CONTINUOUS
 62
    7
 10
3845.2446343092915
 20
2864.8403363649932
 11
3845.2446343092915
 21
2757.3403363649932
  0
LINE
  8
_0-0_1
  6
CONTINUOUS
 62
    7
 10
3349.2446343092925
 20
3077.340236364993
 11
3349.2446343092925
 21
2657.3403363649932
  0
LINE
  8
_0-0_1
  6
CONTINUOUS
 62
    7
 10
3849.2446343092925
 20
3077.340236364993
 11
3849.2446343092925
 21
2657.3403363649932
  0
LINE
  8
_0-0_1
  6
CONTINUOUS
 62
    7
 10
3171.0813343092918
 20
2680.3389363649931
 11
3173.9546343092916
 21
2677.8488363649931
  0
LINE
  8
_0-0_1
  6
CONTINUOUS
 62
    7
 10
3173.9546343092916
 20
2677.8488363649931
 11
3178.4006343092915
 21
2675.4547363649931
  0
LINE
  8
_0-0_1
  6
CONTINUOUS
 62
    7
 10
3178.4006343092915
 20
2675.4547363649931
 11
3181.9028343092918
 21
2674.3404363649934
  0
LINE
  8
_0-0_1
  6
CONTINUOUS
 62
    7
 10
3164.4645343092911
 20
2680.636136364993
 11
3165.3048343092923
 21
2678.5955363649928
  0
LINE
  8
_0-0_1
  6
CONTINUOUS
 62
    7
 10
3165.3048343092923
 20
2678.5955363649928
 11
3165.9890343092916
 21
2676.5434363649933
  0
LINE
  8
_0-0_1
  6
CONTINUOUS
 62
    7
 10
3165.9890343092916
 20
2676.5434363649933
 11
3165.9890343092916
 21
2675.1755363649931
  0
LINE
  8
_0-0_1
  6
CONTINUOUS
 62
    7
 10
3115.9883343092915
 20
2695.475636364994
 11
3111.8645343092912
 21
2693.1559363649931
  0
LINE
  8
_0-0_1
  6
CONTINUOUS
 62
    7
 10
3111.8645343092912
 20
2693.1559363649931
 11
3110.154434309291
 21
2691.7880363649929
  0
LINE
  8
_0-0_1
  6
CONTINUOUS
 62
    7
 10
3110.154434309291
 20
2691.7880363649929
 11
3107.744634309292
 21
2686.1650363649933
  0
LINE
  8
_0-0_1
  6
CONTINUOUS
 62
    7
 10
3118.2133343092914
 20
2701.9506363649934
 11
3115.2178343092914
 21
2700.9087363649933
  0
LINE
  8
_0-0_1
  6
CONTINUOUS
 62
    7
 10
3115.2178343092914
 20
2700.9087363649933
 11
3110.7718343092915
 21
2699.5406363649936
  0
LINE
  8
_0-0_1
  6
CONTINUOUS
 62
    7
 10
3110.7718343092915
 20
2699.5406363649936
 11
3108.0356343092908
 21
2699.8827363649934
  0
LINE
  8
_0-0_1
  6
CONTINUOUS
 62
    7
 10
3108.0356343092908
 20
2699.8827363649934
 11
3107.744634309292
 21
2700.0863363649933
  0
LINE
  8
_0-0_1
  6
CONTINUOUS
 62
    7
 10
3131.3697343092913
 20
2748.4382363649934
 11
3127.6618343092914
 21
2752.4989363649929
  0
LINE
  8
_0-0_1
  6
CONTINUOUS
 62
    7
 10
3127.6618343092914
 20
2752.4989363649929
 11
3123.5578343092911
 21
2754.8932363649928
  0
LINE
  8
_0-0_1
  6
CONTINUOUS
 62
    7
 10
3123.5578343092911
 20
2754.8932363649928
 11
3119.1118343092917
 21
2756.6030363649943
  0
LINE
  8
_0-0_1
  6
CONTINUOUS
 62
    7
 10
3116.8331343092914
 20
2757.3403363649932
 11
3119.1118343092917
 21
2756.6030363649943
  0
LINE
  8
_0-0_1
  6
CONTINUOUS
 62
    7
 10
3133.9626343092914
 20
2757.3403363649932
 11
3133.9626343092914
 21
2755.1109363649939
  0
LINE
  8
_0-0_1
  6
CONTINUOUS
 62
    7
 10
3133.9626343092914
 20
2755.1109363649939
 11
3135.0835343092913
 21
2751.8727363649937
  0
LINE
  8
_0-0_1
  6
CONTINUOUS
 62
    7
 10
3190.7446343092915
 20
2745.4954363649931
 11
3188.8304343092914
 21
2743.6876363649931
  0
LINE
  8
_0-0_1
  6
CONTINUOUS
 62
    7
 10
3188.8304343092914
 20
2743.6876363649931
 11
3184.0424343092909
 21
2741.6356363649938
  0
LINE
  8
_0-0_1
  6
CONTINUOUS
 62
    7
 10
3184.0424343092909
 20
2741.6356363649938
 11
3180.417934309291
 21
2740.1529363649934
  0
LINE
  8
_0-0_1
  6
CONTINUOUS
 62
    7
 10
3190.7446343092915
 20
2733.0378363649934
 11
3189.7593343092913
 21
2733.8259363649931
  0
LINE
  8
_0-0_1
  6
CONTINUOUS
 62
    7
 10
3189.7593343092913
 20
2733.8259363649931
 11
3187.365334309291
 21
2735.1940363649928
  0
LINE
  8
_0-0_1
  6
CONTINUOUS
 62
    7
 10
3187.365334309291
 20
2735.1940363649928
 11
3184.2872343092922
 21
2735.1940363649928
  0
LINE
  8
_0-0_1
  6
CONTINUOUS
 62
    7
 10
3184.2872343092922
 20
2735.1940363649928
 11
3174.2339343092908
 21
2733.4347363649931
  0
LINE
  8
_0-0_1
  6
CONTINUOUS
 62
    7
 10
3148.5650343092911
 20
2708.7363363649933
 11
3171.0813343092918
 21
2680.3389363649931
  0
LINE
  8
_0-0_1
  6
CONTINUOUS
 62
    7
 10
3144.8316343092915
 20
2705.397136364993
 11
3164.4645343092911
 21
2680.636136364993
  0
LINE
  8
_0-0_1
  6
CONTINUOUS
 62
    7
 10
3140.0380343092916
 20
2706.2464363649933
 11
3115.9883343092915
 21
2695.475636364994
  0
LINE
  8
_0-0_1
  6
CONTINUOUS
 62
    7
 10
3139.282834309292
 20
2711.3867363649933
 11
3118.2133343092914
 21
2701.9506363649934
  0
LINE
  8
_0-0_1
  6
CONTINUOUS
 62
    7
 10
3144.3313343092914
 20
2726.6762363649932
 11
3142.1556343092921
 21
2715.2528363649931
  0
LINE
  8
_0-0_1
  6
CONTINUOUS
 62
    7
 10
3149.0782343092924
 20
2724.8752363649928
 11
3146.8272343092917
 21
2713.0579363649931
  0
LINE
  8
_0-0_1
  6
CONTINUOUS
 62
    7
 10
3174.2339343092908
 20
2733.4347363649931
 11
3151.562534309292
 21
2727.7107363649934
  0
LINE
  8
_0-0_1
  6
CONTINUOUS
 62
    7
 10
3180.417934309291
 20
2740.1529363649934
 11
3149.3645343092908
 21
2732.3125363649933
  0
LINE
  8
_0-0_1
  6
CONTINUOUS
 62
    7
 10
3147.5683343092919
 20
2733.3901363649929
 11
3135.0835343092913
 21
2751.8727363649937
  0
LINE
  8
_0-0_1
  6
CONTINUOUS
 62
    7
 10
3144.0171343092916
 20
2729.7152363649934
 11
3131.3697343092913
 21
2748.4382363649934
  0
LINE
  8
_0-0_1
  6
CONTINUOUS
 62
    7
 10
3150.3250343092914
 20
2727.0919363649932
 11
3149.0782343092924
 21
2724.8752363649928
  0
LINE
  8
_0-0_1
  6
CONTINUOUS
 62
    7
 10
3151.562534309292
 20
2727.7107363649934
 11
3150.3250343092914
 21
2727.0919363649932
  0
LINE
  8
_0-0_1
  6
CONTINUOUS
 62
    7
 10
3147.5683343092919
 20
2733.3901363649929
 11
3149.3645343092908
 21
2732.3125363649933
  0
LINE
  8
_0-0_1
  6
CONTINUOUS
 62
    7
 10
3144.0171343092916
 20
2729.7152363649934
 11
3144.3313343092914
 21
2726.6762363649932
  0
LINE
  8
_0-0_1
  6
CONTINUOUS
 62
    7
 10
3147.0277343092921
 20
2711.5544363649933
 11
3148.5650343092911
 21
2708.7363363649933
  0
LINE
  8
_0-0_1
  6
CONTINUOUS
 62
    7
 10
3146.8272343092917
 20
2713.0579363649931
 11
3147.0277343092921
 21
2711.5544363649933
  0
LINE
  8
_0-0_1
  6
CONTINUOUS
 62
    7
 10
3142.1556343092921
 20
2715.2528363649931
 11
3141.335634309291
 21
2713.0662363649931
  0
LINE
  8
_0-0_1
  6
CONTINUOUS
 62
    7
 10
3141.335634309291
 20
2713.0662363649931
 11
3139.282834309292
 21
2711.3867363649933
  0
LINE
  8
_0-0_1
  6
CONTINUOUS
 62
    7
 10
3142.4137343092912
 20
2706.7743363649934
 11
3140.0380343092916
 21
2706.2464363649933
  0
LINE
  8
_0-0_1
  6
CONTINUOUS
 62
    7
 10
3143.2406343092912
 20
2706.4986363649928
 11
3142.4137343092912
 21
2706.7743363649934
  0
LINE
  8
_0-0_1
  6
CONTINUOUS
 62
    7
 10
3144.8316343092915
 20
2705.397136364993
 11
3143.2406343092912
 21
2706.4986363649928
  0
LINE
  8
_0-0_1
  6
CONTINUOUS
 62
    7
 10
3165.9890343092916
 20
2675.1755363649931
 11
3165.3367343092914
 21
2674.3404363649934
  0
LINE
  8
_0-0_1
  6
CONTINUOUS
 62
    7
 10
3107.744634309292
 20
2752.4581363649932
 11
3107.744634309292
 21
2700.0863363649933
  0
LINE
  8
_0-0_1
  6
CONTINUOUS
 62
    7
 10
3112.6269343092913
 20
2674.3404363649934
 11
3165.3367343092914
 21
2674.3404363649934
  0
LINE
  8
_0-0_1
  6
CONTINUOUS
 62
    7
 10
3190.7446343092915
 20
2679.2227363649931
 11
3190.7446343092915
 21
2733.0378363649934
  0
LINE
  8
_0-0_1
  6
CONTINUOUS
 62
    7
 10
3185.862434309292
 20
2757.3403363649932
 11
3133.9626343092914
 21
2757.3403363649932
  0
LINE
  8
_0-0_1
  6
CONTINUOUS
 62
    7
 10
3190.7446343092915
 20
2745.4954363649931
 11
3190.7446343092915
 21
2752.4581363649932
  0
LINE
  8
_0-0_1
  6
CONTINUOUS
 62
    7
 10
3116.8331343092914
 20
2757.3403363649932
 11
3112.6269343092913
 21
2757.3403363649932
  0
LINE
  8
_0-0_1
  6
CONTINUOUS
 62
    7
 10
3107.744634309292
 20
2686.1650363649933
 11
3107.744634309292
 21
2679.2227363649931
  0
LINE
  8
_0-0_1
  6
CONTINUOUS
 62
    7
 10
3181.9028343092918
 20
2674.3404363649934
 11
3185.862434309292
 21
2674.3404363649934
  0
LINE
  8
_0-0_1
  6
CONTINUOUS
 62
    7
 10
3154.4652343092912
 20
2785.1743363649935
 11
3157.2625343092923
 21
2777.4817363649927
  0
LINE
  8
_0-0_1
  6
CONTINUOUS
 62
    7
 10
3157.2625343092923
 20
2777.4817363649927
 11
3158.6761343092917
 21
2774.9370363649928
  0
LINE
  8
_0-0_1
  6
CONTINUOUS
 62
    7
 10
3158.6761343092917
 20
2774.9370363649928
 11
3159.5442343092918
 21
2774.3404363649934
  0
LINE
  8
_0-0_1
  6
CONTINUOUS
 62
    7
 10
3149.5961343092913
 20
2787.8222363649938
 11
3151.0421343092908
 21
2780.5918363649935
  0
LINE
  8
_0-0_1
  6
CONTINUOUS
 62
    7
 10
3151.0421343092908
 20
2780.5918363649935
 11
3151.8904343092918
 21
2776.3506363649922
  0
LINE
  8
_0-0_1
  6
CONTINUOUS
 62
    7
 10
3151.8904343092918
 20
2776.3506363649922
 11
3151.6078343092922
 21
2774.6544363649937
  0
LINE
  8
_0-0_1
  6
CONTINUOUS
 62
    7
 10
3151.6078343092922
 20
2774.6544363649937
 11
3151.332934309291
 21
2774.3404363649934
  0
LINE
  8
_0-0_1
  6
CONTINUOUS
 62
    7
 10
3121.0680343092913
 20
2806.5222363649937
 11
3113.7208343092907
 21
2806.3210363649932
  0
LINE
  8
_0-0_1
  6
CONTINUOUS
 62
    7
 10
3113.7208343092907
 20
2806.3210363649932
 11
3110.6107343092913
 21
2806.0382363649933
  0
LINE
  8
_0-0_1
  6
CONTINUOUS
 62
    7
 10
3110.6107343092913
 20
2806.0382363649933
 11
3108.6314343092913
 21
2805.4728363649933
  0
LINE
  8
_0-0_1
  6
CONTINUOUS
 62
    7
 10
3108.6314343092913
 20
2805.4728363649933
 11
3107.744634309292
 21
2804.0790363649926
  0
LINE
  8
_0-0_1
  6
CONTINUOUS
 62
    7
 10
3107.744634309292
 20
2813.3325363649928
 11
3108.348934309292
 21
2812.258436364993
  0
LINE
  8
_0-0_1
  6
CONTINUOUS
 62
    7
 10
3108.348934309292
 20
2812.258436364993
 11
3110.6107343092913
 21
2811.1276363649931
  0
LINE
  8
_0-0_1
  6
CONTINUOUS
 62
    7
 10
3110.6107343092913
 20
2811.1276363649931
 11
3113.663634309291
 21
2810.806136364994
  0
LINE
  8
_0-0_1
  6
CONTINUOUS
 62
    7
 10
3190.7446343092915
 20
2825.6990363649938
 11
3189.4945343092913
 21
2824.6989363649932
  0
LINE
  8
_0-0_1
  6
CONTINUOUS
 62
    7
 10
3189.4945343092913
 20
2824.6989363649932
 11
3187.5155343092911
 21
2824.4163363649932
  0
LINE
  8
_0-0_1
  6
CONTINUOUS
 62
    7
 10
3187.5155343092911
 20
2824.4163363649932
 11
3182.4766343092915
 21
2824.0687363649931
  0
LINE
  8
_0-0_1
  6
CONTINUOUS
 62
    7
 10
3181.7182343092913
 20
2820.1180363649933
 11
3184.9708343092921
 21
2819.3270363649931
  0
LINE
  8
_0-0_1
  6
CONTINUOUS
 62
    7
 10
3184.9708343092921
 20
2819.3270363649931
 11
3188.363734309291
 21
2818.4788363649932
  0
LINE
  8
_0-0_1
  6
CONTINUOUS
 62
    7
 10
3188.363734309291
 20
2818.4788363649932
 11
3190.6256343092919
 21
2816.7823363649932
  0
LINE
  8
_0-0_1
  6
CONTINUOUS
 62
    7
 10
3127.5675343092912
 20
2857.3404363649929
 11
3128.4232343092913
 21
2856.9312363649933
  0
LINE
  8
_0-0_1
  6
CONTINUOUS
 62
    7
 10
3128.4232343092913
 20
2856.9312363649933
 11
3131.5332343092923
 21
2854.9519363649933
  0
LINE
  8
_0-0_1
  6
CONTINUOUS
 62
    7
 10
3131.5332343092923
 20
2854.9519363649933
 11
3135.015534309292
 21
2850.9948363649928
  0
LINE
  8
_0-0_1
  6
CONTINUOUS
 62
    7
 10
3139.0811343092919
 20
2857.3404363649929
 11
3138.8844343092915
 21
2857.2137363649931
  0
LINE
  8
_0-0_1
  6
CONTINUOUS
 62
    7
 10
3138.9161343092924
 20
2857.3404363649929
 11
3138.6018343092919
 21
2856.0829363649927
  0
LINE
  8
_0-0_1
  6
CONTINUOUS
 62
    7
 10
3138.6018343092919
 20
2856.0829363649927
 11
3138.6018343092919
 21
2854.1037363649934
  0
LINE
  8
_0-0_1
  6
CONTINUOUS
 62
    7
 10
3138.6018343092919
 20
2854.1037363649934
 11
3142.0534343092913
 21
2848.2512363649939
  0
LINE
  8
_0-0_1
  6
CONTINUOUS
 62
    7
 10
3148.7009343092914
 20
2806.2938363649932
 11
3154.4652343092912
 21
2785.1743363649935
  0
LINE
  8
_0-0_1
  6
CONTINUOUS
 62
    7
 10
3145.2778343092909
 20
2803.6445363649932
 11
3149.5961343092913
 21
2787.8222363649938
  0
LINE
  8
_0-0_1
  6
CONTINUOUS
 62
    7
 10
3143.3599343092915
 20
2805.6762363649932
 11
3121.0680343092913
 21
2806.5222363649937
  0
LINE
  8
_0-0_1
  6
CONTINUOUS
 62
    7
 10
3144.1856343092913
 20
2809.6479363649928
 11
3113.663634309291
 21
2810.806136364994
  0
LINE
  8
_0-0_1
  6
CONTINUOUS
 62
    7
 10
3153.6647343092909
 20
2821.9892363649938
 11
3145.5180343092911
 21
2810.0032363649925
  0
LINE
  8
_0-0_1
  6
CONTINUOUS
 62
    7
 10
3157.6206343092913
 20
2820.6933363649928
 11
3149.464734309292
 21
2808.6940363649928
  0
LINE
  8
_0-0_1
  6
CONTINUOUS
 62
    7
 10
3159.4195343092911
 20
2821.978536364993
 11
3181.7182343092913
 21
2820.1180363649933
  0
LINE
  8
_0-0_1
  6
CONTINUOUS
 62
    7
 10
3182.4766343092915
 20
2824.0687363649931
 11
3159.5058343092924
 21
2825.9851363649932
  0
LINE
  8
_0-0_1
  6
CONTINUOUS
 62
    7
 10
3157.5985343092907
 20
2827.4155363649934
 11
3142.0534343092913
 21
2848.2512363649939
  0
LINE
  8
_0-0_1
  6
CONTINUOUS
 62
    7
 10
3153.7004343092913
 20
2825.9514363649937
 11
3135.015534309292
 21
2850.9948363649928
  0
LINE
  8
_0-0_1
  6
CONTINUOUS
 62
    7
 10
3159.4195343092911
 20
2821.978536364993
 11
3157.6206343092913
 21
2820.6933363649928
  0
LINE
  8
_0-0_1
  6
CONTINUOUS
 62
    7
 10
3157.5985343092907
 20
2827.4155363649934
 11
3159.5058343092924
 21
2825.9851363649932
  0
LINE
  8
_0-0_1
  6
CONTINUOUS
 62
    7
 10
3153.7004343092913
 20
2825.9514363649937
 11
3154.435034309292
 21
2823.9922363649935
  0
LINE
  8
_0-0_1
  6
CONTINUOUS
 62
    7
 10
3154.435034309292
 20
2823.9922363649935
 11
3153.6647343092909
 21
2821.9892363649938
  0
LINE
  8
_0-0_1
  6
CONTINUOUS
 62
    7
 10
3143.3599343092915
 20
2805.6762363649932
 11
3144.2566343092908
 21
2805.0487363649931
  0
LINE
  8
_0-0_1
  6
CONTINUOUS
 62
    7
 10
3144.2566343092908
 20
2805.0487363649931
 11
3145.2778343092909
 21
2803.6445363649932
  0
LINE
  8
_0-0_1
  6
CONTINUOUS
 62
    7
 10
3149.464734309292
 20
2808.6940363649928
 11
3148.7009343092914
 21
2806.2938363649932
  0
LINE
  8
_0-0_1
  6
CONTINUOUS
 62
    7
 10
3145.5180343092911
 20
2810.0032363649925
 11
3144.1856343092913
 21
2809.6479363649928
  0
LINE
  8
_0-0_1
  6
CONTINUOUS
 62
    7
 10
3107.744634309292
 20
2852.4579363649937
 11
3107.744634309292
 21
2813.3325363649928
  0
LINE
  8
_0-0_1
  6
CONTINUOUS
 62
    7
 10
3112.6269343092913
 20
2774.3404363649934
 11
3151.332934309291
 21
2774.3404363649934
  0
LINE
  8
_0-0_1
  6
CONTINUOUS
 62
    7
 10
3190.7446343092915
 20
2779.2227363649931
 11
3190.7446343092915
 21
2816.7823363649932
  0
LINE
  8
_0-0_1
  6
CONTINUOUS
 62
    7
 10
3185.862434309292
 20
2857.3404363649929
 11
3139.0811343092919
 21
2857.3404363649929
  0
LINE
  8
_0-0_1
  6
CONTINUOUS
 62
    7
 10
3107.744634309292
 20
2804.0790363649926
 11
3107.744634309292
 21
2779.2227363649931
  0
LINE
  8
_0-0_1
  6
CONTINUOUS
 62
    7
 10
3127.5675343092912
 20
2857.3404363649929
 11
3112.6269343092913
 21
2857.3404363649929
  0
LINE
  8
_0-0_1
  6
CONTINUOUS
 62
    7
 10
3190.7446343092915
 20
2825.6990363649938
 11
3190.7446343092915
 21
2852.4579363649937
  0
LINE
  8
_0-0_1
  6
CONTINUOUS
 62
    7
 10
3159.5442343092918
 20
2774.3404363649934
 11
3185.862434309292
 21
2774.3404363649934
  0
LINE
  8
_0-0_1
  6
CONTINUOUS
 62
    7
 10
3218.5786343092914
 20
2710.6197363649931
 11
3210.8859343092918
 21
2707.8224363649933
  0
LINE
  8
_0-0_1
  6
CONTINUOUS
 62
    7
 10
3210.8859343092918
 20
2707.8224363649933
 11
3208.3413343092911
 21
2706.4088363649935
  0
LINE
  8
_0-0_1
  6
CONTINUOUS
 62
    7
 10
3208.3413343092911
 20
2706.4088363649935
 11
3207.7447343092917
 21
2705.5408363649931
  0
LINE
  8
_0-0_1
  6
CONTINUOUS
 62
    7
 10
3221.2265343092918
 20
2715.4887363649932
 11
3213.9960343092912
 21
2714.0427363649933
  0
LINE
  8
_0-0_1
  6
CONTINUOUS
 62
    7
 10
3213.9960343092912
 20
2714.0427363649933
 11
3209.7551343092914
 21
2713.1945363649938
  0
LINE
  8
_0-0_1
  6
CONTINUOUS
 62
    7
 10
3209.7551343092914
 20
2713.1945363649938
 11
3208.0587343092907
 21
2713.4773363649938
  0
LINE
  8
_0-0_1
  6
CONTINUOUS
 62
    7
 10
3208.0587343092907
 20
2713.4773363649938
 11
3207.7447343092917
 21
2713.7520363649937
  0
LINE
  8
_0-0_1
  6
CONTINUOUS
 62
    7
 10
3239.926534309292
 20
2744.0169363649929
 11
3239.7253343092916
 21
2751.3642363649933
  0
LINE
  8
_0-0_1
  6
CONTINUOUS
 62
    7
 10
3239.7253343092916
 20
2751.3642363649933
 11
3239.4425343092917
 21
2754.4742363649939
  0
LINE
  8
_0-0_1
  6
CONTINUOUS
 62
    7
 10
3239.4425343092917
 20
2754.4742363649939
 11
3238.8771343092913
 21
2756.4535363649934
  0
LINE
  8
_0-0_1
  6
CONTINUOUS
 62
    7
 10
3238.8771343092913
 20
2756.4535363649934
 11
3237.483334309291
 21
2757.3403363649932
  0
LINE
  8
_0-0_1
  6
CONTINUOUS
 62
    7
 10
3246.7368343092908
 20
2757.3403363649932
 11
3245.6629343092914
 21
2756.7361363649934
  0
LINE
  8
_0-0_1
  6
CONTINUOUS
 62
    7
 10
3245.6629343092914
 20
2756.7361363649934
 11
3244.5318343092913
 21
2754.4742363649939
  0
LINE
  8
_0-0_1
  6
CONTINUOUS
 62
    7
 10
3244.5318343092913
 20
2754.4742363649939
 11
3244.210434309291
 21
2751.4213363649928
  0
LINE
  8
_0-0_1
  6
CONTINUOUS
 62
    7
 10
3259.1033343092922
 20
2674.3404363649934
 11
3258.103234309292
 21
2675.5903363649932
  0
LINE
  8
_0-0_1
  6
CONTINUOUS
 62
    7
 10
3258.103234309292
 20
2675.5903363649932
 11
3257.820634309292
 21
2677.5694363649932
  0
LINE
  8
_0-0_1
  6
CONTINUOUS
 62
    7
 10
3257.820634309292
 20
2677.5694363649932
 11
3257.4729343092913
 21
2682.6083363649932
  0
LINE
  8
_0-0_1
  6
CONTINUOUS
 62
    7
 10
3253.5223343092916
 20
2683.3666363649936
 11
3252.7312343092917
 21
2680.1141363649936
  0
LINE
  8
_0-0_1
  6
CONTINUOUS
 62
    7
 10
3252.7312343092917
 20
2680.1141363649936
 11
3251.8830343092914
 21
2676.7213363649935
  0
LINE
  8
_0-0_1
  6
CONTINUOUS
 62
    7
 10
3251.8830343092914
 20
2676.7213363649935
 11
3250.1866343092911
 21
2674.4594363649935
  0
LINE
  8
_0-0_1
  6
CONTINUOUS
 62
    7
 10
3290.7447343092917
 20
2737.517436364993
 11
3290.3354343092924
 21
2736.6618363649932
  0
LINE
  8
_0-0_1
  6
CONTINUOUS
 62
    7
 10
3290.3354343092924
 20
2736.6618363649932
 11
3288.3561343092915
 21
2733.5517363649933
  0
LINE
  8
_0-0_1
  6
CONTINUOUS
 62
    7
 10
3288.3561343092915
 20
2733.5517363649933
 11
3284.3991343092916
 21
2730.0694363649932
  0
LINE
  8
_0-0_1
  6
CONTINUOUS
 62
    7
 10
3290.7447343092917
 20
2726.0037363649926
 11
3290.6182343092923
 21
2726.200436364993
  0
LINE
  8
_0-0_1
  6
CONTINUOUS
 62
    7
 10
3290.7447343092917
 20
2726.1689363649934
 11
3289.487234309292
 21
2726.4832363649934
  0
LINE
  8
_0-0_1
  6
CONTINUOUS
 62
    7
 10
3289.487234309292
 20
2726.4832363649934
 11
3287.5079343092916
 21
2726.4832363649934
  0
LINE
  8
_0-0_1
  6
CONTINUOUS
 62
    7
 10
3287.5079343092916
 20
2726.4832363649934
 11
3281.6555343092923
 21
2723.0317363649929
  0
LINE
  8
_0-0_1
  6
CONTINUOUS
 62
    7
 10
3239.6981343092912
 20
2716.3840363649933
 11
3218.5786343092914
 21
2710.6197363649931
  0
LINE
  8
_0-0_1
  6
CONTINUOUS
 62
    7
 10
3237.0487343092918
 20
2719.8072363649931
 11
3221.2265343092918
 21
2715.4887363649932
  0
LINE
  8
_0-0_1
  6
CONTINUOUS
 62
    7
 10
3239.080534309292
 20
2721.7250363649928
 11
3239.926534309292
 21
2744.0169363649929
  0
LINE
  8
_0-0_1
  6
CONTINUOUS
 62
    7
 10
3243.0521343092919
 20
2720.8994363649931
 11
3244.210434309291
 21
2751.4213363649928
  0
LINE
  8
_0-0_1
  6
CONTINUOUS
 62
    7
 10
3255.3934343092919
 20
2711.4202363649933
 11
3243.4075343092918
 21
2719.5669363649931
  0
LINE
  8
_0-0_1
  6
CONTINUOUS
 62
    7
 10
3254.0976343092916
 20
2707.4645363649934
 11
3242.0983343092912
 21
2715.6202363649932
  0
LINE
  8
_0-0_1
  6
CONTINUOUS
 62
    7
 10
3255.3828343092914
 20
2705.6655363649929
 11
3253.5223343092916
 21
2683.3666363649936
  0
LINE
  8
_0-0_1
  6
CONTINUOUS
 62
    7
 10
3257.4729343092913
 20
2682.6083363649932
 11
3259.3893343092914
 21
2705.5790363649935
  0
LINE
  8
_0-0_1
  6
CONTINUOUS
 62
    7
 10
3260.8198343092913
 20
2707.4863363649933
 11
3281.6555343092923
 21
2723.0317363649929
  0
LINE
  8
_0-0_1
  6
CONTINUOUS
 62
    7
 10
3259.355934309292
 20
2711.3847363649934
 11
3284.3991343092916
 21
2730.0694363649932
  0
LINE
  8
_0-0_1
  6
CONTINUOUS
 62
    7
 10
3255.3828343092914
 20
2705.6655363649929
 11
3254.0976343092916
 21
2707.4645363649934
  0
LINE
  8
_0-0_1
  6
CONTINUOUS
 62
    7
 10
3260.8198343092913
 20
2707.4863363649933
 11
3259.3893343092914
 21
2705.5790363649935
  0
LINE
  8
_0-0_1
  6
CONTINUOUS
 62
    7
 10
3259.355934309292
 20
2711.3847363649934
 11
3257.3965343092914
 21
2710.6498363649935
  0
LINE
  8
_0-0_1
  6
CONTINUOUS
 62
    7
 10
3257.3965343092914
 20
2710.6498363649935
 11
3255.3934343092919
 21
2711.4202363649933
  0
LINE
  8
_0-0_1
  6
CONTINUOUS
 62
    7
 10
3239.080534309292
 20
2721.7250363649928
 11
3238.4530343092915
 21
2720.8285363649934
  0
LINE
  8
_0-0_1
  6
CONTINUOUS
 62
    7
 10
3238.4530343092915
 20
2720.8285363649934
 11
3237.0487343092918
 21
2719.8072363649931
  0
LINE
  8
_0-0_1
  6
CONTINUOUS
 62
    7
 10
3242.0983343092912
 20
2715.6202363649932
 11
3239.6981343092912
 21
2716.3840363649933
  0
LINE
  8
_0-0_1
  6
CONTINUOUS
 62
    7
 10
3243.4075343092918
 20
2719.5669363649931
 11
3243.0521343092919
 21
2720.8994363649931
  0
LINE
  8
_0-0_1
  6
CONTINUOUS
 62
    7
 10
3285.862234309292
 20
2757.3403363649932
 11
3246.7368343092908
 21
2757.3403363649932
  0
LINE
  8
_0-0_1
  6
CONTINUOUS
 62
    7
 10
3207.7447343092917
 20
2752.4581363649932
 11
3207.7447343092917
 21
2713.7520363649937
  0
LINE
  8
_0-0_1
  6
CONTINUOUS
 62
    7
 10
3212.6269343092913
 20
2674.3404363649934
 11
3250.1866343092911
 21
2674.3404363649934
  0
LINE
  8
_0-0_1
  6
CONTINUOUS
 62
    7
 10
3290.7447343092917
 20
2679.2227363649931
 11
3290.7447343092917
 21
2726.0037363649926
  0
LINE
  8
_0-0_1
  6
CONTINUOUS
 62
    7
 10
3237.483334309291
 20
2757.3403363649932
 11
3212.6269343092913
 21
2757.3403363649932
  0
LINE
  8
_0-0_1
  6
CONTINUOUS
 62
    7
 10
3290.7447343092917
 20
2737.517436364993
 11
3290.7447343092917
 21
2752.4581363649932
  0
LINE
  8
_0-0_1
  6
CONTINUOUS
 62
    7
 10
3259.1033343092922
 20
2674.3404363649934
 11
3285.862234309292
 21
2674.3404363649934
  0
LINE
  8
_0-0_1
  6
CONTINUOUS
 62
    7
 10
3207.7447343092917
 20
2705.5408363649931
 11
3207.7447343092917
 21
2679.2227363649931
  0
LINE
  8
_0-0_1
  6
CONTINUOUS
 62
    7
 10
3213.7431343092908
 20
2997.0036363649933
 11
3211.2531343092924
 21
2994.1303363649927
  0
LINE
  8
_0-0_1
  6
CONTINUOUS
 62
    7
 10
3211.2531343092924
 20
2994.1303363649927
 11
3208.8589343092913
 21
2989.6843363649932
  0
LINE
  8
_0-0_1
  6
CONTINUOUS
 62
    7
 10
3208.8589343092913
 20
2989.6843363649932
 11
3207.7447343092917
 21
2986.1821363649933
  0
LINE
  8
_0-0_1
  6
CONTINUOUS
 62
    7
 10
3214.0403343092908
 20
3003.6204363649931
 11
3211.9997343092919
 21
3002.7801363649933
  0
LINE
  8
_0-0_1
  6
CONTINUOUS
 62
    7
 10
3211.9997343092919
 20
3002.7801363649933
 11
3209.9477343092913
 21
3002.0962363649924
  0
LINE
  8
_0-0_1
  6
CONTINUOUS
 62
    7
 10
3209.9477343092913
 20
3002.0962363649924
 11
3208.5798343092915
 21
3002.0962363649924
  0
LINE
  8
_0-0_1
  6
CONTINUOUS
 62
    7
 10
3228.8798343092913
 20
3052.0966363649932
 11
3226.5603343092916
 21
3056.220436364993
  0
LINE
  8
_0-0_1
  6
CONTINUOUS
 62
    7
 10
3226.5603343092916
 20
3056.220436364993
 11
3225.192234309292
 21
3057.9305363649933
  0
LINE
  8
_0-0_1
  6
CONTINUOUS
 62
    7
 10
3225.192234309292
 20
3057.9305363649933
 11
3219.5694343092919
 21
3060.3403363649936
  0
LINE
  8
_0-0_1
  6
CONTINUOUS
 62
    7
 10
3235.3548343092916
 20
3049.8719363649934
 11
3234.3131343092914
 21
3052.8671363649933
  0
LINE
  8
_0-0_1
  6
CONTINUOUS
 62
    7
 10
3234.3131343092914
 20
3052.8671363649933
 11
3232.9450343092913
 21
3057.3134363649929
  0
LINE
  8
_0-0_1
  6
CONTINUOUS
 62
    7
 10
3232.9450343092913
 20
3057.3134363649929
 11
3233.2869343092916
 21
3060.0493363649935
  0
LINE
  8
_0-0_1
  6
CONTINUOUS
 62
    7
 10
3233.2869343092916
 20
3060.0493363649935
 11
3233.4906343092916
 21
3060.3403363649936
  0
LINE
  8
_0-0_1
  6
CONTINUOUS
 62
    7
 10
3281.8423343092918
 20
3036.715236364993
 11
3285.903334309291
 21
3040.4231363649933
  0
LINE
  8
_0-0_1
  6
CONTINUOUS
 62
    7
 10
3285.903334309291
 20
3040.4231363649933
 11
3288.2972343092911
 21
3044.5272363649933
  0
LINE
  8
_0-0_1
  6
CONTINUOUS
 62
    7
 10
3288.2972343092911
 20
3044.5272363649933
 11
3290.0073343092913
 21
3048.9732363649932
  0
LINE
  8
_0-0_1
  6
CONTINUOUS
 62
    7
 10
3290.7447343092917
 20
3051.2518363649929
 11
3290.0073343092913
 21
3048.9732363649932
  0
LINE
  8
_0-0_1
  6
CONTINUOUS
 62
    7
 10
3290.7447343092917
 20
3034.1223363649938
 11
3288.5150343092914
 21
3034.1223363649938
  0
LINE
  8
_0-0_1
  6
CONTINUOUS
 62
    7
 10
3288.5150343092914
 20
3034.1223363649938
 11
3285.2770343092916
 21
3033.0014363649934
  0
LINE
  8
_0-0_1
  6
CONTINUOUS
 62
    7
 10
3278.8997343092924
 20
2977.3403363649932
 11
3277.0919343092919
 21
2979.2545363649933
  0
LINE
  8
_0-0_1
  6
CONTINUOUS
 62
    7
 10
3277.0919343092919
 20
2979.2545363649933
 11
3275.0399343092922
 21
2984.0425363649933
  0
LINE
  8
_0-0_1
  6
CONTINUOUS
 62
    7
 10
3275.0399343092922
 20
2984.0425363649933
 11
3273.5570343092922
 21
2987.6670363649928
  0
LINE
  8
_0-0_1
  6
CONTINUOUS
 62
    7
 10
3266.4419343092918
 20
2977.3403363649932
 11
3267.2302343092924
 21
2978.3256363649934
  0
LINE
  8
_0-0_1
  6
CONTINUOUS
 62
    7
 10
3267.2302343092924
 20
2978.3256363649934
 11
3268.5983343092907
 21
2980.7196363649932
  0
LINE
  8
_0-0_1
  6
CONTINUOUS
 62
    7
 10
3268.5983343092907
 20
2980.7196363649932
 11
3268.5983343092907
 21
2983.7978363649927
  0
LINE
  8
_0-0_1
  6
CONTINUOUS
 62
    7
 10
3268.5983343092907
 20
2983.7978363649927
 11
3266.838834309292
 21
2993.8512363649934
  0
LINE
  8
_0-0_1
  6
CONTINUOUS
 62
    7
 10
3242.1406343092917
 20
3019.5199363649931
 11
3213.7431343092908
 21
2997.0036363649933
  0
LINE
  8
_0-0_1
  6
CONTINUOUS
 62
    7
 10
3238.8014343092914
 20
3023.2533363649927
 11
3214.0403343092908
 21
3003.6204363649931
  0
LINE
  8
_0-0_1
  6
CONTINUOUS
 62
    7
 10
3239.6506343092915
 20
3028.0469363649936
 11
3228.8798343092913
 21
3052.0966363649932
  0
LINE
  8
_0-0_1
  6
CONTINUOUS
 62
    7
 10
3244.7909343092915
 20
3028.8021363649927
 11
3235.3548343092916
 21
3049.8719363649934
  0
LINE
  8
_0-0_1
  6
CONTINUOUS
 62
    7
 10
3260.0804343092923
 20
3023.7536363649942
 11
3248.6571343092919
 21
3025.9293363649927
  0
LINE
  8
_0-0_1
  6
CONTINUOUS
 62
    7
 10
3258.2796343092914
 20
3019.0067363649932
 11
3246.4621343092922
 21
3021.2577363649934
  0
LINE
  8
_0-0_1
  6
CONTINUOUS
 62
    7
 10
3266.838834309292
 20
2993.8512363649934
 11
3261.1150343092913
 21
3016.5224363649932
  0
LINE
  8
_0-0_1
  6
CONTINUOUS
 62
    7
 10
3273.5570343092922
 20
2987.6670363649928
 11
3265.7169343092914
 21
3018.7204363649935
  0
LINE
  8
_0-0_1
  6
CONTINUOUS
 62
    7
 10
3266.7945343092924
 20
3020.5166363649932
 11
3285.2770343092916
 21
3033.0014363649934
  0
LINE
  8
_0-0_1
  6
CONTINUOUS
 62
    7
 10
3263.1195343092913
 20
3024.0678363649931
 11
3281.8423343092918
 21
3036.715236364993
  0
LINE
  8
_0-0_1
  6
CONTINUOUS
 62
    7
 10
3260.4961343092918
 20
3017.7599363649938
 11
3258.2796343092914
 21
3019.0067363649932
  0
LINE
  8
_0-0_1
  6
CONTINUOUS
 62
    7
 10
3261.1150343092913
 20
3016.5224363649932
 11
3260.4961343092918
 21
3017.7599363649938
  0
LINE
  8
_0-0_1
  6
CONTINUOUS
 62
    7
 10
3266.7945343092924
 20
3020.5166363649932
 11
3265.7169343092914
 21
3018.7204363649935
  0
LINE
  8
_0-0_1
  6
CONTINUOUS
 62
    7
 10
3263.1195343092913
 20
3024.0678363649931
 11
3260.0804343092923
 21
3023.7536363649942
  0
LINE
  8
_0-0_1
  6
CONTINUOUS
 62
    7
 10
3244.9587343092912
 20
3021.0572363649931
 11
3242.1406343092917
 21
3019.5199363649931
  0
LINE
  8
_0-0_1
  6
CONTINUOUS
 62
    7
 10
3246.4621343092922
 20
3021.2577363649934
 11
3244.9587343092912
 21
3021.0572363649931
  0
LINE
  8
_0-0_1
  6
CONTINUOUS
 62
    7
 10
3248.6571343092919
 20
3025.9293363649927
 11
3246.4705343092919
 21
3026.7493363649928
  0
LINE
  8
_0-0_1
  6
CONTINUOUS
 62
    7
 10
3246.4705343092919
 20
3026.7493363649928
 11
3244.7909343092915
 21
3028.8021363649927
  0
LINE
  8
_0-0_1
  6
CONTINUOUS
 62
    7
 10
3240.1786343092913
 20
3025.6713363649933
 11
3239.6506343092915
 21
3028.0469363649936
  0
LINE
  8
_0-0_1
  6
CONTINUOUS
 62
    7
 10
3239.9030343092913
 20
3024.844336364994
 11
3240.1786343092913
 21
3025.6713363649933
  0
LINE
  8
_0-0_1
  6
CONTINUOUS
 62
    7
 10
3238.8014343092914
 20
3023.2533363649927
 11
3239.9030343092913
 21
3024.844336364994
  0
LINE
  8
_0-0_1
  6
CONTINUOUS
 62
    7
 10
3208.5798343092915
 20
3002.0962363649924
 11
3207.7447343092917
 21
3002.7484363649933
  0
LINE
  8
_0-0_1
  6
CONTINUOUS
 62
    7
 10
3285.862234309292
 20
3060.3403363649936
 11
3233.4906343092916
 21
3060.3403363649936
  0
LINE
  8
_0-0_1
  6
CONTINUOUS
 62
    7
 10
3207.7447343092917
 20
3055.4581363649932
 11
3207.7447343092917
 21
3002.7484363649933
  0
LINE
  8
_0-0_1
  6
CONTINUOUS
 62
    7
 10
3212.6269343092913
 20
2977.3403363649932
 11
3266.4419343092918
 21
2977.3403363649932
  0
LINE
  8
_0-0_1
  6
CONTINUOUS
 62
    7
 10
3290.7447343092917
 20
2982.2228363649938
 11
3290.7447343092917
 21
3034.1223363649938
  0
LINE
  8
_0-0_1
  6
CONTINUOUS
 62
    7
 10
3278.8997343092924
 20
2977.3403363649932
 11
3285.862234309292
 21
2977.3403363649932
  0
LINE
  8
_0-0_1
  6
CONTINUOUS
 62
    7
 10
3290.7447343092917
 20
3051.2518363649929
 11
3290.7447343092917
 21
3055.4581363649932
  0
LINE
  8
_0-0_1
  6
CONTINUOUS
 62
    7
 10
3219.5694343092919
 20
3060.3403363649936
 11
3212.6269343092913
 21
3060.3403363649936
  0
LINE
  8
_0-0_1
  6
CONTINUOUS
 62
    7
 10
3207.7447343092917
 20
2986.1821363649933
 11
3207.7447343092917
 21
2982.2228363649938
  0
LINE
  8
_0-0_1
  6
CONTINUOUS
 62
    7
 10
3171.9300343092914
 20
3035.5038363649928
 11
3147.1808343092921
 21
3031.3208363649933
  0
LINE
  8
_0-0_1
  6
CONTINUOUS
 62
    7
 10
3148.1580343092919
 20
3026.4151363649935
 11
3175.3271343092915
 21
3031.0070363649938
  0
LINE
  8
_0-0_1
  6
CONTINUOUS
 62
    7
 10
3132.0798343092911
 20
3051.5347363649935
 11
3145.1256343092919
 21
3032.4276363649933
  0
LINE
  8
_0-0_1
  6
CONTINUOUS
 62
    7
 10
3125.1362343092924
 20
3052.8374363649932
 11
3140.2864343092915
 21
3030.6478363649931
  0
LINE
  8
_0-0_1
  6
CONTINUOUS
 62
    7
 10
3140.4242343092915
 20
3026.3369363649927
 11
3132.8954343092914
 21
3015.306536364993
  0
LINE
  8
_0-0_1
  6
CONTINUOUS
 62
    7
 10
3145.7645343092913
 20
3025.291936364993
 11
3138.1792343092911
 21
3014.1787363649933
  0
LINE
  8
_0-0_1
  6
CONTINUOUS
 62
    7
 10
3138.1993343092918
 20
3010.8392363649928
 11
3156.3668343092918
 21
2989.9538363649931
  0
LINE
  8
_0-0_1
  6
CONTINUOUS
 62
    7
 10
3135.3651343092911
 20
3006.4791363649938
 11
3154.6189343092915
 21
2984.3448363649932
  0
LINE
  8
_0-0_1
  6
CONTINUOUS
 62
    7
 10
3131.0804343092918
 20
3007.9734363649932
 11
3115.550834309292
 21
3000.092736364993
  0
LINE
  8
_0-0_1
  6
CONTINUOUS
 62
    7
 10
3130.4970343092918
 20
3013.2844363649933
 11
3120.1178343092915
 21
3008.0174363649935
  0
LINE
  8
_0-0_1
  6
CONTINUOUS
 62
    7
 10
3138.1792343092911
 20
3014.1787363649933
 11
3137.7160343092914
 21
3012.6109363649939
  0
LINE
  8
_0-0_1
  6
CONTINUOUS
 62
    7
 10
3137.7160343092914
 20
3012.6109363649939
 11
3138.1993343092918
 21
3010.8392363649928
  0
LINE
  8
_0-0_1
  6
CONTINUOUS
 62
    7
 10
3135.3651343092911
 20
3006.4791363649938
 11
3133.5009343092916
 21
3007.9862363649931
  0
LINE
  8
_0-0_1
  6
CONTINUOUS
 62
    7
 10
3132.4668343092908
 20
3008.2507363649929
 11
3131.0804343092918
 21
3007.9734363649932
  0
LINE
  8
_0-0_1
  6
CONTINUOUS
 62
    7
 10
3132.8954343092914
 20
3015.306536364993
 11
3130.4970343092918
 21
3013.2844363649933
  0
LINE
  8
_0-0_1
  6
CONTINUOUS
 62
    7
 10
3133.5009343092916
 20
3007.9862363649931
 11
3132.4668343092908
 21
3008.2507363649929
  0
LINE
  8
_0-0_1
  6
CONTINUOUS
 62
    7
 10
3148.1580343092919
 20
3026.4151363649935
 11
3146.5367343092912
 21
3025.8962363649935
  0
LINE
  8
_0-0_1
  6
CONTINUOUS
 62
    7
 10
3146.5367343092912
 20
3025.8962363649935
 11
3145.7645343092913
 21
3025.291936364993
  0
LINE
  8
_0-0_1
  6
CONTINUOUS
 62
    7
 10
3140.2864343092915
 20
3030.6478363649931
 11
3141.0918343092912
 21
3028.4008363649937
  0
LINE
  8
_0-0_1
  6
CONTINUOUS
 62
    7
 10
3141.0918343092912
 20
3028.4008363649937
 11
3140.4242343092915
 21
3026.3369363649927
  0
LINE
  8
_0-0_1
  6
CONTINUOUS
 62
    7
 10
3145.1256343092919
 20
3032.4276363649933
 11
3147.1808343092921
 21
3031.3208363649933
  0
LINE
  8
_0-0_1
  6
CONTINUOUS
 62
    7
 10
3131.5305343092923
 20
3060.3403363649936
 11
3129.5079343092912
 21
3059.0180363649924
  0
LINE
  8
_0-0_1
  6
CONTINUOUS
 62
    7
 10
3129.5079343092912
 20
3059.0180363649924
 11
3129.1826343092912
 21
3057.715936364993
  0
LINE
  8
_0-0_1
  6
CONTINUOUS
 62
    7
 10
3129.1826343092912
 20
3057.715936364993
 11
3132.0798343092911
 21
3051.5347363649935
  0
LINE
  8
_0-0_1
  6
CONTINUOUS
 62
    7
 10
3115.7753343092918
 20
3060.3403363649936
 11
3117.7894343092921
 21
3059.6690363649936
  0
LINE
  8
_0-0_1
  6
CONTINUOUS
 62
    7
 10
3117.7894343092921
 20
3059.6690363649936
 11
3121.0445343092915
 21
3057.715936364993
  0
LINE
  8
_0-0_1
  6
CONTINUOUS
 62
    7
 10
3121.0445343092915
 20
3057.715936364993
 11
3125.1362343092924
 21
3052.8374363649932
  0
LINE
  8
_0-0_1
  6
CONTINUOUS
 62
    7
 10
3190.704834309292
 20
3042.4167363649931
 11
3188.7517343092914
 21
3040.1381363649934
  0
LINE
  8
_0-0_1
  6
CONTINUOUS
 62
    7
 10
3188.7517343092914
 20
3040.1381363649934
 11
3186.147734309292
 21
3038.8360363649927
  0
LINE
  8
_0-0_1
  6
CONTINUOUS
 62
    7
 10
3186.147734309292
 20
3038.8360363649927
 11
3171.9300343092914
 21
3035.5038363649928
  0
LINE
  8
_0-0_1
  6
CONTINUOUS
 62
    7
 10
3175.3271343092915
 20
3031.0070363649938
 11
3180.2883343092913
 21
3031.3493363649932
  0
LINE
  8
_0-0_1
  6
CONTINUOUS
 62
    7
 10
3180.2883343092913
 20
3031.3493363649932
 11
3186.147734309292
 21
3031.6746363649927
  0
LINE
  8
_0-0_1
  6
CONTINUOUS
 62
    7
 10
3186.147734309292
 20
3031.6746363649927
 11
3188.4261343092908
 21
3031.3493363649932
  0
LINE
  8
_0-0_1
  6
CONTINUOUS
 62
    7
 10
3188.4261343092908
 20
3031.3493363649932
 11
3190.3791343092912
 21
3029.7216363649927
  0
LINE
  8
_0-0_1
  6
CONTINUOUS
 62
    7
 10
3190.3791343092912
 20
3029.7216363649927
 11
3190.7446343092915
 21
3028.8343363649929
  0
LINE
  8
_0-0_1
  6
CONTINUOUS
 62
    7
 10
3120.1178343092915
 20
3008.0174363649935
 11
3113.8833343092915
 21
3005.6336363649925
  0
LINE
  8
_0-0_1
  6
CONTINUOUS
 62
    7
 10
3113.8833343092915
 20
3005.6336363649925
 11
3110.3026343092915
 21
3004.6569363649928
  0
LINE
  8
_0-0_1
  6
CONTINUOUS
 62
    7
 10
3110.3026343092915
 20
3004.6569363649928
 11
3108.3496343092911
 21
3004.6569363649928
  0
LINE
  8
_0-0_1
  6
CONTINUOUS
 62
    7
 10
3108.3496343092911
 20
3004.6569363649928
 11
3107.744634309292
 21
3005.3052363649927
  0
LINE
  8
_0-0_1
  6
CONTINUOUS
 62
    7
 10
3115.550834309292
 20
3000.092736364993
 11
3112.9067343092911
 21
2998.4722363649935
  0
LINE
  8
_0-0_1
  6
CONTINUOUS
 62
    7
 10
3112.9067343092911
 20
2998.4722363649935
 11
3108.3496343092911
 21
2995.5425363649929
  0
LINE
  8
_0-0_1
  6
CONTINUOUS
 62
    7
 10
3108.3496343092911
 20
2995.5425363649929
 11
3107.744634309292
 21
2994.5918363649939
  0
LINE
  8
_0-0_1
  6
CONTINUOUS
 62
    7
 10
3156.3668343092918
 20
2989.9538363649931
 11
3166.6167343092911
 21
2980.2433363649934
  0
LINE
  8
_0-0_1
  6
CONTINUOUS
 62
    7
 10
3166.6167343092911
 20
2980.2433363649934
 11
3172.7857343092915
 21
2977.3403363649932
  0
LINE
  8
_0-0_1
  6
CONTINUOUS
 62
    7
 10
3154.6189343092915
 20
2984.3448363649932
 11
3156.2003343092915
 21
2980.5689363649931
  0
LINE
  8
_0-0_1
  6
CONTINUOUS
 62
    7
 10
3156.2003343092915
 20
2980.5689363649931
 11
3155.8746343092912
 21
2978.6159363649926
  0
LINE
  8
_0-0_1
  6
CONTINUOUS
 62
    7
 10
3155.8746343092912
 20
2978.6159363649926
 11
3155.1244343092912
 21
2977.3403363649932
  0
LINE
  8
_0-0_1
  6
CONTINUOUS
 62
    7
 10
3107.744634309292
 20
2982.2228363649938
 11
3107.744634309292
 21
2994.5918363649939
  0
LINE
  8
_0-0_1
  6
CONTINUOUS
 62
    7
 10
3112.6269343092913
 20
3060.3403363649936
 11
3115.7753343092918
 21
3060.3403363649936
  0
LINE
  8
_0-0_1
  6
CONTINUOUS
 62
    7
 10
3190.7446343092915
 20
3055.4581363649932
 11
3190.7446343092915
 21
3042.4167363649931
  0
LINE
  8
_0-0_1
  6
CONTINUOUS
 62
    7
 10
3185.862434309292
 20
2977.3403363649932
 11
3172.7857343092915
 21
2977.3403363649932
  0
LINE
  8
_0-0_1
  6
CONTINUOUS
 62
    7
 10
3190.7446343092915
 20
3028.8343363649929
 11
3190.7446343092915
 21
2982.2228363649938
  0
LINE
  8
_0-0_1
  6
CONTINUOUS
 62
    7
 10
3131.5305343092923
 20
3060.3403363649936
 11
3185.862434309292
 21
3060.3403363649936
  0
LINE
  8
_0-0_1
  6
CONTINUOUS
 62
    7
 10
3107.744634309292
 20
3005.3052363649927
 11
3107.744634309292
 21
3055.4581363649932
  0
LINE
  8
_0-0_1
  6
CONTINUOUS
 62
    7
 10
3155.1244343092912
 20
2977.3403363649932
 11
3112.6269343092913
 21
2977.3403363649932
  0
LINE
  8
_0-0_1
  6
CONTINUOUS
 62
    7
 10
3190.3690343092912
 20
2937.2556363649933
 11
3190.7446343092915
 21
2937.8022363649939
  0
LINE
  8
_0-0_1
  6
CONTINUOUS
 62
    7
 10
3190.3690343092912
 20
2937.2556363649933
 11
3187.7384343092917
 21
2935.7944363649931
  0
LINE
  8
_0-0_1
  6
CONTINUOUS
 62
    7
 10
3187.7384343092917
 20
2935.7944363649931
 11
3181.9159343092911
 21
2933.7486363649932
  0
LINE
  8
_0-0_1
  6
CONTINUOUS
 62
    7
 10
3184.6044343092917
 20
2930.1565363649929
 11
3186.6900343092921
 21
2930.0573363649937
  0
LINE
  8
_0-0_1
  6
CONTINUOUS
 62
    7
 10
3186.6900343092921
 20
2930.0573363649937
 11
3188.7361343092921
 21
2929.7651363649929
  0
LINE
  8
_0-0_1
  6
CONTINUOUS
 62
    7
 10
3188.7361343092921
 20
2929.7651363649929
 11
3190.7446343092915
 21
2928.4868363649935
  0
LINE
  8
_0-0_1
  6
CONTINUOUS
 62
    7
 10
3154.9527343092914
 20
2885.5545363649931
 11
3156.7063343092918
 21
2880.7556363649933
  0
LINE
  8
_0-0_1
  6
CONTINUOUS
 62
    7
 10
3151.0184343092919
 20
2884.7914363649934
 11
3151.0184343092919
 21
2881.1733363649932
  0
LINE
  8
_0-0_1
  6
CONTINUOUS
 62
    7
 10
3151.0184343092919
 20
2881.1733363649932
 11
3150.7261343092914
 21
2879.4197363649932
  0
LINE
  8
_0-0_1
  6
CONTINUOUS
 62
    7
 10
3150.7261343092914
 20
2879.4197363649932
 11
3148.8449343092911
 21
2877.3402363649934
  0
LINE
  8
_0-0_1
  6
CONTINUOUS
 62
    7
 10
3121.6351343092911
 20
2909.9110363649934
 11
3115.5583343092912
 21
2909.4921363649933
  0
LINE
  8
_0-0_1
  6
CONTINUOUS
 62
    7
 10
3115.5583343092912
 20
2909.4921363649933
 11
3111.1744343092914
 21
2909.7843363649927
  0
LINE
  8
_0-0_1
  6
CONTINUOUS
 62
    7
 10
3111.1744343092914
 20
2909.7843363649927
 11
3108.5438343092915
 21
2910.3687363649938
  0
LINE
  8
_0-0_1
  6
CONTINUOUS
 62
    7
 10
3108.5438343092915
 20
2910.3687363649938
 11
3107.744634309292
 21
2911.1680363649934
  0
LINE
  8
_0-0_1
  6
CONTINUOUS
 62
    7
 10
3111.0920343092921
 20
2903.7619363649937
 11
3108.9355343092911
 21
2901.9974363649926
  0
LINE
  8
_0-0_1
  6
CONTINUOUS
 62
    7
 10
3108.9355343092911
 20
2901.9974363649926
 11
3107.744634309292
 21
2900.5682363649939
  0
LINE
  8
_0-0_1
  6
CONTINUOUS
 62
    7
 10
3147.6616343092919
 20
2960.3402363649939
 11
3146.9990343092918
 21
2958.3525363649933
  0
LINE
  8
_0-0_1
  6
CONTINUOUS
 62
    7
 10
3146.9990343092918
 20
2958.3525363649933
 11
3148.6811343092909
 21
2951.1431363649936
  0
LINE
  8
_0-0_1
  6
CONTINUOUS
 62
    7
 10
3145.5559343092914
 20
2947.6587363649933
 11
3142.3275343092919
 21
2955.0381363649931
  0
LINE
  8
_0-0_1
  6
CONTINUOUS
 62
    7
 10
3142.3275343092919
 20
2955.0381363649931
 11
3140.3483343092917
 21
2958.4307363649937
  0
LINE
  8
_0-0_1
  6
CONTINUOUS
 62
    7
 10
3140.3483343092917
 20
2958.4307363649937
 11
3139.0752343092909
 21
2960.3402363649939
  0
LINE
  8
_0-0_1
  6
CONTINUOUS
 62
    7
 10
3148.4277343092913
 20
2910.7226363649934
 11
3154.9527343092914
 21
2885.5545363649931
  0
LINE
  8
_0-0_1
  6
CONTINUOUS
 62
    7
 10
3145.6586343092922
 20
2905.4645363649938
 11
3151.0184343092919
 21
2884.7914363649934
  0
LINE
  8
_0-0_1
  6
CONTINUOUS
 62
    7
 10
3141.0357343092919
 20
2909.6485363649927
 11
3111.0920343092921
 21
2903.7619363649937
  0
LINE
  8
_0-0_1
  6
CONTINUOUS
 62
    7
 10
3142.7376343092915
 20
2914.0596363649929
 11
3121.6351343092911
 21
2909.9110363649934
  0
LINE
  8
_0-0_1
  6
CONTINUOUS
 62
    7
 10
3150.2679343092923
 20
2924.4330363649933
 11
3145.5856343092914
 21
2916.1925363649934
  0
LINE
  8
_0-0_1
  6
CONTINUOUS
 62
    7
 10
3154.6468343092915
 20
2924.043036364993
 11
3148.7206343092921
 21
2913.6129363649939
  0
LINE
  8
_0-0_1
  6
CONTINUOUS
 62
    7
 10
3155.5238343092919
 20
2925.0909363649935
 11
3184.6044343092917
 21
2930.1565363649929
  0
LINE
  8
_0-0_1
  6
CONTINUOUS
 62
    7
 10
3162.1831343092913
 20
2930.3112363649934
 11
3181.9159343092911
 21
2933.7486363649932
  0
LINE
  8
_0-0_1
  6
CONTINUOUS
 62
    7
 10
3154.9151343092917
 20
2930.5252363649929
 11
3148.6811343092909
 21
2951.1431363649936
  0
LINE
  8
_0-0_1
  6
CONTINUOUS
 62
    7
 10
3151.1715343092919
 20
2929.0861363649938
 11
3145.5559343092914
 21
2947.6587363649933
  0
LINE
  8
_0-0_1
  6
CONTINUOUS
 62
    7
 10
3148.7206343092921
 20
2913.6129363649939
 11
3148.3193343092908
 21
2912.2881363649931
  0
LINE
  8
_0-0_1
  6
CONTINUOUS
 62
    7
 10
3148.3193343092908
 20
2912.2881363649931
 11
3148.4277343092913
 21
2910.7226363649934
  0
LINE
  8
_0-0_1
  6
CONTINUOUS
 62
    7
 10
3141.0357343092919
 20
2909.6485363649927
 11
3143.5445343092915
 21
2909.7603363649932
  0
LINE
  8
_0-0_1
  6
CONTINUOUS
 62
    7
 10
3143.5445343092915
 20
2909.7603363649932
 11
3144.9487343092915
 21
2908.6367363649933
  0
LINE
  8
_0-0_1
  6
CONTINUOUS
 62
    7
 10
3144.9487343092915
 20
2908.6367363649933
 11
3145.6586343092922
 21
2905.4645363649938
  0
LINE
  8
_0-0_1
  6
CONTINUOUS
 62
    7
 10
3145.5856343092914
 20
2916.1925363649934
 11
3145.2295343092915
 21
2915.3779363649933
  0
LINE
  8
_0-0_1
  6
CONTINUOUS
 62
    7
 10
3145.2295343092915
 20
2915.3779363649933
 11
3143.825334309292
 21
2914.5351363649934
  0
LINE
  8
_0-0_1
  6
CONTINUOUS
 62
    7
 10
3143.825334309292
 20
2914.5351363649934
 11
3142.7376343092915
 21
2914.0596363649929
  0
LINE
  8
_0-0_1
  6
CONTINUOUS
 62
    7
 10
3151.1715343092919
 20
2929.0861363649938
 11
3151.1280343092922
 21
2927.4555363649933
  0
LINE
  8
_0-0_1
  6
CONTINUOUS
 62
    7
 10
3151.1280343092922
 20
2927.4555363649933
 11
3150.8471343092915
 21
2925.7704363649927
  0
LINE
  8
_0-0_1
  6
CONTINUOUS
 62
    7
 10
3150.8471343092915
 20
2925.7704363649927
 11
3150.2679343092923
 21
2924.4330363649933
  0
LINE
  8
_0-0_1
  6
CONTINUOUS
 62
    7
 10
3154.6468343092915
 20
2924.043036364993
 11
3155.5238343092919
 21
2925.0909363649935
  0
LINE
  8
_0-0_1
  6
CONTINUOUS
 62
    7
 10
3162.1831343092913
 20
2930.3112363649934
 11
3158.4309343092909
 21
2929.7027363649931
  0
LINE
  8
_0-0_1
  6
CONTINUOUS
 62
    7
 10
3158.4309343092909
 20
2929.7027363649931
 11
3156.4648343092908
 21
2929.7027363649931
  0
LINE
  8
_0-0_1
  6
CONTINUOUS
 62
    7
 10
3156.4648343092908
 20
2929.7027363649931
 11
3154.9151343092917
 21
2930.5252363649929
  0
LINE
  8
_0-0_1
  6
CONTINUOUS
 62
    7
 10
3156.7063343092918
 20
2880.7556363649933
 11
3157.5882343092912
 21
2878.8637363649927
  0
LINE
  8
_0-0_1
  6
CONTINUOUS
 62
    7
 10
3157.5882343092912
 20
2878.8637363649927
 11
3159.3291343092919
 21
2877.3402363649934
  0
LINE
  8
_0-0_1
  6
CONTINUOUS
 62
    7
 10
3107.744634309292
 20
2882.2227363649931
 11
3107.744634309292
 21
2900.5682363649939
  0
LINE
  8
_0-0_1
  6
CONTINUOUS
 62
    7
 10
3112.6269343092913
 20
2960.3402363649939
 11
3139.0752343092909
 21
2960.3402363649939
  0
LINE
  8
_0-0_1
  6
CONTINUOUS
 62
    7
 10
3190.7446343092915
 20
2955.4580363649934
 11
3190.7446343092915
 21
2937.8022363649939
  0
LINE
  8
_0-0_1
  6
CONTINUOUS
 62
    7
 10
3185.862434309292
 20
2877.3402363649934
 11
3159.3291343092919
 21
2877.3402363649934
  0
LINE
  8
_0-0_1
  6
CONTINUOUS
 62
    7
 10
3190.7446343092915
 20
2928.4868363649935
 11
3190.7446343092915
 21
2882.2227363649931
  0
LINE
  8
_0-0_1
  6
CONTINUOUS
 62
    7
 10
3147.6616343092919
 20
2960.3402363649939
 11
3185.862434309292
 21
2960.3402363649939
  0
LINE
  8
_0-0_1
  6
CONTINUOUS
 62
    7
 10
3107.744634309292
 20
2911.1680363649934
 11
3107.744634309292
 21
2955.4580363649934
  0
LINE
  8
_0-0_1
  6
CONTINUOUS
 62
    7
 10
3148.8449343092911
 20
2877.3402363649934
 11
3112.6269343092913
 21
2877.3402363649934
  0
LINE
  8
_0-0_1
  6
CONTINUOUS
 62
    7
 10
3267.6600343092923
 20
2774.7161363649939
 11
3268.2064343092925
 21
2774.3404363649934
  0
LINE
  8
_0-0_1
  6
CONTINUOUS
 62
    7
 10
3267.6600343092923
 20
2774.7161363649939
 11
3266.1986343092913
 21
2777.3463363649935
  0
LINE
  8
_0-0_1
  6
CONTINUOUS
 62
    7
 10
3266.1986343092913
 20
2777.3463363649935
 11
3264.1528343092909
 21
2783.1691363649934
  0
LINE
  8
_0-0_1
  6
CONTINUOUS
 62
    7
 10
3260.5610343092912
 20
2780.4807363649938
 11
3260.4615343092919
 21
2778.3947363649932
  0
LINE
  8
_0-0_1
  6
CONTINUOUS
 62
    7
 10
3260.4615343092919
 20
2778.3947363649932
 11
3260.1693343092916
 21
2776.3489363649933
  0
LINE
  8
_0-0_1
  6
CONTINUOUS
 62
    7
 10
3260.1693343092916
 20
2776.3489363649933
 11
3258.8910343092921
 21
2774.3404363649934
  0
LINE
  8
_0-0_1
  6
CONTINUOUS
 62
    7
 10
3215.9590343092914
 20
2810.1321363649936
 11
3211.1599343092917
 21
2808.3788363649933
  0
LINE
  8
_0-0_1
  6
CONTINUOUS
 62
    7
 10
3215.1956343092911
 20
2814.0667363649932
 11
3211.5775343092919
 21
2814.0667363649932
  0
LINE
  8
_0-0_1
  6
CONTINUOUS
 62
    7
 10
3211.5775343092919
 20
2814.0667363649932
 11
3209.8239343092919
 21
2814.3589363649926
  0
LINE
  8
_0-0_1
  6
CONTINUOUS
 62
    7
 10
3209.8239343092919
 20
2814.3589363649926
 11
3207.7447343092917
 21
2816.2402363649926
  0
LINE
  8
_0-0_1
  6
CONTINUOUS
 62
    7
 10
3240.3154343092915
 20
2843.4496363649937
 11
3239.8963343092919
 21
2849.5265363649933
  0
LINE
  8
_0-0_1
  6
CONTINUOUS
 62
    7
 10
3239.8963343092919
 20
2849.5265363649933
 11
3240.1885343092913
 21
2853.9107363649928
  0
LINE
  8
_0-0_1
  6
CONTINUOUS
 62
    7
 10
3240.1885343092913
 20
2853.9107363649928
 11
3240.7730343092912
 21
2856.5409363649942
  0
LINE
  8
_0-0_1
  6
CONTINUOUS
 62
    7
 10
3240.7730343092912
 20
2856.5409363649942
 11
3241.5724343092916
 21
2857.3404363649929
  0
LINE
  8
_0-0_1
  6
CONTINUOUS
 62
    7
 10
3234.1661343092915
 20
2853.9928363649933
 11
3232.4016343092917
 21
2856.1495363649929
  0
LINE
  8
_0-0_1
  6
CONTINUOUS
 62
    7
 10
3232.4016343092917
 20
2856.1495363649929
 11
3230.9726343092916
 21
2857.3404363649929
  0
LINE
  8
_0-0_1
  6
CONTINUOUS
 62
    7
 10
3290.7447343092917
 20
2817.4234363649934
 11
3288.756734309291
 21
2818.0861363649933
  0
LINE
  8
_0-0_1
  6
CONTINUOUS
 62
    7
 10
3288.756734309291
 20
2818.0861363649933
 11
3281.547634309291
 21
2816.4037363649932
  0
LINE
  8
_0-0_1
  6
CONTINUOUS
 62
    7
 10
3278.0631343092914
 20
2819.529136364994
 11
3285.4423343092908
 21
2822.7575363649926
  0
LINE
  8
_0-0_1
  6
CONTINUOUS
 62
    7
 10
3285.4423343092908
 20
2822.7575363649926
 11
3288.835234309292
 21
2824.7368363649935
  0
LINE
  8
_0-0_1
  6
CONTINUOUS
 62
    7
 10
3288.835234309292
 20
2824.7368363649935
 11
3290.7447343092917
 21
2826.0096363649932
  0
LINE
  8
_0-0_1
  6
CONTINUOUS
 62
    7
 10
3241.1271343092922
 20
2816.6574363649938
 11
3215.9590343092914
 21
2810.1321363649936
  0
LINE
  8
_0-0_1
  6
CONTINUOUS
 62
    7
 10
3235.8687343092924
 20
2819.4262363649932
 11
3215.1956343092911
 21
2814.0667363649932
  0
LINE
  8
_0-0_1
  6
CONTINUOUS
 62
    7
 10
3240.0529343092921
 20
2824.049136364993
 11
3234.1661343092915
 21
2853.9928363649933
  0
LINE
  8
_0-0_1
  6
CONTINUOUS
 62
    7
 10
3244.4640343092915
 20
2822.3475363649932
 11
3240.3154343092915
 21
2843.4496363649937
  0
LINE
  8
_0-0_1
  6
CONTINUOUS
 62
    7
 10
3254.837234309291
 20
2814.8171363649931
 11
3246.5967343092916
 21
2819.4992363649935
  0
LINE
  8
_0-0_1
  6
CONTINUOUS
 62
    7
 10
3254.4475343092918
 20
2810.4382363649934
 11
3244.0171343092925
 21
2816.3644363649933
  0
LINE
  8
_0-0_1
  6
CONTINUOUS
 62
    7
 10
3255.4951343092916
 20
2809.5613363649932
 11
3260.5610343092912
 21
2780.4807363649938
  0
LINE
  8
_0-0_1
  6
CONTINUOUS
 62
    7
 10
3260.7154343092911
 20
2802.9019363649932
 11
3264.1528343092909
 21
2783.1691363649934
  0
LINE
  8
_0-0_1
  6
CONTINUOUS
 62
    7
 10
3260.9297343092908
 20
2810.1697363649937
 11
3281.547634309291
 21
2816.4037363649932
  0
LINE
  8
_0-0_1
  6
CONTINUOUS
 62
    7
 10
3259.4903343092915
 20
2813.9135363649939
 11
3278.0631343092914
 21
2819.529136364994
  0
LINE
  8
_0-0_1
  6
CONTINUOUS
 62
    7
 10
3244.0171343092925
 20
2816.3644363649933
 11
3242.6924343092924
 21
2816.7657363649932
  0
LINE
  8
_0-0_1
  6
CONTINUOUS
 62
    7
 10
3242.6924343092924
 20
2816.7657363649932
 11
3241.1271343092922
 21
2816.6574363649938
  0
LINE
  8
_0-0_1
  6
CONTINUOUS
 62
    7
 10
3240.0529343092921
 20
2824.049136364993
 11
3240.1645343092923
 21
2821.5406363649931
  0
LINE
  8
_0-0_1
  6
CONTINUOUS
 62
    7
 10
3240.1645343092923
 20
2821.5406363649931
 11
3239.0411343092915
 21
2820.136136364993
  0
LINE
  8
_0-0_1
  6
CONTINUOUS
 62
    7
 10
3239.0411343092915
 20
2820.136136364993
 11
3235.8687343092924
 21
2819.4262363649932
  0
LINE
  8
_0-0_1
  6
CONTINUOUS
 62
    7
 10
3246.5967343092916
 20
2819.4992363649935
 11
3245.7821343092919
 21
2819.8553363649926
  0
LINE
  8
_0-0_1
  6
CONTINUOUS
 62
    7
 10
3245.7821343092919
 20
2819.8553363649926
 11
3244.9394343092918
 21
2821.2597363649934
  0
LINE
  8
_0-0_1
  6
CONTINUOUS
 62
    7
 10
3244.9394343092918
 20
2821.2597363649934
 11
3244.4640343092915
 21
2822.3475363649932
  0
LINE
  8
_0-0_1
  6
CONTINUOUS
 62
    7
 10
3259.4903343092915
 20
2813.9135363649939
 11
3257.8599343092919
 21
2813.9568363649933
  0
LINE
  8
_0-0_1
  6
CONTINUOUS
 62
    7
 10
3257.8599343092919
 20
2813.9568363649933
 11
3256.1746343092914
 21
2814.2376363649928
  0
LINE
  8
_0-0_1
  6
CONTINUOUS
 62
    7
 10
3256.1746343092914
 20
2814.2376363649928
 11
3254.837234309291
 21
2814.8171363649931
  0
LINE
  8
_0-0_1
  6
CONTINUOUS
 62
    7
 10
3254.4475343092918
 20
2810.4382363649934
 11
3255.4951343092916
 21
2809.5613363649932
  0
LINE
  8
_0-0_1
  6
CONTINUOUS
 62
    7
 10
3260.7154343092911
 20
2802.9019363649932
 11
3260.1069343092922
 21
2806.6541363649931
  0
LINE
  8
_0-0_1
  6
CONTINUOUS
 62
    7
 10
3260.1069343092922
 20
2806.6541363649931
 11
3260.1069343092922
 21
2808.6203363649929
  0
LINE
  8
_0-0_1
  6
CONTINUOUS
 62
    7
 10
3260.1069343092922
 20
2808.6203363649929
 11
3260.9297343092908
 21
2810.1697363649937
  0
LINE
  8
_0-0_1
  6
CONTINUOUS
 62
    7
 10
3211.1599343092917
 20
2808.3788363649933
 11
3209.2679343092909
 21
2807.4966363649937
  0
LINE
  8
_0-0_1
  6
CONTINUOUS
 62
    7
 10
3209.2679343092909
 20
2807.4966363649937
 11
3207.7447343092917
 21
2805.7556363649933
  0
LINE
  8
_0-0_1
  6
CONTINUOUS
 62
    7
 10
3212.6269343092913
 20
2857.3404363649929
 11
3230.9726343092916
 21
2857.3404363649929
  0
LINE
  8
_0-0_1
  6
CONTINUOUS
 62
    7
 10
3290.7447343092917
 20
2852.4579363649937
 11
3290.7447343092917
 21
2826.0096363649932
  0
LINE
  8
_0-0_1
  6
CONTINUOUS
 62
    7
 10
3285.862234309292
 20
2774.3404363649934
 11
3268.2064343092925
 21
2774.3404363649934
  0
LINE
  8
_0-0_1
  6
CONTINUOUS
 62
    7
 10
3207.7447343092917
 20
2779.2227363649931
 11
3207.7447343092917
 21
2805.7556363649933
  0
LINE
  8
_0-0_1
  6
CONTINUOUS
 62
    7
 10
3258.8910343092921
 20
2774.3404363649934
 11
3212.6269343092913
 21
2774.3404363649934
  0
LINE
  8
_0-0_1
  6
CONTINUOUS
 62
    7
 10
3290.7447343092917
 20
2817.4234363649934
 11
3290.7447343092917
 21
2779.2227363649931
  0
LINE
  8
_0-0_1
  6
CONTINUOUS
 62
    7
 10
3241.5724343092916
 20
2857.3404363649929
 11
3285.862234309292
 21
2857.3404363649929
  0
LINE
  8
_0-0_1
  6
CONTINUOUS
 62
    7
 10
3207.7447343092917
 20
2816.2402363649926
 11
3207.7447343092917
 21
2852.4579363649937
  0
LINE
  8
_0-0_1
  6
CONTINUOUS
 62
    7
 10
3265.9081343092907
 20
2896.1551363649933
 11
3261.7252343092923
 21
2920.9042363649928
  0
LINE
  8
_0-0_1
  6
CONTINUOUS
 62
    7
 10
3256.8194343092914
 20
2919.9269363649933
 11
3261.4112343092916
 21
2892.757736364993
  0
LINE
  8
_0-0_1
  6
CONTINUOUS
 62
    7
 10
3281.9390343092914
 20
2936.0050363649934
 11
3262.8317343092908
 21
2922.9595363649928
  0
LINE
  8
_0-0_1
  6
CONTINUOUS
 62
    7
 10
3283.2416343092918
 20
2942.9487363649928
 11
3261.052134309291
 21
2927.7987363649931
  0
LINE
  8
_0-0_1
  6
CONTINUOUS
 62
    7
 10
3256.7412343092919
 20
2927.6608363649934
 11
3245.7109343092911
 21
2935.1894363649926
  0
LINE
  8
_0-0_1
  6
CONTINUOUS
 62
    7
 10
3255.6963343092912
 20
2922.3203363649927
 11
3244.5830343092912
 21
2929.9056363649934
  0
LINE
  8
_0-0_1
  6
CONTINUOUS
 62
    7
 10
3241.2436343092913
 20
2929.8856363649938
 11
3220.3579343092924
 21
2911.7180363649936
  0
LINE
  8
_0-0_1
  6
CONTINUOUS
 62
    7
 10
3236.8832343092913
 20
2932.7197363649934
 11
3214.7492343092918
 21
2913.4662363649927
  0
LINE
  8
_0-0_1
  6
CONTINUOUS
 62
    7
 10
3238.3777343092925
 20
2937.0044363649931
 11
3230.4970343092918
 21
2952.5342363649934
  0
LINE
  8
_0-0_1
  6
CONTINUOUS
 62
    7
 10
3243.6885343092918
 20
2937.5879363649933
 11
3238.4215343092915
 21
2947.9670363649939
  0
LINE
  8
_0-0_1
  6
CONTINUOUS
 62
    7
 10
3244.5830343092912
 20
2929.9056363649934
 11
3243.0153343092911
 21
2930.3688363649926
  0
LINE
  8
_0-0_1
  6
CONTINUOUS
 62
    7
 10
3243.0153343092911
 20
2930.3688363649926
 11
3241.2436343092913
 21
2929.8856363649938
  0
LINE
  8
_0-0_1
  6
CONTINUOUS
 62
    7
 10
3236.8832343092913
 20
2932.7197363649934
 11
3238.3906343092917
 21
2934.5840363649932
  0
LINE
  8
_0-0_1
  6
CONTINUOUS
 62
    7
 10
3238.6551343092915
 20
2935.6180363649928
 11
3238.3777343092925
 21
2937.0044363649931
  0
LINE
  8
_0-0_1
  6
CONTINUOUS
 62
    7
 10
3245.7109343092911
 20
2935.1894363649926
 11
3243.6885343092918
 21
2937.5879363649933
  0
LINE
  8
_0-0_1
  6
CONTINUOUS
 62
    7
 10
3238.3906343092917
 20
2934.5840363649932
 11
3238.6551343092915
 21
2935.6180363649928
  0
LINE
  8
_0-0_1
  6
CONTINUOUS
 62
    7
 10
3256.8194343092914
 20
2919.9269363649933
 11
3256.3006343092916
 21
2921.5483363649937
  0
LINE
  8
_0-0_1
  6
CONTINUOUS
 62
    7
 10
3256.3006343092916
 20
2921.5483363649937
 11
3255.6963343092912
 21
2922.3203363649927
  0
LINE
  8
_0-0_1
  6
CONTINUOUS
 62
    7
 10
3261.052134309291
 20
2927.7987363649931
 11
3258.8051343092916
 21
2926.9930363649937
  0
LINE
  8
_0-0_1
  6
CONTINUOUS
 62
    7
 10
3258.8051343092916
 20
2926.9930363649937
 11
3256.7412343092919
 21
2927.6608363649934
  0
LINE
  8
_0-0_1
  6
CONTINUOUS
 62
    7
 10
3262.8317343092908
 20
2922.9595363649928
 11
3261.7252343092923
 21
2920.9042363649928
  0
LINE
  8
_0-0_1
  6
CONTINUOUS
 62
    7
 10
3290.7447343092917
 20
2936.5543363649927
 11
3289.4221343092909
 21
2938.5769363649938
  0
LINE
  8
_0-0_1
  6
CONTINUOUS
 62
    7
 10
3289.4221343092909
 20
2938.5769363649938
 11
3288.1201343092916
 21
2938.9025363649935
  0
LINE
  8
_0-0_1
  6
CONTINUOUS
 62
    7
 10
3288.1201343092916
 20
2938.9025363649935
 11
3281.9390343092914
 21
2936.0050363649934
  0
LINE
  8
_0-0_1
  6
CONTINUOUS
 62
    7
 10
3290.7447343092917
 20
2952.3096363649938
 11
3290.0731343092912
 21
2950.2954363649928
  0
LINE
  8
_0-0_1
  6
CONTINUOUS
 62
    7
 10
3290.0731343092912
 20
2950.2954363649928
 11
3288.1201343092916
 21
2947.0403363649934
  0
LINE
  8
_0-0_1
  6
CONTINUOUS
 62
    7
 10
3288.1201343092916
 20
2947.0403363649934
 11
3283.2416343092918
 21
2942.9487363649928
  0
LINE
  8
_0-0_1
  6
CONTINUOUS
 62
    7
 10
3272.8209343092922
 20
2877.3801363649927
 11
3270.542534309292
 21
2879.3334363649933
  0
LINE
  8
_0-0_1
  6
CONTINUOUS
 62
    7
 10
3270.542534309292
 20
2879.3334363649933
 11
3269.2402343092913
 21
2881.9374363649931
  0
LINE
  8
_0-0_1
  6
CONTINUOUS
 62
    7
 10
3269.2402343092913
 20
2881.9374363649931
 11
3265.9081343092907
 21
2896.1551363649933
  0
LINE
  8
_0-0_1
  6
CONTINUOUS
 62
    7
 10
3261.4112343092916
 20
2892.757736364993
 11
3261.7534343092912
 21
2887.7965363649937
  0
LINE
  8
_0-0_1
  6
CONTINUOUS
 62
    7
 10
3261.7534343092912
 20
2887.7965363649937
 11
3262.0790343092922
 21
2881.9374363649931
  0
LINE
  8
_0-0_1
  6
CONTINUOUS
 62
    7
 10
3262.0790343092922
 20
2881.9374363649931
 11
3261.7534343092912
 21
2879.6587363649942
  0
LINE
  8
_0-0_1
  6
CONTINUOUS
 62
    7
 10
3261.7534343092912
 20
2879.6587363649942
 11
3260.1260343092918
 21
2877.7057363649928
  0
LINE
  8
_0-0_1
  6
CONTINUOUS
 62
    7
 10
3260.1260343092918
 20
2877.7057363649928
 11
3259.2387343092914
 21
2877.3402363649934
  0
LINE
  8
_0-0_1
  6
CONTINUOUS
 62
    7
 10
3238.4215343092915
 20
2947.9670363649939
 11
3236.0377343092923
 21
2954.2017363649929
  0
LINE
  8
_0-0_1
  6
CONTINUOUS
 62
    7
 10
3236.0377343092923
 20
2954.2017363649929
 11
3235.0613343092914
 21
2957.782236364993
  0
LINE
  8
_0-0_1
  6
CONTINUOUS
 62
    7
 10
3235.0613343092914
 20
2957.782236364993
 11
3235.0613343092914
 21
2959.7355363649931
  0
LINE
  8
_0-0_1
  6
CONTINUOUS
 62
    7
 10
3235.0613343092914
 20
2959.7355363649931
 11
3235.7094343092913
 21
2960.3402363649939
  0
LINE
  8
_0-0_1
  6
CONTINUOUS
 62
    7
 10
3230.4970343092918
 20
2952.5342363649934
 11
3228.8766343092907
 21
2955.1781363649934
  0
LINE
  8
_0-0_1
  6
CONTINUOUS
 62
    7
 10
3228.8766343092907
 20
2955.1781363649934
 11
3225.946934309291
 21
2959.7355363649931
  0
LINE
  8
_0-0_1
  6
CONTINUOUS
 62
    7
 10
3225.946934309291
 20
2959.7355363649931
 11
3224.996234309292
 21
2960.3402363649939
  0
LINE
  8
_0-0_1
  6
CONTINUOUS
 62
    7
 10
3220.3579343092924
 20
2911.7180363649936
 11
3210.6477343092915
 21
2901.4683363649929
  0
LINE
  8
_0-0_1
  6
CONTINUOUS
 62
    7
 10
3210.6477343092915
 20
2901.4683363649929
 11
3207.7447343092917
 21
2895.2994363649932
  0
LINE
  8
_0-0_1
  6
CONTINUOUS
 62
    7
 10
3214.7492343092918
 20
2913.4662363649927
 11
3210.9733343092912
 21
2911.8848363649927
  0
LINE
  8
_0-0_1
  6
CONTINUOUS
 62
    7
 10
3210.9733343092912
 20
2911.8848363649927
 11
3209.0200343092915
 21
2912.2102363649938
  0
LINE
  8
_0-0_1
  6
CONTINUOUS
 62
    7
 10
3209.0200343092915
 20
2912.2102363649938
 11
3207.7447343092917
 21
2912.9604363649933
  0
LINE
  8
_0-0_1
  6
CONTINUOUS
 62
    7
 10
3212.6269343092913
 20
2960.3402363649939
 11
3224.996234309292
 21
2960.3402363649939
  0
LINE
  8
_0-0_1
  6
CONTINUOUS
 62
    7
 10
3290.7447343092917
 20
2955.4580363649934
 11
3290.7447343092917
 21
2952.3096363649938
  0
LINE
  8
_0-0_1
  6
CONTINUOUS
 62
    7
 10
3285.862234309292
 20
2877.3402363649934
 11
3272.8209343092922
 21
2877.3402363649934
  0
LINE
  8
_0-0_1
  6
CONTINUOUS
 62
    7
 10
3207.7447343092917
 20
2882.2227363649931
 11
3207.7447343092917
 21
2895.2994363649932
  0
LINE
  8
_0-0_1
  6
CONTINUOUS
 62
    7
 10
3259.2387343092914
 20
2877.3402363649934
 11
3212.6269343092913
 21
2877.3402363649934
  0
LINE
  8
_0-0_1
  6
CONTINUOUS
 62
    7
 10
3290.7447343092917
 20
2936.5543363649927
 11
3290.7447343092917
 21
2882.2227363649931
  0
LINE
  8
_0-0_1
  6
CONTINUOUS
 62
    7
 10
3235.7094343092913
 20
2960.3402363649939
 11
3285.862234309292
 21
2960.3402363649939
  0
LINE
  8
_0-0_1
  6
CONTINUOUS
 62
    7
 10
3207.7447343092917
 20
2912.9604363649933
 11
3207.7447343092917
 21
2955.4580363649934
  0
LINE
  8
_0-0_1
  6
CONTINUOUS
 62
    7
 10
3971.0812343092907
 20
2680.3389363649931
 11
3973.9545343092914
 21
2677.8488363649931
  0
LINE
  8
_0-0_1
  6
CONTINUOUS
 62
    7
 10
3973.9545343092914
 20
2677.8488363649931
 11
3978.4005343092917
 21
2675.4547363649931
  0
LINE
  8
_0-0_1
  6
CONTINUOUS
 62
    7
 10
3978.4005343092917
 20
2675.4547363649931
 11
3981.9030343092913
 21
2674.3404363649934
  0
LINE
  8
_0-0_1
  6
CONTINUOUS
 62
    7
 10
3964.464734309292
 20
2680.636136364993
 11
3965.3047343092908
 21
2678.5955363649928
  0
LINE
  8
_0-0_1
  6
CONTINUOUS
 62
    7
 10
3965.3047343092908
 20
2678.5955363649928
 11
3965.9889343092914
 21
2676.5434363649933
  0
LINE
  8
_0-0_1
  6
CONTINUOUS
 62
    7
 10
3965.9889343092914
 20
2676.5434363649933
 11
3965.9889343092914
 21
2675.1755363649931
  0
LINE
  8
_0-0_1
  6
CONTINUOUS
 62
    7
 10
3915.9882343092922
 20
2695.475636364994
 11
3911.8644343092915
 21
2693.1559363649931
  0
LINE
  8
_0-0_1
  6
CONTINUOUS
 62
    7
 10
3911.8644343092915
 20
2693.1559363649931
 11
3910.1543343092912
 21
2691.7880363649929
  0
LINE
  8
_0-0_1
  6
CONTINUOUS
 62
    7
 10
3910.1543343092912
 20
2691.7880363649929
 11
3907.7445343092909
 21
2686.1650363649933
  0
LINE
  8
_0-0_1
  6
CONTINUOUS
 62
    7
 10
3918.2132343092917
 20
2701.9506363649934
 11
3915.2177343092917
 21
2700.9087363649933
  0
LINE
  8
_0-0_1
  6
CONTINUOUS
 62
    7
 10
3915.2177343092917
 20
2700.9087363649933
 11
3910.7717343092918
 21
2699.5406363649936
  0
LINE
  8
_0-0_1
  6
CONTINUOUS
 62
    7
 10
3910.7717343092918
 20
2699.5406363649936
 11
3908.0358343092912
 21
2699.8827363649934
  0
LINE
  8
_0-0_1
  6
CONTINUOUS
 62
    7
 10
3908.0358343092912
 20
2699.8827363649934
 11
3907.7445343092909
 21
2700.0863363649933
  0
LINE
  8
_0-0_1
  6
CONTINUOUS
 62
    7
 10
3931.3696343092915
 20
2748.4382363649934
 11
3927.6620343092918
 21
2752.4989363649929
  0
LINE
  8
_0-0_1
  6
CONTINUOUS
 62
    7
 10
3927.6620343092918
 20
2752.4989363649929
 11
3923.5579343092913
 21
2754.8932363649928
  0
LINE
  8
_0-0_1
  6
CONTINUOUS
 62
    7
 10
3923.5579343092913
 20
2754.8932363649928
 11
3919.1119343092914
 21
2756.6030363649943
  0
LINE
  8
_0-0_1
  6
CONTINUOUS
 62
    7
 10
3916.8330343092907
 20
2757.3403363649932
 11
3919.1119343092914
 21
2756.6030363649943
  0
LINE
  8
_0-0_1
  6
CONTINUOUS
 62
    7
 10
3933.9625343092912
 20
2757.3403363649932
 11
3933.9625343092912
 21
2755.1109363649939
  0
LINE
  8
_0-0_1
  6
CONTINUOUS
 62
    7
 10
3933.9625343092912
 20
2755.1109363649939
 11
3935.083434309292
 21
2751.8727363649937
  0
LINE
  8
_0-0_1
  6
CONTINUOUS
 62
    7
 10
3990.7445343092922
 20
2745.4954363649931
 11
3988.8306343092918
 21
2743.6876363649931
  0
LINE
  8
_0-0_1
  6
CONTINUOUS
 62
    7
 10
3988.8306343092918
 20
2743.6876363649931
 11
3984.0424343092918
 21
2741.6356363649938
  0
LINE
  8
_0-0_1
  6
CONTINUOUS
 62
    7
 10
3984.0424343092918
 20
2741.6356363649938
 11
3980.4179343092915
 21
2740.1529363649934
  0
LINE
  8
_0-0_1
  6
CONTINUOUS
 62
    7
 10
3990.7445343092922
 20
2733.0378363649934
 11
3989.759234309292
 21
2733.8259363649931
  0
LINE
  8
_0-0_1
  6
CONTINUOUS
 62
    7
 10
3989.759234309292
 20
2733.8259363649931
 11
3987.3652343092913
 21
2735.1940363649928
  0
LINE
  8
_0-0_1
  6
CONTINUOUS
 62
    7
 10
3987.3652343092913
 20
2735.1940363649928
 11
3984.2873343092924
 21
2735.1940363649928
  0
LINE
  8
_0-0_1
  6
CONTINUOUS
 62
    7
 10
3984.2873343092924
 20
2735.1940363649928
 11
3974.2338343092911
 21
2733.4347363649931
  0
LINE
  8
_0-0_1
  6
CONTINUOUS
 62
    7
 10
3948.5649343092919
 20
2708.7363363649933
 11
3971.0812343092907
 21
2680.3389363649931
  0
LINE
  8
_0-0_1
  6
CONTINUOUS
 62
    7
 10
3944.8316343092915
 20
2705.397136364993
 11
3964.464734309292
 21
2680.636136364993
  0
LINE
  8
_0-0_1
  6
CONTINUOUS
 62
    7
 10
3940.0382343092911
 20
2706.2464363649933
 11
3915.9882343092922
 21
2695.475636364994
  0
LINE
  8
_0-0_1
  6
CONTINUOUS
 62
    7
 10
3939.2827343092922
 20
2711.3867363649933
 11
3918.2132343092917
 21
2701.9506363649934
  0
LINE
  8
_0-0_1
  6
CONTINUOUS
 62
    7
 10
3944.3315343092918
 20
2726.6762363649932
 11
3942.1555343092923
 21
2715.2528363649931
  0
LINE
  8
_0-0_1
  6
CONTINUOUS
 62
    7
 10
3949.0784343092919
 20
2724.8752363649928
 11
3946.8274343092912
 21
2713.0579363649931
  0
LINE
  8
_0-0_1
  6
CONTINUOUS
 62
    7
 10
3974.2338343092911
 20
2733.4347363649931
 11
3951.5624343092913
 21
2727.7107363649934
  0
LINE
  8
_0-0_1
  6
CONTINUOUS
 62
    7
 10
3980.4179343092915
 20
2740.1529363649934
 11
3949.3644343092915
 21
2732.3125363649933
  0
LINE
  8
_0-0_1
  6
CONTINUOUS
 62
    7
 10
3947.5682343092913
 20
2733.3901363649929
 11
3935.083434309292
 21
2751.8727363649937
  0
LINE
  8
_0-0_1
  6
CONTINUOUS
 62
    7
 10
3944.0170343092909
 20
2729.7152363649934
 11
3931.3696343092915
 21
2748.4382363649934
  0
LINE
  8
_0-0_1
  6
CONTINUOUS
 62
    7
 10
3950.3252343092913
 20
2727.0919363649932
 11
3949.0784343092919
 21
2724.8752363649928
  0
LINE
  8
_0-0_1
  6
CONTINUOUS
 62
    7
 10
3951.5624343092913
 20
2727.7107363649934
 11
3950.3252343092913
 21
2727.0919363649932
  0
LINE
  8
_0-0_1
  6
CONTINUOUS
 62
    7
 10
3947.5682343092913
 20
2733.3901363649929
 11
3949.3644343092915
 21
2732.3125363649933
  0
LINE
  8
_0-0_1
  6
CONTINUOUS
 62
    7
 10
3944.0170343092909
 20
2729.7152363649934
 11
3944.3315343092918
 21
2726.6762363649932
  0
LINE
  8
_0-0_1
  6
CONTINUOUS
 62
    7
 10
3947.0278343092923
 20
2711.5544363649933
 11
3948.5649343092919
 21
2708.7363363649933
  0
LINE
  8
_0-0_1
  6
CONTINUOUS
 62
    7
 10
3946.8274343092912
 20
2713.0579363649931
 11
3947.0278343092923
 21
2711.5544363649933
  0
LINE
  8
_0-0_1
  6
CONTINUOUS
 62
    7
 10
3942.1555343092923
 20
2715.2528363649931
 11
3941.3355343092917
 21
2713.0662363649931
  0
LINE
  8
_0-0_1
  6
CONTINUOUS
 62
    7
 10
3941.3355343092917
 20
2713.0662363649931
 11
3939.2827343092922
 21
2711.3867363649933
  0
LINE
  8
_0-0_1
  6
CONTINUOUS
 62
    7
 10
3942.4136343092914
 20
2706.7743363649934
 11
3940.0382343092911
 21
2706.2464363649933
  0
LINE
  8
_0-0_1
  6
CONTINUOUS
 62
    7
 10
3943.240534309291
 20
2706.4986363649928
 11
3942.4136343092914
 21
2706.7743363649934
  0
LINE
  8
_0-0_1
  6
CONTINUOUS
 62
    7
 10
3944.8316343092915
 20
2705.397136364993
 11
3943.240534309291
 21
2706.4986363649928
  0
LINE
  8
_0-0_1
  6
CONTINUOUS
 62
    7
 10
3965.9889343092914
 20
2675.1755363649931
 11
3965.3366343092921
 21
2674.3404363649934
  0
LINE
  8
_0-0_1
  6
CONTINUOUS
 62
    7
 10
3907.7445343092909
 20
2752.4581363649932
 11
3907.7445343092909
 21
2700.0863363649933
  0
LINE
  8
_0-0_1
  6
CONTINUOUS
 62
    7
 10
3912.6270343092915
 20
2674.3404363649934
 11
3965.3366343092921
 21
2674.3404363649934
  0
LINE
  8
_0-0_1
  6
CONTINUOUS
 62
    7
 10
3990.7445343092922
 20
2679.2227363649931
 11
3990.7445343092922
 21
2733.0378363649934
  0
LINE
  8
_0-0_1
  6
CONTINUOUS
 62
    7
 10
3985.8623343092909
 20
2757.3403363649932
 11
3933.9625343092912
 21
2757.3403363649932
  0
LINE
  8
_0-0_1
  6
CONTINUOUS
 62
    7
 10
3990.7445343092922
 20
2745.4954363649931
 11
3990.7445343092922
 21
2752.4581363649932
  0
LINE
  8
_0-0_1
  6
CONTINUOUS
 62
    7
 10
3916.8330343092907
 20
2757.3403363649932
 11
3912.6270343092915
 21
2757.3403363649932
  0
LINE
  8
_0-0_1
  6
CONTINUOUS
 62
    7
 10
3907.7445343092909
 20
2686.1650363649933
 11
3907.7445343092909
 21
2679.2227363649931
  0
LINE
  8
_0-0_1
  6
CONTINUOUS
 62
    7
 10
3981.9030343092913
 20
2674.3404363649934
 11
3985.8623343092909
 21
2674.3404363649934
  0
LINE
  8
_0-0_1
  6
CONTINUOUS
 62
    7
 10
3954.4651343092914
 20
2785.1743363649935
 11
3957.2624343092912
 21
2777.4817363649927
  0
LINE
  8
_0-0_1
  6
CONTINUOUS
 62
    7
 10
3957.2624343092912
 20
2777.4817363649927
 11
3958.6761343092912
 21
2774.9370363649928
  0
LINE
  8
_0-0_1
  6
CONTINUOUS
 62
    7
 10
3958.6761343092912
 20
2774.9370363649928
 11
3959.5441343092916
 21
2774.3404363649934
  0
LINE
  8
_0-0_1
  6
CONTINUOUS
 62
    7
 10
3949.5963343092917
 20
2787.8222363649938
 11
3951.0423343092912
 21
2780.5918363649935
  0
LINE
  8
_0-0_1
  6
CONTINUOUS
 62
    7
 10
3951.0423343092912
 20
2780.5918363649935
 11
3951.8905343092911
 21
2776.3506363649922
  0
LINE
  8
_0-0_1
  6
CONTINUOUS
 62
    7
 10
3951.8905343092911
 20
2776.3506363649922
 11
3951.6077343092916
 21
2774.6544363649937
  0
LINE
  8
_0-0_1
  6
CONTINUOUS
 62
    7
 10
3951.6077343092916
 20
2774.6544363649937
 11
3951.3330343092916
 21
2774.3404363649934
  0
LINE
  8
_0-0_1
  6
CONTINUOUS
 62
    7
 10
3921.0682343092913
 20
2806.5222363649937
 11
3913.7207343092923
 21
2806.3210363649932
  0
LINE
  8
_0-0_1
  6
CONTINUOUS
 62
    7
 10
3913.7207343092923
 20
2806.3210363649932
 11
3910.6106343092915
 21
2806.0382363649933
  0
LINE
  8
_0-0_1
  6
CONTINUOUS
 62
    7
 10
3910.6106343092915
 20
2806.0382363649933
 11
3908.6316343092922
 21
2805.4728363649933
  0
LINE
  8
_0-0_1
  6
CONTINUOUS
 62
    7
 10
3908.6316343092922
 20
2805.4728363649933
 11
3907.7445343092909
 21
2804.0790363649926
  0
LINE
  8
_0-0_1
  6
CONTINUOUS
 62
    7
 10
3907.7445343092909
 20
2813.3325363649928
 11
3908.3488343092922
 21
2812.258436364993
  0
LINE
  8
_0-0_1
  6
CONTINUOUS
 62
    7
 10
3908.3488343092922
 20
2812.258436364993
 11
3910.6106343092915
 21
2811.1276363649931
  0
LINE
  8
_0-0_1
  6
CONTINUOUS
 62
    7
 10
3910.6106343092915
 20
2811.1276363649931
 11
3913.6635343092917
 21
2810.806136364994
  0
LINE
  8
_0-0_1
  6
CONTINUOUS
 62
    7
 10
3990.7445343092922
 20
2825.6990363649938
 11
3989.4947343092917
 21
2824.6989363649932
  0
LINE
  8
_0-0_1
  6
CONTINUOUS
 62
    7
 10
3989.4947343092917
 20
2824.6989363649932
 11
3987.5154343092913
 21
2824.4163363649932
  0
LINE
  8
_0-0_1
  6
CONTINUOUS
 62
    7
 10
3987.5154343092913
 20
2824.4163363649932
 11
3982.4766343092915
 21
2824.0687363649931
  0
LINE
  8
_0-0_1
  6
CONTINUOUS
 62
    7
 10
3981.7184343092913
 20
2820.1180363649933
 11
3984.9707343092923
 21
2819.3270363649931
  0
LINE
  8
_0-0_1
  6
CONTINUOUS
 62
    7
 10
3984.9707343092923
 20
2819.3270363649931
 11
3988.3636343092917
 21
2818.4788363649932
  0
LINE
  8
_0-0_1
  6
CONTINUOUS
 62
    7
 10
3988.3636343092917
 20
2818.4788363649932
 11
3990.6255343092917
 21
2816.7823363649932
  0
LINE
  8
_0-0_1
  6
CONTINUOUS
 62
    7
 10
3927.5674343092915
 20
2857.3404363649929
 11
3928.4231343092915
 21
2856.9312363649933
  0
LINE
  8
_0-0_1
  6
CONTINUOUS
 62
    7
 10
3928.4231343092915
 20
2856.9312363649933
 11
3931.5334343092918
 21
2854.9519363649933
  0
LINE
  8
_0-0_1
  6
CONTINUOUS
 62
    7
 10
3931.5334343092918
 20
2854.9519363649933
 11
3935.0156343092908
 21
2850.9948363649928
  0
LINE
  8
_0-0_1
  6
CONTINUOUS
 62
    7
 10
3939.0813343092918
 20
2857.3404363649929
 11
3938.8846343092905
 21
2857.2137363649931
  0
LINE
  8
_0-0_1
  6
CONTINUOUS
 62
    7
 10
3938.9160343092913
 20
2857.3404363649929
 11
3938.6018343092919
 21
2856.0829363649927
  0
LINE
  8
_0-0_1
  6
CONTINUOUS
 62
    7
 10
3938.6018343092919
 20
2856.0829363649927
 11
3938.6018343092919
 21
2854.1037363649934
  0
LINE
  8
_0-0_1
  6
CONTINUOUS
 62
    7
 10
3938.6018343092919
 20
2854.1037363649934
 11
3942.0533343092916
 21
2848.2512363649939
  0
LINE
  8
_0-0_1
  6
CONTINUOUS
 62
    7
 10
3948.7010343092916
 20
2806.2938363649932
 11
3954.4651343092914
 21
2785.1743363649935
  0
LINE
  8
_0-0_1
  6
CONTINUOUS
 62
    7
 10
3945.2777343092921
 20
2803.6445363649932
 11
3949.5963343092917
 21
2787.8222363649938
  0
LINE
  8
_0-0_1
  6
CONTINUOUS
 62
    7
 10
3943.3600343092912
 20
2805.6762363649932
 11
3921.0682343092913
 21
2806.5222363649937
  0
LINE
  8
_0-0_1
  6
CONTINUOUS
 62
    7
 10
3944.1855343092921
 20
2809.6479363649928
 11
3913.6635343092917
 21
2810.806136364994
  0
LINE
  8
_0-0_1
  6
CONTINUOUS
 62
    7
 10
3953.6647343092914
 20
2821.9892363649938
 11
3945.5180343092911
 21
2810.0032363649925
  0
LINE
  8
_0-0_1
  6
CONTINUOUS
 62
    7
 10
3957.6205343092915
 20
2820.6933363649928
 11
3949.4646343092918
 21
2808.6940363649928
  0
LINE
  8
_0-0_1
  6
CONTINUOUS
 62
    7
 10
3959.4196343092917
 20
2821.978536364993
 11
3981.7184343092913
 21
2820.1180363649933
  0
LINE
  8
_0-0_1
  6
CONTINUOUS
 62
    7
 10
3982.4766343092915
 20
2824.0687363649931
 11
3959.5060343092919
 21
2825.9851363649932
  0
LINE
  8
_0-0_1
  6
CONTINUOUS
 62
    7
 10
3957.598734309292
 20
2827.4155363649934
 11
3942.0533343092916
 21
2848.2512363649939
  0
LINE
  8
_0-0_1
  6
CONTINUOUS
 62
    7
 10
3953.700334309292
 20
2825.9514363649937
 11
3935.0156343092908
 21
2850.9948363649928
  0
LINE
  8
_0-0_1
  6
CONTINUOUS
 62
    7
 10
3959.4196343092917
 20
2821.978536364993
 11
3957.6205343092915
 21
2820.6933363649928
  0
LINE
  8
_0-0_1
  6
CONTINUOUS
 62
    7
 10
3957.598734309292
 20
2827.4155363649934
 11
3959.5060343092919
 21
2825.9851363649932
  0
LINE
  8
_0-0_1
  6
CONTINUOUS
 62
    7
 10
3953.700334309292
 20
2825.9514363649937
 11
3954.4352343092914
 21
2823.9922363649935
  0
LINE
  8
_0-0_1
  6
CONTINUOUS
 62
    7
 10
3954.4352343092914
 20
2823.9922363649935
 11
3953.6647343092914
 21
2821.9892363649938
  0
LINE
  8
_0-0_1
  6
CONTINUOUS
 62
    7
 10
3943.3600343092912
 20
2805.6762363649932
 11
3944.256534309292
 21
2805.0487363649931
  0
LINE
  8
_0-0_1
  6
CONTINUOUS
 62
    7
 10
3944.256534309292
 20
2805.0487363649931
 11
3945.2777343092921
 21
2803.6445363649932
  0
LINE
  8
_0-0_1
  6
CONTINUOUS
 62
    7
 10
3949.4646343092918
 20
2808.6940363649928
 11
3948.7010343092916
 21
2806.2938363649932
  0
LINE
  8
_0-0_1
  6
CONTINUOUS
 62
    7
 10
3945.5180343092911
 20
2810.0032363649925
 11
3944.1855343092921
 21
2809.6479363649928
  0
LINE
  8
_0-0_1
  6
CONTINUOUS
 62
    7
 10
3907.7445343092909
 20
2852.4579363649937
 11
3907.7445343092909
 21
2813.3325363649928
  0
LINE
  8
_0-0_1
  6
CONTINUOUS
 62
    7
 10
3912.6270343092915
 20
2774.3404363649934
 11
3951.3330343092916
 21
2774.3404363649934
  0
LINE
  8
_0-0_1
  6
CONTINUOUS
 62
    7
 10
3990.7445343092922
 20
2779.2227363649931
 11
3990.7445343092922
 21
2816.7823363649932
  0
LINE
  8
_0-0_1
  6
CONTINUOUS
 62
    7
 10
3985.8623343092909
 20
2857.3404363649929
 11
3939.0813343092918
 21
2857.3404363649929
  0
LINE
  8
_0-0_1
  6
CONTINUOUS
 62
    7
 10
3907.7445343092909
 20
2804.0790363649926
 11
3907.7445343092909
 21
2779.2227363649931
  0
LINE
  8
_0-0_1
  6
CONTINUOUS
 62
    7
 10
3927.5674343092915
 20
2857.3404363649929
 11
3912.6270343092915
 21
2857.3404363649929
  0
LINE
  8
_0-0_1
  6
CONTINUOUS
 62
    7
 10
3990.7445343092922
 20
2825.6990363649938
 11
3990.7445343092922
 21
2852.4579363649937
  0
LINE
  8
_0-0_1
  6
CONTINUOUS
 62
    7
 10
3959.5441343092916
 20
2774.3404363649934
 11
3985.8623343092909
 21
2774.3404363649934
  0
LINE
  8
_0-0_1
  6
CONTINUOUS
 62
    7
 10
4018.5785343092921
 20
2710.6197363649931
 11
4010.8859343092918
 21
2707.8224363649933
  0
LINE
  8
_0-0_1
  6
CONTINUOUS
 62
    7
 10
4010.8859343092918
 20
2707.8224363649933
 11
4008.3414343092913
 21
2706.4088363649935
  0
LINE
  8
_0-0_1
  6
CONTINUOUS
 62
    7
 10
4008.3414343092913
 20
2706.4088363649935
 11
4007.7446343092915
 21
2705.5408363649931
  0
LINE
  8
_0-0_1
  6
CONTINUOUS
 62
    7
 10
4021.226434309292
 20
2715.4887363649932
 11
4013.9962343092907
 21
2714.0427363649933
  0
LINE
  8
_0-0_1
  6
CONTINUOUS
 62
    7
 10
4013.9962343092907
 20
2714.0427363649933
 11
4009.7551343092914
 21
2713.1945363649938
  0
LINE
  8
_0-0_1
  6
CONTINUOUS
 62
    7
 10
4009.7551343092914
 20
2713.1945363649938
 11
4008.0586343092914
 21
2713.4773363649938
  0
LINE
  8
_0-0_1
  6
CONTINUOUS
 62
    7
 10
4008.0586343092914
 20
2713.4773363649938
 11
4007.7446343092915
 21
2713.7520363649937
  0
LINE
  8
_0-0_1
  6
CONTINUOUS
 62
    7
 10
4039.9266343092922
 20
2744.0169363649929
 11
4039.7252343092919
 21
2751.3642363649933
  0
LINE
  8
_0-0_1
  6
CONTINUOUS
 62
    7
 10
4039.7252343092919
 20
2751.3642363649933
 11
4039.4426343092914
 21
2754.4742363649939
  0
LINE
  8
_0-0_1
  6
CONTINUOUS
 62
    7
 10
4039.4426343092914
 20
2754.4742363649939
 11
4038.8770343092915
 21
2756.4535363649934
  0
LINE
  8
_0-0_1
  6
CONTINUOUS
 62
    7
 10
4038.8770343092915
 20
2756.4535363649934
 11
4037.4834343092916
 21
2757.3403363649932
  0
LINE
  8
_0-0_1
  6
CONTINUOUS
 62
    7
 10
4046.7369343092914
 20
2757.3403363649932
 11
4045.6628343092916
 21
2756.7361363649934
  0
LINE
  8
_0-0_1
  6
CONTINUOUS
 62
    7
 10
4045.6628343092916
 20
2756.7361363649934
 11
4044.5317343092916
 21
2754.4742363649939
  0
LINE
  8
_0-0_1
  6
CONTINUOUS
 62
    7
 10
4044.5317343092916
 20
2754.4742363649939
 11
4044.2106343092919
 21
2751.4213363649928
  0
LINE
  8
_0-0_1
  6
CONTINUOUS
 62
    7
 10
4059.1032343092916
 20
2674.3404363649934
 11
4058.1033343092913
 21
2675.5903363649932
  0
LINE
  8
_0-0_1
  6
CONTINUOUS
 62
    7
 10
4058.1033343092913
 20
2675.5903363649932
 11
4057.8205343092914
 21
2677.5694363649932
  0
LINE
  8
_0-0_1
  6
CONTINUOUS
 62
    7
 10
4057.8205343092914
 20
2677.5694363649932
 11
4057.4731343092913
 21
2682.6083363649932
  0
LINE
  8
_0-0_1
  6
CONTINUOUS
 62
    7
 10
4053.5225343092911
 20
2683.3666363649936
 11
4052.7312343092917
 21
2680.1141363649936
  0
LINE
  8
_0-0_1
  6
CONTINUOUS
 62
    7
 10
4052.7312343092917
 20
2680.1141363649936
 11
4051.8829343092921
 21
2676.7213363649935
  0
LINE
  8
_0-0_1
  6
CONTINUOUS
 62
    7
 10
4051.8829343092921
 20
2676.7213363649935
 11
4050.1865343092918
 21
2674.4594363649935
  0
LINE
  8
_0-0_1
  6
CONTINUOUS
 62
    7
 10
4090.7446343092915
 20
2737.517436364993
 11
4090.3353343092908
 21
2736.6618363649932
  0
LINE
  8
_0-0_1
  6
CONTINUOUS
 62
    7
 10
4090.3353343092908
 20
2736.6618363649932
 11
4088.3563343092919
 21
2733.5517363649933
  0
LINE
  8
_0-0_1
  6
CONTINUOUS
 62
    7
 10
4088.3563343092919
 20
2733.5517363649933
 11
4084.3990343092919
 21
2730.0694363649932
  0
LINE
  8
_0-0_1
  6
CONTINUOUS
 62
    7
 10
4090.7446343092915
 20
2726.0037363649926
 11
4090.6182343092923
 21
2726.200436364993
  0
LINE
  8
_0-0_1
  6
CONTINUOUS
 62
    7
 10
4090.7446343092915
 20
2726.1689363649934
 11
4089.4871343092918
 21
2726.4832363649934
  0
LINE
  8
_0-0_1
  6
CONTINUOUS
 62
    7
 10
4089.4871343092918
 20
2726.4832363649934
 11
4087.5081343092916
 21
2726.4832363649934
  0
LINE
  8
_0-0_1
  6
CONTINUOUS
 62
    7
 10
4087.5081343092916
 20
2726.4832363649934
 11
4081.6554343092912
 21
2723.0317363649929
  0
LINE
  8
_0-0_1
  6
CONTINUOUS
 62
    7
 10
4039.6980343092919
 20
2716.3840363649933
 11
4018.5785343092921
 21
2710.6197363649931
  0
LINE
  8
_0-0_1
  6
CONTINUOUS
 62
    7
 10
4037.0487343092918
 20
2719.8072363649931
 11
4021.226434309292
 21
2715.4887363649932
  0
LINE
  8
_0-0_1
  6
CONTINUOUS
 62
    7
 10
4039.0806343092913
 20
2721.7250363649928
 11
4039.9266343092922
 21
2744.0169363649929
  0
LINE
  8
_0-0_1
  6
CONTINUOUS
 62
    7
 10
4043.0521343092919
 20
2720.8994363649931
 11
4044.2106343092919
 21
2751.4213363649928
  0
LINE
  8
_0-0_1
  6
CONTINUOUS
 62
    7
 10
4055.3936343092914
 20
2711.4202363649933
 11
4043.4074343092916
 21
2719.5669363649931
  0
LINE
  8
_0-0_1
  6
CONTINUOUS
 62
    7
 10
4054.0978343092916
 20
2707.4645363649934
 11
4042.0984343092919
 21
2715.6202363649932
  0
LINE
  8
_0-0_1
  6
CONTINUOUS
 62
    7
 10
4055.3827343092917
 20
2705.6655363649929
 11
4053.5225343092911
 21
2683.3666363649936
  0
LINE
  8
_0-0_1
  6
CONTINUOUS
 62
    7
 10
4057.4731343092913
 20
2682.6083363649932
 11
4059.3895343092913
 21
2705.5790363649935
  0
LINE
  8
_0-0_1
  6
CONTINUOUS
 62
    7
 10
4060.8200343092922
 20
2707.4863363649933
 11
4081.6554343092912
 21
2723.0317363649929
  0
LINE
  8
_0-0_1
  6
CONTINUOUS
 62
    7
 10
4059.355934309292
 20
2711.3847363649934
 11
4084.3990343092919
 21
2730.0694363649932
  0
LINE
  8
_0-0_1
  6
CONTINUOUS
 62
    7
 10
4055.3827343092917
 20
2705.6655363649929
 11
4054.0978343092916
 21
2707.4645363649934
  0
LINE
  8
_0-0_1
  6
CONTINUOUS
 62
    7
 10
4060.8200343092922
 20
2707.4863363649933
 11
4059.3895343092913
 21
2705.5790363649935
  0
LINE
  8
_0-0_1
  6
CONTINUOUS
 62
    7
 10
4059.355934309292
 20
2711.3847363649934
 11
4057.3964343092916
 21
2710.6498363649935
  0
LINE
  8
_0-0_1
  6
CONTINUOUS
 62
    7
 10
4057.3964343092916
 20
2710.6498363649935
 11
4055.3936343092914
 21
2711.4202363649933
  0
LINE
  8
_0-0_1
  6
CONTINUOUS
 62
    7
 10
4039.0806343092913
 20
2721.7250363649928
 11
4038.4529343092913
 21
2720.8285363649934
  0
LINE
  8
_0-0_1
  6
CONTINUOUS
 62
    7
 10
4038.4529343092913
 20
2720.8285363649934
 11
4037.0487343092918
 21
2719.8072363649931
  0
LINE
  8
_0-0_1
  6
CONTINUOUS
 62
    7
 10
4042.0984343092919
 20
2715.6202363649932
 11
4039.6980343092919
 21
2716.3840363649933
  0
LINE
  8
_0-0_1
  6
CONTINUOUS
 62
    7
 10
4043.4074343092916
 20
2719.5669363649931
 11
4043.0521343092919
 21
2720.8994363649931
  0
LINE
  8
_0-0_1
  6
CONTINUOUS
 62
    7
 10
4085.8624343092915
 20
2757.3403363649932
 11
4046.7369343092914
 21
2757.3403363649932
  0
LINE
  8
_0-0_1
  6
CONTINUOUS
 62
    7
 10
4007.7446343092915
 20
2752.4581363649932
 11
4007.7446343092915
 21
2713.7520363649937
  0
LINE
  8
_0-0_1
  6
CONTINUOUS
 62
    7
 10
4012.6269343092918
 20
2674.3404363649934
 11
4050.1865343092918
 21
2674.3404363649934
  0
LINE
  8
_0-0_1
  6
CONTINUOUS
 62
    7
 10
4090.7446343092915
 20
2679.2227363649931
 11
4090.7446343092915
 21
2726.0037363649926
  0
LINE
  8
_0-0_1
  6
CONTINUOUS
 62
    7
 10
4037.4834343092916
 20
2757.3403363649932
 11
4012.6269343092918
 21
2757.3403363649932
  0
LINE
  8
_0-0_1
  6
CONTINUOUS
 62
    7
 10
4090.7446343092915
 20
2737.517436364993
 11
4090.7446343092915
 21
2752.4581363649932
  0
LINE
  8
_0-0_1
  6
CONTINUOUS
 62
    7
 10
4059.1032343092916
 20
2674.3404363649934
 11
4085.8624343092915
 21
2674.3404363649934
  0
LINE
  8
_0-0_1
  6
CONTINUOUS
 62
    7
 10
4007.7446343092915
 20
2705.5408363649931
 11
4007.7446343092915
 21
2679.2227363649931
  0
LINE
  8
_0-0_1
  6
CONTINUOUS
 62
    7
 10
4013.7431343092908
 20
2997.0036363649933
 11
4011.2531343092924
 21
2994.1303363649927
  0
LINE
  8
_0-0_1
  6
CONTINUOUS
 62
    7
 10
4011.2531343092924
 20
2994.1303363649927
 11
4008.8591343092912
 21
2989.6843363649932
  0
LINE
  8
_0-0_1
  6
CONTINUOUS
 62
    7
 10
4008.8591343092912
 20
2989.6843363649932
 11
4007.7446343092915
 21
2986.1821363649933
  0
LINE
  8
_0-0_1
  6
CONTINUOUS
 62
    7
 10
4014.0405343092916
 20
3003.6204363649931
 11
4011.9998343092921
 21
3002.7801363649933
  0
LINE
  8
_0-0_1
  6
CONTINUOUS
 62
    7
 10
4011.9998343092921
 20
3002.7801363649933
 11
4009.9478343092915
 21
3002.0962363649924
  0
LINE
  8
_0-0_1
  6
CONTINUOUS
 62
    7
 10
4009.9478343092915
 20
3002.0962363649924
 11
4008.5797343092918
 21
3002.0962363649924
  0
LINE
  8
_0-0_1
  6
CONTINUOUS
 62
    7
 10
4028.879934309291
 20
3052.0966363649932
 11
4026.5602343092924
 21
3056.220436364993
  0
LINE
  8
_0-0_1
  6
CONTINUOUS
 62
    7
 10
4026.5602343092924
 20
3056.220436364993
 11
4025.1921343092913
 21
3057.9305363649933
  0
LINE
  8
_0-0_1
  6
CONTINUOUS
 62
    7
 10
4025.1921343092913
 20
3057.9305363649933
 11
4019.5693343092917
 21
3060.3403363649936
  0
LINE
  8
_0-0_1
  6
CONTINUOUS
 62
    7
 10
4035.3549343092914
 20
3049.8719363649934
 11
4034.3130343092912
 21
3052.8671363649933
  0
LINE
  8
_0-0_1
  6
CONTINUOUS
 62
    7
 10
4034.3130343092912
 20
3052.8671363649933
 11
4032.9449343092915
 21
3057.3134363649929
  0
LINE
  8
_0-0_1
  6
CONTINUOUS
 62
    7
 10
4032.9449343092915
 20
3057.3134363649929
 11
4033.2868343092914
 21
3060.0493363649935
  0
LINE
  8
_0-0_1
  6
CONTINUOUS
 62
    7
 10
4033.2868343092914
 20
3060.0493363649935
 11
4033.4907343092914
 21
3060.3403363649936
  0
LINE
  8
_0-0_1
  6
CONTINUOUS
 62
    7
 10
4081.842434309292
 20
3036.715236364993
 11
4085.9032343092917
 21
3040.4231363649933
  0
LINE
  8
_0-0_1
  6
CONTINUOUS
 62
    7
 10
4085.9032343092917
 20
3040.4231363649933
 11
4088.2974343092919
 21
3044.5272363649933
  0
LINE
  8
_0-0_1
  6
CONTINUOUS
 62
    7
 10
4088.2974343092919
 20
3044.5272363649933
 11
4090.0075343092922
 21
3048.9732363649932
  0
LINE
  8
_0-0_1
  6
CONTINUOUS
 62
    7
 10
4090.7446343092915
 20
3051.2518363649929
 11
4090.0075343092922
 21
3048.9732363649932
  0
LINE
  8
_0-0_1
  6
CONTINUOUS
 62
    7
 10
4090.7446343092915
 20
3034.1223363649938
 11
4088.5152343092923
 21
3034.1223363649938
  0
LINE
  8
_0-0_1
  6
CONTINUOUS
 62
    7
 10
4088.5152343092923
 20
3034.1223363649938
 11
4085.2769343092923
 21
3033.0014363649934
  0
LINE
  8
_0-0_1
  6
CONTINUOUS
 62
    7
 10
4078.8996343092913
 20
2977.3403363649932
 11
4077.091934309291
 21
2979.2545363649933
  0
LINE
  8
_0-0_1
  6
CONTINUOUS
 62
    7
 10
4077.091934309291
 20
2979.2545363649933
 11
4075.0398343092916
 21
2984.0425363649933
  0
LINE
  8
_0-0_1
  6
CONTINUOUS
 62
    7
 10
4075.0398343092916
 20
2984.0425363649933
 11
4073.5572343092917
 21
2987.6670363649928
  0
LINE
  8
_0-0_1
  6
CONTINUOUS
 62
    7
 10
4066.4420343092911
 20
2977.3403363649932
 11
4067.2301343092909
 21
2978.3256363649934
  0
LINE
  8
_0-0_1
  6
CONTINUOUS
 62
    7
 10
4067.2301343092909
 20
2978.3256363649934
 11
4068.5982343092919
 21
2980.7196363649932
  0
LINE
  8
_0-0_1
  6
CONTINUOUS
 62
    7
 10
4068.5982343092919
 20
2980.7196363649932
 11
4068.5982343092919
 21
2983.7978363649927
  0
LINE
  8
_0-0_1
  6
CONTINUOUS
 62
    7
 10
4068.5982343092919
 20
2983.7978363649927
 11
4066.8389343092917
 21
2993.8512363649934
  0
LINE
  8
_0-0_1
  6
CONTINUOUS
 62
    7
 10
4042.1407343092915
 20
3019.5199363649931
 11
4013.7431343092908
 21
2997.0036363649933
  0
LINE
  8
_0-0_1
  6
CONTINUOUS
 62
    7
 10
4038.8015343092916
 20
3023.2533363649927
 11
4014.0405343092916
 21
3003.6204363649931
  0
LINE
  8
_0-0_1
  6
CONTINUOUS
 62
    7
 10
4039.6507343092912
 20
3028.0469363649936
 11
4028.879934309291
 21
3052.0966363649932
  0
LINE
  8
_0-0_1
  6
CONTINUOUS
 62
    7
 10
4044.7908343092922
 20
3028.8021363649927
 11
4035.3549343092914
 21
3049.8719363649934
  0
LINE
  8
_0-0_1
  6
CONTINUOUS
 62
    7
 10
4060.0804343092923
 20
3023.7536363649942
 11
4048.6571343092919
 21
3025.9293363649927
  0
LINE
  8
_0-0_1
  6
CONTINUOUS
 62
    7
 10
4058.2795343092921
 20
3019.0067363649932
 11
4046.4623343092917
 21
3021.2577363649934
  0
LINE
  8
_0-0_1
  6
CONTINUOUS
 62
    7
 10
4066.8389343092917
 20
2993.8512363649934
 11
4061.1149343092916
 21
3016.5224363649932
  0
LINE
  8
_0-0_1
  6
CONTINUOUS
 62
    7
 10
4073.5572343092917
 20
2987.6670363649928
 11
4065.7168343092917
 21
3018.7204363649935
  0
LINE
  8
_0-0_1
  6
CONTINUOUS
 62
    7
 10
4066.7946343092917
 20
3020.5166363649932
 11
4085.2769343092923
 21
3033.0014363649934
  0
LINE
  8
_0-0_1
  6
CONTINUOUS
 62
    7
 10
4063.119434309292
 20
3024.0678363649931
 11
4081.842434309292
 21
3036.715236364993
  0
LINE
  8
_0-0_1
  6
CONTINUOUS
 62
    7
 10
4060.4963343092913
 20
3017.7599363649938
 11
4058.2795343092921
 21
3019.0067363649932
  0
LINE
  8
_0-0_1
  6
CONTINUOUS
 62
    7
 10
4061.1149343092916
 20
3016.5224363649932
 11
4060.4963343092913
 21
3017.7599363649938
  0
LINE
  8
_0-0_1
  6
CONTINUOUS
 62
    7
 10
4066.7946343092917
 20
3020.5166363649932
 11
4065.7168343092917
 21
3018.7204363649935
  0
LINE
  8
_0-0_1
  6
CONTINUOUS
 62
    7
 10
4063.119434309292
 20
3024.0678363649931
 11
4060.0804343092923
 21
3023.7536363649942
  0
LINE
  8
_0-0_1
  6
CONTINUOUS
 62
    7
 10
4044.9588343092914
 20
3021.0572363649931
 11
4042.1407343092915
 21
3019.5199363649931
  0
LINE
  8
_0-0_1
  6
CONTINUOUS
 62
    7
 10
4046.4623343092917
 20
3021.2577363649934
 11
4044.9588343092914
 21
3021.0572363649931
  0
LINE
  8
_0-0_1
  6
CONTINUOUS
 62
    7
 10
4048.6571343092919
 20
3025.9293363649927
 11
4046.4704343092917
 21
3026.7493363649928
  0
LINE
  8
_0-0_1
  6
CONTINUOUS
 62
    7
 10
4046.4704343092917
 20
3026.7493363649928
 11
4044.7908343092922
 21
3028.8021363649927
  0
LINE
  8
_0-0_1
  6
CONTINUOUS
 62
    7
 10
4040.1785343092924
 20
3025.6713363649933
 11
4039.6507343092912
 21
3028.0469363649936
  0
LINE
  8
_0-0_1
  6
CONTINUOUS
 62
    7
 10
4039.9029343092911
 20
3024.844336364994
 11
4040.1785343092924
 21
3025.6713363649933
  0
LINE
  8
_0-0_1
  6
CONTINUOUS
 62
    7
 10
4038.8015343092916
 20
3023.2533363649927
 11
4039.9029343092911
 21
3024.844336364994
  0
LINE
  8
_0-0_1
  6
CONTINUOUS
 62
    7
 10
4008.5797343092918
 20
3002.0962363649924
 11
4007.7446343092915
 21
3002.7484363649933
  0
LINE
  8
_0-0_1
  6
CONTINUOUS
 62
    7
 10
4085.8624343092915
 20
3060.3403363649936
 11
4033.4907343092914
 21
3060.3403363649936
  0
LINE
  8
_0-0_1
  6
CONTINUOUS
 62
    7
 10
4007.7446343092915
 20
3055.4581363649932
 11
4007.7446343092915
 21
3002.7484363649933
  0
LINE
  8
_0-0_1
  6
CONTINUOUS
 62
    7
 10
4012.6269343092918
 20
2977.3403363649932
 11
4066.4420343092911
 21
2977.3403363649932
  0
LINE
  8
_0-0_1
  6
CONTINUOUS
 62
    7
 10
4090.7446343092915
 20
2982.2228363649938
 11
4090.7446343092915
 21
3034.1223363649938
  0
LINE
  8
_0-0_1
  6
CONTINUOUS
 62
    7
 10
4078.8996343092913
 20
2977.3403363649932
 11
4085.8624343092915
 21
2977.3403363649932
  0
LINE
  8
_0-0_1
  6
CONTINUOUS
 62
    7
 10
4090.7446343092915
 20
3051.2518363649929
 11
4090.7446343092915
 21
3055.4581363649932
  0
LINE
  8
_0-0_1
  6
CONTINUOUS
 62
    7
 10
4019.5693343092917
 20
3060.3403363649936
 11
4012.6269343092918
 21
3060.3403363649936
  0
LINE
  8
_0-0_1
  6
CONTINUOUS
 62
    7
 10
4007.7446343092915
 20
2986.1821363649933
 11
4007.7446343092915
 21
2982.2228363649938
  0
LINE
  8
_0-0_1
  6
CONTINUOUS
 62
    7
 10
3971.9299343092916
 20
3035.5038363649928
 11
3947.1807343092923
 21
3031.3208363649933
  0
LINE
  8
_0-0_1
  6
CONTINUOUS
 62
    7
 10
3948.1579343092917
 20
3026.4151363649935
 11
3975.3273343092924
 21
3031.0070363649938
  0
LINE
  8
_0-0_1
  6
CONTINUOUS
 62
    7
 10
3932.0800343092915
 20
3051.5347363649935
 11
3945.1255343092912
 21
3032.4276363649933
  0
LINE
  8
_0-0_1
  6
CONTINUOUS
 62
    7
 10
3925.1363343092912
 20
3052.8374363649932
 11
3940.2863343092913
 21
3030.6478363649931
  0
LINE
  8
_0-0_1
  6
CONTINUOUS
 62
    7
 10
3940.4242343092915
 20
3026.3369363649927
 11
3932.8956343092909
 21
3015.306536364993
  0
LINE
  8
_0-0_1
  6
CONTINUOUS
 62
    7
 10
3945.7647343092917
 20
3025.291936364993
 11
3938.1794343092911
 21
3014.1787363649933
  0
LINE
  8
_0-0_1
  6
CONTINUOUS
 62
    7
 10
3938.199434309292
 20
3010.8392363649928
 11
3956.3670343092917
 21
2989.9538363649931
  0
LINE
  8
_0-0_1
  6
CONTINUOUS
 62
    7
 10
3935.3653343092919
 20
3006.4791363649938
 11
3954.6188343092917
 21
2984.3448363649932
  0
LINE
  8
_0-0_1
  6
CONTINUOUS
 62
    7
 10
3931.0803343092907
 20
3007.9734363649932
 11
3915.5508343092915
 21
3000.092736364993
  0
LINE
  8
_0-0_1
  6
CONTINUOUS
 62
    7
 10
3930.4971343092911
 20
3013.2844363649933
 11
3920.1180343092915
 21
3008.0174363649935
  0
LINE
  8
_0-0_1
  6
CONTINUOUS
 62
    7
 10
3938.1794343092911
 20
3014.1787363649933
 11
3937.7162343092918
 21
3012.6109363649939
  0
LINE
  8
_0-0_1
  6
CONTINUOUS
 62
    7
 10
3937.7162343092918
 20
3012.6109363649939
 11
3938.199434309292
 21
3010.8392363649928
  0
LINE
  8
_0-0_1
  6
CONTINUOUS
 62
    7
 10
3935.3653343092919
 20
3006.4791363649938
 11
3933.5010343092918
 21
3007.9862363649931
  0
LINE
  8
_0-0_1
  6
CONTINUOUS
 62
    7
 10
3932.4670343092907
 20
3008.2507363649929
 11
3931.0803343092907
 21
3007.9734363649932
  0
LINE
  8
_0-0_1
  6
CONTINUOUS
 62
    7
 10
3932.8956343092909
 20
3015.306536364993
 11
3930.4971343092911
 21
3013.2844363649933
  0
LINE
  8
_0-0_1
  6
CONTINUOUS
 62
    7
 10
3933.5010343092918
 20
3007.9862363649931
 11
3932.4670343092907
 21
3008.2507363649929
  0
LINE
  8
_0-0_1
  6
CONTINUOUS
 62
    7
 10
3948.1579343092917
 20
3026.4151363649935
 11
3946.5367343092921
 21
3025.8962363649935
  0
LINE
  8
_0-0_1
  6
CONTINUOUS
 62
    7
 10
3946.5367343092921
 20
3025.8962363649935
 11
3945.7647343092917
 21
3025.291936364993
  0
LINE
  8
_0-0_1
  6
CONTINUOUS
 62
    7
 10
3940.2863343092913
 20
3030.6478363649931
 11
3941.0920343092907
 21
3028.4008363649937
  0
LINE
  8
_0-0_1
  6
CONTINUOUS
 62
    7
 10
3941.0920343092907
 20
3028.4008363649937
 11
3940.4242343092915
 21
3026.3369363649927
  0
LINE
  8
_0-0_1
  6
CONTINUOUS
 62
    7
 10
3945.1255343092912
 20
3032.4276363649933
 11
3947.1807343092923
 21
3031.3208363649933
  0
LINE
  8
_0-0_1
  6
CONTINUOUS
 62
    7
 10
3931.5304343092907
 20
3060.3403363649936
 11
3929.508134309292
 21
3059.0180363649924
  0
LINE
  8
_0-0_1
  6
CONTINUOUS
 62
    7
 10
3929.508134309292
 20
3059.0180363649924
 11
3929.1825343092924
 21
3057.715936364993
  0
LINE
  8
_0-0_1
  6
CONTINUOUS
 62
    7
 10
3929.1825343092924
 20
3057.715936364993
 11
3932.0800343092915
 21
3051.5347363649935
  0
LINE
  8
_0-0_1
  6
CONTINUOUS
 62
    7
 10
3915.7752343092916
 20
3060.3403363649936
 11
3917.7896343092916
 21
3059.6690363649936
  0
LINE
  8
_0-0_1
  6
CONTINUOUS
 62
    7
 10
3917.7896343092916
 20
3059.6690363649936
 11
3921.0447343092915
 21
3057.715936364993
  0
LINE
  8
_0-0_1
  6
CONTINUOUS
 62
    7
 10
3921.0447343092915
 20
3057.715936364993
 11
3925.1363343092912
 21
3052.8374363649932
  0
LINE
  8
_0-0_1
  6
CONTINUOUS
 62
    7
 10
3990.7047343092918
 20
3042.4167363649931
 11
3988.7516343092921
 21
3040.1381363649934
  0
LINE
  8
_0-0_1
  6
CONTINUOUS
 62
    7
 10
3988.7516343092921
 20
3040.1381363649934
 11
3986.1476343092913
 21
3038.8360363649927
  0
LINE
  8
_0-0_1
  6
CONTINUOUS
 62
    7
 10
3986.1476343092913
 20
3038.8360363649927
 11
3971.9299343092916
 21
3035.5038363649928
  0
LINE
  8
_0-0_1
  6
CONTINUOUS
 62
    7
 10
3975.3273343092924
 20
3031.0070363649938
 11
3980.2882343092915
 21
3031.3493363649932
  0
LINE
  8
_0-0_1
  6
CONTINUOUS
 62
    7
 10
3980.2882343092915
 20
3031.3493363649932
 11
3986.1476343092913
 21
3031.6746363649927
  0
LINE
  8
_0-0_1
  6
CONTINUOUS
 62
    7
 10
3986.1476343092913
 20
3031.6746363649927
 11
3988.4262343092923
 21
3031.3493363649932
  0
LINE
  8
_0-0_1
  6
CONTINUOUS
 62
    7
 10
3988.4262343092923
 20
3031.3493363649932
 11
3990.3793343092912
 21
3029.7216363649927
  0
LINE
  8
_0-0_1
  6
CONTINUOUS
 62
    7
 10
3990.3793343092912
 20
3029.7216363649927
 11
3990.7445343092922
 21
3028.8343363649929
  0
LINE
  8
_0-0_1
  6
CONTINUOUS
 62
    7
 10
3920.1180343092915
 20
3008.0174363649935
 11
3913.8833343092915
 21
3005.6336363649925
  0
LINE
  8
_0-0_1
  6
CONTINUOUS
 62
    7
 10
3913.8833343092915
 20
3005.6336363649925
 11
3910.302634309292
 21
3004.6569363649928
  0
LINE
  8
_0-0_1
  6
CONTINUOUS
 62
    7
 10
3910.302634309292
 20
3004.6569363649928
 11
3908.3495343092914
 21
3004.6569363649928
  0
LINE
  8
_0-0_1
  6
CONTINUOUS
 62
    7
 10
3908.3495343092914
 20
3004.6569363649928
 11
3907.7445343092909
 21
3005.3052363649927
  0
LINE
  8
_0-0_1
  6
CONTINUOUS
 62
    7
 10
3915.5508343092915
 20
3000.092736364993
 11
3912.9069343092915
 21
2998.4722363649935
  0
LINE
  8
_0-0_1
  6
CONTINUOUS
 62
    7
 10
3912.9069343092915
 20
2998.4722363649935
 11
3908.3495343092914
 21
2995.5425363649929
  0
LINE
  8
_0-0_1
  6
CONTINUOUS
 62
    7
 10
3908.3495343092914
 20
2995.5425363649929
 11
3907.7445343092909
 21
2994.5918363649939
  0
LINE
  8
_0-0_1
  6
CONTINUOUS
 62
    7
 10
3956.3670343092917
 20
2989.9538363649931
 11
3966.6167343092916
 21
2980.2433363649934
  0
LINE
  8
_0-0_1
  6
CONTINUOUS
 62
    7
 10
3966.6167343092916
 20
2980.2433363649934
 11
3972.7856343092913
 21
2977.3403363649932
  0
LINE
  8
_0-0_1
  6
CONTINUOUS
 62
    7
 10
3954.6188343092917
 20
2984.3448363649932
 11
3956.2002343092918
 21
2980.5689363649931
  0
LINE
  8
_0-0_1
  6
CONTINUOUS
 62
    7
 10
3956.2002343092918
 20
2980.5689363649931
 11
3955.8748343092921
 21
2978.6159363649926
  0
LINE
  8
_0-0_1
  6
CONTINUOUS
 62
    7
 10
3955.8748343092921
 20
2978.6159363649926
 11
3955.1243343092915
 21
2977.3403363649932
  0
LINE
  8
_0-0_1
  6
CONTINUOUS
 62
    7
 10
3907.7445343092909
 20
2982.2228363649938
 11
3907.7445343092909
 21
2994.5918363649939
  0
LINE
  8
_0-0_1
  6
CONTINUOUS
 62
    7
 10
3912.6270343092915
 20
3060.3403363649936
 11
3915.7752343092916
 21
3060.3403363649936
  0
LINE
  8
_0-0_1
  6
CONTINUOUS
 62
    7
 10
3990.7445343092922
 20
3055.4581363649932
 11
3990.7445343092922
 21
3042.4167363649931
  0
LINE
  8
_0-0_1
  6
CONTINUOUS
 62
    7
 10
3985.8623343092909
 20
2977.3403363649932
 11
3972.7856343092913
 21
2977.3403363649932
  0
LINE
  8
_0-0_1
  6
CONTINUOUS
 62
    7
 10
3990.7445343092922
 20
3028.8343363649929
 11
3990.7445343092922
 21
2982.2228363649938
  0
LINE
  8
_0-0_1
  6
CONTINUOUS
 62
    7
 10
3931.5304343092907
 20
3060.3403363649936
 11
3985.8623343092909
 21
3060.3403363649936
  0
LINE
  8
_0-0_1
  6
CONTINUOUS
 62
    7
 10
3907.7445343092909
 20
3005.3052363649927
 11
3907.7445343092909
 21
3055.4581363649932
  0
LINE
  8
_0-0_1
  6
CONTINUOUS
 62
    7
 10
3955.1243343092915
 20
2977.3403363649932
 11
3912.6270343092915
 21
2977.3403363649932
  0
LINE
  8
_0-0_1
  6
CONTINUOUS
 62
    7
 10
3990.3689343092919
 20
2937.2556363649933
 11
3990.7445343092922
 21
2937.8022363649939
  0
LINE
  8
_0-0_1
  6
CONTINUOUS
 62
    7
 10
3990.3689343092919
 20
2937.2556363649933
 11
3987.7386343092917
 21
2935.7944363649931
  0
LINE
  8
_0-0_1
  6
CONTINUOUS
 62
    7
 10
3987.7386343092917
 20
2935.7944363649931
 11
3981.9159343092911
 21
2933.7486363649932
  0
LINE
  8
_0-0_1
  6
CONTINUOUS
 62
    7
 10
3984.6043343092915
 20
2930.1565363649929
 11
3986.690234309292
 21
2930.0573363649937
  0
LINE
  8
_0-0_1
  6
CONTINUOUS
 62
    7
 10
3986.690234309292
 20
2930.0573363649937
 11
3988.7360343092923
 21
2929.7651363649929
  0
LINE
  8
_0-0_1
  6
CONTINUOUS
 62
    7
 10
3988.7360343092923
 20
2929.7651363649929
 11
3990.7445343092922
 21
2928.4868363649935
  0
LINE
  8
_0-0_1
  6
CONTINUOUS
 62
    7
 10
3954.9528343092916
 20
2885.5545363649931
 11
3956.7062343092907
 21
2880.7556363649933
  0
LINE
  8
_0-0_1
  6
CONTINUOUS
 62
    7
 10
3951.0183343092913
 20
2884.7914363649934
 11
3951.0183343092913
 21
2881.1733363649932
  0
LINE
  8
_0-0_1
  6
CONTINUOUS
 62
    7
 10
3951.0183343092913
 20
2881.1733363649932
 11
3950.726134309291
 21
2879.4197363649932
  0
LINE
  8
_0-0_1
  6
CONTINUOUS
 62
    7
 10
3950.726134309291
 20
2879.4197363649932
 11
3948.8448343092923
 21
2877.3402363649934
  0
LINE
  8
_0-0_1
  6
CONTINUOUS
 62
    7
 10
3921.6353343092915
 20
2909.9110363649934
 11
3915.5584343092919
 21
2909.4921363649933
  0
LINE
  8
_0-0_1
  6
CONTINUOUS
 62
    7
 10
3915.5584343092919
 20
2909.4921363649933
 11
3911.1743343092912
 21
2909.7843363649927
  0
LINE
  8
_0-0_1
  6
CONTINUOUS
 62
    7
 10
3911.1743343092912
 20
2909.7843363649927
 11
3908.544034309291
 21
2910.3687363649938
  0
LINE
  8
_0-0_1
  6
CONTINUOUS
 62
    7
 10
3908.544034309291
 20
2910.3687363649938
 11
3907.7445343092909
 21
2911.1680363649934
  0
LINE
  8
_0-0_1
  6
CONTINUOUS
 62
    7
 10
3911.0921343092923
 20
2903.7619363649937
 11
3908.9355343092916
 21
2901.9974363649926
  0
LINE
  8
_0-0_1
  6
CONTINUOUS
 62
    7
 10
3908.9355343092916
 20
2901.9974363649926
 11
3907.7445343092909
 21
2900.5682363649939
  0
LINE
  8
_0-0_1
  6
CONTINUOUS
 62
    7
 10
3947.6615343092913
 20
2960.3402363649939
 11
3946.9989343092921
 21
2958.3525363649933
  0
LINE
  8
_0-0_1
  6
CONTINUOUS
 62
    7
 10
3946.9989343092921
 20
2958.3525363649933
 11
3948.6812343092915
 21
2951.1431363649936
  0
LINE
  8
_0-0_1
  6
CONTINUOUS
 62
    7
 10
3945.5558343092912
 20
2947.6587363649933
 11
3942.3275343092919
 21
2955.0381363649931
  0
LINE
  8
_0-0_1
  6
CONTINUOUS
 62
    7
 10
3942.3275343092919
 20
2955.0381363649931
 11
3940.3482343092919
 21
2958.4307363649937
  0
LINE
  8
_0-0_1
  6
CONTINUOUS
 62
    7
 10
3940.3482343092919
 20
2958.4307363649937
 11
3939.0754343092908
 21
2960.3402363649939
  0
LINE
  8
_0-0_1
  6
CONTINUOUS
 62
    7
 10
3948.4276343092915
 20
2910.7226363649934
 11
3954.9528343092916
 21
2885.5545363649931
  0
LINE
  8
_0-0_1
  6
CONTINUOUS
 62
    7
 10
3945.6587343092924
 20
2905.4645363649938
 11
3951.0183343092913
 21
2884.7914363649934
  0
LINE
  8
_0-0_1
  6
CONTINUOUS
 62
    7
 10
3941.0358343092912
 20
2909.6485363649927
 11
3911.0921343092923
 21
2903.7619363649937
  0
LINE
  8
_0-0_1
  6
CONTINUOUS
 62
    7
 10
3942.7375343092917
 20
2914.0596363649929
 11
3921.6353343092915
 21
2909.9110363649934
  0
LINE
  8
_0-0_1
  6
CONTINUOUS
 62
    7
 10
3950.2678343092907
 20
2924.4330363649933
 11
3945.5858343092923
 21
2916.1925363649934
  0
LINE
  8
_0-0_1
  6
CONTINUOUS
 62
    7
 10
3954.646834309292
 20
2924.043036364993
 11
3948.7206343092921
 21
2913.6129363649939
  0
LINE
  8
_0-0_1
  6
CONTINUOUS
 62
    7
 10
3955.5237343092922
 20
2925.0909363649935
 11
3984.6043343092915
 21
2930.1565363649929
  0
LINE
  8
_0-0_1
  6
CONTINUOUS
 62
    7
 10
3962.1830343092915
 20
2930.3112363649934
 11
3981.9159343092911
 21
2933.7486363649932
  0
LINE
  8
_0-0_1
  6
CONTINUOUS
 62
    7
 10
3954.9152343092919
 20
2930.5252363649929
 11
3948.6812343092915
 21
2951.1431363649936
  0
LINE
  8
_0-0_1
  6
CONTINUOUS
 62
    7
 10
3951.1715343092919
 20
2929.0861363649938
 11
3945.5558343092912
 21
2947.6587363649933
  0
LINE
  8
_0-0_1
  6
CONTINUOUS
 62
    7
 10
3948.7206343092921
 20
2913.6129363649939
 11
3948.3192343092924
 21
2912.2881363649931
  0
LINE
  8
_0-0_1
  6
CONTINUOUS
 62
    7
 10
3948.3192343092924
 20
2912.2881363649931
 11
3948.4276343092915
 21
2910.7226363649934
  0
LINE
  8
_0-0_1
  6
CONTINUOUS
 62
    7
 10
3941.0358343092912
 20
2909.6485363649927
 11
3943.5444343092913
 21
2909.7603363649932
  0
LINE
  8
_0-0_1
  6
CONTINUOUS
 62
    7
 10
3943.5444343092913
 20
2909.7603363649932
 11
3944.9488343092912
 21
2908.6367363649933
  0
LINE
  8
_0-0_1
  6
CONTINUOUS
 62
    7
 10
3944.9488343092912
 20
2908.6367363649933
 11
3945.6587343092924
 21
2905.4645363649938
  0
LINE
  8
_0-0_1
  6
CONTINUOUS
 62
    7
 10
3945.5858343092923
 20
2916.1925363649934
 11
3945.2297343092914
 21
2915.3779363649933
  0
LINE
  8
_0-0_1
  6
CONTINUOUS
 62
    7
 10
3945.2297343092914
 20
2915.3779363649933
 11
3943.8252343092918
 21
2914.5351363649934
  0
LINE
  8
_0-0_1
  6
CONTINUOUS
 62
    7
 10
3943.8252343092918
 20
2914.5351363649934
 11
3942.7375343092917
 21
2914.0596363649929
  0
LINE
  8
_0-0_1
  6
CONTINUOUS
 62
    7
 10
3951.1715343092919
 20
2929.0861363649938
 11
3951.1282343092921
 21
2927.4555363649933
  0
LINE
  8
_0-0_1
  6
CONTINUOUS
 62
    7
 10
3951.1282343092921
 20
2927.4555363649933
 11
3950.8473343092919
 21
2925.7704363649927
  0
LINE
  8
_0-0_1
  6
CONTINUOUS
 62
    7
 10
3950.8473343092919
 20
2925.7704363649927
 11
3950.2678343092907
 21
2924.4330363649933
  0
LINE
  8
_0-0_1
  6
CONTINUOUS
 62
    7
 10
3954.646834309292
 20
2924.043036364993
 11
3955.5237343092922
 21
2925.0909363649935
  0
LINE
  8
_0-0_1
  6
CONTINUOUS
 62
    7
 10
3962.1830343092915
 20
2930.3112363649934
 11
3958.4308343092916
 21
2929.7027363649931
  0
LINE
  8
_0-0_1
  6
CONTINUOUS
 62
    7
 10
3958.4308343092916
 20
2929.7027363649931
 11
3956.464734309292
 21
2929.7027363649931
  0
LINE
  8
_0-0_1
  6
CONTINUOUS
 62
    7
 10
3956.464734309292
 20
2929.7027363649931
 11
3954.9152343092919
 21
2930.5252363649929
  0
LINE
  8
_0-0_1
  6
CONTINUOUS
 62
    7
 10
3956.7062343092907
 20
2880.7556363649933
 11
3957.5883343092914
 21
2878.8637363649927
  0
LINE
  8
_0-0_1
  6
CONTINUOUS
 62
    7
 10
3957.5883343092914
 20
2878.8637363649927
 11
3959.3293343092914
 21
2877.3402363649934
  0
LINE
  8
_0-0_1
  6
CONTINUOUS
 62
    7
 10
3907.7445343092909
 20
2882.2227363649931
 11
3907.7445343092909
 21
2900.5682363649939
  0
LINE
  8
_0-0_1
  6
CONTINUOUS
 62
    7
 10
3912.6270343092915
 20
2960.3402363649939
 11
3939.0754343092908
 21
2960.3402363649939
  0
LINE
  8
_0-0_1
  6
CONTINUOUS
 62
    7
 10
3990.7445343092922
 20
2955.4580363649934
 11
3990.7445343092922
 21
2937.8022363649939
  0
LINE
  8
_0-0_1
  6
CONTINUOUS
 62
    7
 10
3985.8623343092909
 20
2877.3402363649934
 11
3959.3293343092914
 21
2877.3402363649934
  0
LINE
  8
_0-0_1
  6
CONTINUOUS
 62
    7
 10
3990.7445343092922
 20
2928.4868363649935
 11
3990.7445343092922
 21
2882.2227363649931
  0
LINE
  8
_0-0_1
  6
CONTINUOUS
 62
    7
 10
3947.6615343092913
 20
2960.3402363649939
 11
3985.8623343092909
 21
2960.3402363649939
  0
LINE
  8
_0-0_1
  6
CONTINUOUS
 62
    7
 10
3907.7445343092909
 20
2911.1680363649934
 11
3907.7445343092909
 21
2955.4580363649934
  0
LINE
  8
_0-0_1
  6
CONTINUOUS
 62
    7
 10
3948.8448343092923
 20
2877.3402363649934
 11
3912.6270343092915
 21
2877.3402363649934
  0
LINE
  8
_0-0_1
  6
CONTINUOUS
 62
    7
 10
4067.6599343092907
 20
2774.7161363649939
 11
4068.2063343092909
 21
2774.3404363649934
  0
LINE
  8
_0-0_1
  6
CONTINUOUS
 62
    7
 10
4067.6599343092907
 20
2774.7161363649939
 11
4066.1986343092913
 21
2777.3463363649935
  0
LINE
  8
_0-0_1
  6
CONTINUOUS
 62
    7
 10
4066.1986343092913
 20
2777.3463363649935
 11
4064.1527343092916
 21
2783.1691363649934
  0
LINE
  8
_0-0_1
  6
CONTINUOUS
 62
    7
 10
4060.560934309292
 20
2780.4807363649938
 11
4060.4617343092923
 21
2778.3947363649932
  0
LINE
  8
_0-0_1
  6
CONTINUOUS
 62
    7
 10
4060.4617343092923
 20
2778.3947363649932
 11
4060.1692343092918
 21
2776.3489363649933
  0
LINE
  8
_0-0_1
  6
CONTINUOUS
 62
    7
 10
4060.1692343092918
 20
2776.3489363649933
 11
4058.8912343092916
 21
2774.3404363649934
  0
LINE
  8
_0-0_1
  6
CONTINUOUS
 62
    7
 10
4015.9589343092921
 20
2810.1321363649936
 11
4011.1598343092919
 21
2808.3788363649933
  0
LINE
  8
_0-0_1
  6
CONTINUOUS
 62
    7
 10
4015.1955343092918
 20
2814.0667363649932
 11
4011.5775343092919
 21
2814.0667363649932
  0
LINE
  8
_0-0_1
  6
CONTINUOUS
 62
    7
 10
4011.5775343092919
 20
2814.0667363649932
 11
4009.8239343092919
 21
2814.3589363649926
  0
LINE
  8
_0-0_1
  6
CONTINUOUS
 62
    7
 10
4009.8239343092919
 20
2814.3589363649926
 11
4007.7446343092915
 21
2816.2402363649926
  0
LINE
  8
_0-0_1
  6
CONTINUOUS
 62
    7
 10
4040.3154343092915
 20
2843.4496363649937
 11
4039.8962343092917
 21
2849.5265363649933
  0
LINE
  8
_0-0_1
  6
CONTINUOUS
 62
    7
 10
4039.8962343092917
 20
2849.5265363649933
 11
4040.1884343092925
 21
2853.9107363649928
  0
LINE
  8
_0-0_1
  6
CONTINUOUS
 62
    7
 10
4040.1884343092925
 20
2853.9107363649928
 11
4040.7731343092919
 21
2856.5409363649942
  0
LINE
  8
_0-0_1
  6
CONTINUOUS
 62
    7
 10
4040.7731343092919
 20
2856.5409363649942
 11
4041.5724343092916
 21
2857.3404363649929
  0
LINE
  8
_0-0_1
  6
CONTINUOUS
 62
    7
 10
4034.1660343092917
 20
2853.9928363649933
 11
4032.4015343092924
 21
2856.1495363649929
  0
LINE
  8
_0-0_1
  6
CONTINUOUS
 62
    7
 10
4032.4015343092924
 20
2856.1495363649929
 11
4030.9725343092914
 21
2857.3404363649929
  0
LINE
  8
_0-0_1
  6
CONTINUOUS
 62
    7
 10
4090.7446343092915
 20
2817.4234363649934
 11
4088.7569343092919
 21
2818.0861363649933
  0
LINE
  8
_0-0_1
  6
CONTINUOUS
 62
    7
 10
4088.7569343092919
 20
2818.0861363649933
 11
4081.5475343092921
 21
2816.4037363649932
  0
LINE
  8
_0-0_1
  6
CONTINUOUS
 62
    7
 10
4078.0631343092914
 20
2819.529136364994
 11
4085.4422343092915
 21
2822.7575363649926
  0
LINE
  8
_0-0_1
  6
CONTINUOUS
 62
    7
 10
4085.4422343092915
 20
2822.7575363649926
 11
4088.8351343092918
 21
2824.7368363649935
  0
LINE
  8
_0-0_1
  6
CONTINUOUS
 62
    7
 10
4088.8351343092918
 20
2824.7368363649935
 11
4090.7446343092915
 21
2826.0096363649932
  0
LINE
  8
_0-0_1
  6
CONTINUOUS
 62
    7
 10
4041.127034309292
 20
2816.6574363649938
 11
4015.9589343092921
 21
2810.1321363649936
  0
LINE
  8
_0-0_1
  6
CONTINUOUS
 62
    7
 10
4035.8686343092909
 20
2819.4262363649932
 11
4015.1955343092918
 21
2814.0667363649932
  0
LINE
  8
_0-0_1
  6
CONTINUOUS
 62
    7
 10
4040.0528343092919
 20
2824.049136364993
 11
4034.1660343092917
 21
2853.9928363649933
  0
LINE
  8
_0-0_1
  6
CONTINUOUS
 62
    7
 10
4044.4639343092922
 20
2822.3475363649932
 11
4040.3154343092915
 21
2843.4496363649937
  0
LINE
  8
_0-0_1
  6
CONTINUOUS
 62
    7
 10
4054.8374343092919
 20
2814.8171363649931
 11
4046.5966343092919
 21
2819.4992363649935
  0
LINE
  8
_0-0_1
  6
CONTINUOUS
 62
    7
 10
4054.4474343092911
 20
2810.4382363649934
 11
4044.0171343092925
 21
2816.3644363649933
  0
LINE
  8
_0-0_1
  6
CONTINUOUS
 62
    7
 10
4055.4953343092916
 20
2809.5613363649932
 11
4060.560934309292
 21
2780.4807363649938
  0
LINE
  8
_0-0_1
  6
CONTINUOUS
 62
    7
 10
4060.7155343092918
 20
2802.9019363649932
 11
4064.1527343092916
 21
2783.1691363649934
  0
LINE
  8
_0-0_1
  6
CONTINUOUS
 62
    7
 10
4060.9296343092915
 20
2810.1697363649937
 11
4081.5475343092921
 21
2816.4037363649932
  0
LINE
  8
_0-0_1
  6
CONTINUOUS
 62
    7
 10
4059.4905343092923
 20
2813.9135363649939
 11
4078.0631343092914
 21
2819.529136364994
  0
LINE
  8
_0-0_1
  6
CONTINUOUS
 62
    7
 10
4044.0171343092925
 20
2816.3644363649933
 11
4042.6925343092917
 21
2816.7657363649932
  0
LINE
  8
_0-0_1
  6
CONTINUOUS
 62
    7
 10
4042.6925343092917
 20
2816.7657363649932
 11
4041.127034309292
 21
2816.6574363649938
  0
LINE
  8
_0-0_1
  6
CONTINUOUS
 62
    7
 10
4040.0528343092919
 20
2824.049136364993
 11
4040.1644343092908
 21
2821.5406363649931
  0
LINE
  8
_0-0_1
  6
CONTINUOUS
 62
    7
 10
4040.1644343092908
 20
2821.5406363649931
 11
4039.0411343092915
 21
2820.136136364993
  0
LINE
  8
_0-0_1
  6
CONTINUOUS
 62
    7
 10
4039.0411343092915
 20
2820.136136364993
 11
4035.8686343092909
 21
2819.4262363649932
  0
LINE
  8
_0-0_1
  6
CONTINUOUS
 62
    7
 10
4046.5966343092919
 20
2819.4992363649935
 11
4045.7821343092919
 21
2819.8553363649926
  0
LINE
  8
_0-0_1
  6
CONTINUOUS
 62
    7
 10
4045.7821343092919
 20
2819.8553363649926
 11
4044.939534309292
 21
2821.2597363649934
  0
LINE
  8
_0-0_1
  6
CONTINUOUS
 62
    7
 10
4044.939534309292
 20
2821.2597363649934
 11
4044.4639343092922
 21
2822.3475363649932
  0
LINE
  8
_0-0_1
  6
CONTINUOUS
 62
    7
 10
4059.4905343092923
 20
2813.9135363649939
 11
4057.8598343092917
 21
2813.9568363649933
  0
LINE
  8
_0-0_1
  6
CONTINUOUS
 62
    7
 10
4057.8598343092917
 20
2813.9568363649933
 11
4056.1745343092907
 21
2814.2376363649928
  0
LINE
  8
_0-0_1
  6
CONTINUOUS
 62
    7
 10
4056.1745343092907
 20
2814.2376363649928
 11
4054.8374343092919
 21
2814.8171363649931
  0
LINE
  8
_0-0_1
  6
CONTINUOUS
 62
    7
 10
4054.4474343092911
 20
2810.4382363649934
 11
4055.4953343092916
 21
2809.5613363649932
  0
LINE
  8
_0-0_1
  6
CONTINUOUS
 62
    7
 10
4060.7155343092918
 20
2802.9019363649932
 11
4060.106834309292
 21
2806.6541363649931
  0
LINE
  8
_0-0_1
  6
CONTINUOUS
 62
    7
 10
4060.106834309292
 20
2806.6541363649931
 11
4060.106834309292
 21
2808.6203363649929
  0
LINE
  8
_0-0_1
  6
CONTINUOUS
 62
    7
 10
4060.106834309292
 20
2808.6203363649929
 11
4060.9296343092915
 21
2810.1697363649937
  0
LINE
  8
_0-0_1
  6
CONTINUOUS
 62
    7
 10
4011.1598343092919
 20
2808.3788363649933
 11
4009.2679343092914
 21
2807.4966363649937
  0
LINE
  8
_0-0_1
  6
CONTINUOUS
 62
    7
 10
4009.2679343092914
 20
2807.4966363649937
 11
4007.7446343092915
 21
2805.7556363649933
  0
LINE
  8
_0-0_1
  6
CONTINUOUS
 62
    7
 10
4012.6269343092918
 20
2857.3404363649929
 11
4030.9725343092914
 21
2857.3404363649929
  0
LINE
  8
_0-0_1
  6
CONTINUOUS
 62
    7
 10
4090.7446343092915
 20
2852.4579363649937
 11
4090.7446343092915
 21
2826.0096363649932
  0
LINE
  8
_0-0_1
  6
CONTINUOUS
 62
    7
 10
4085.8624343092915
 20
2774.3404363649934
 11
4068.2063343092909
 21
2774.3404363649934
  0
LINE
  8
_0-0_1
  6
CONTINUOUS
 62
    7
 10
4007.7446343092915
 20
2779.2227363649931
 11
4007.7446343092915
 21
2805.7556363649933
  0
LINE
  8
_0-0_1
  6
CONTINUOUS
 62
    7
 10
4058.8912343092916
 20
2774.3404363649934
 11
4012.6269343092918
 21
2774.3404363649934
  0
LINE
  8
_0-0_1
  6
CONTINUOUS
 62
    7
 10
4090.7446343092915
 20
2817.4234363649934
 11
4090.7446343092915
 21
2779.2227363649931
  0
LINE
  8
_0-0_1
  6
CONTINUOUS
 62
    7
 10
4041.5724343092916
 20
2857.3404363649929
 11
4085.8624343092915
 21
2857.3404363649929
  0
LINE
  8
_0-0_1
  6
CONTINUOUS
 62
    7
 10
4007.7446343092915
 20
2816.2402363649926
 11
4007.7446343092915
 21
2852.4579363649937
  0
LINE
  8
_0-0_1
  6
CONTINUOUS
 62
    7
 10
4065.9081343092907
 20
2896.1551363649933
 11
4061.7251343092908
 21
2920.9042363649928
  0
LINE
  8
_0-0_1
  6
CONTINUOUS
 62
    7
 10
4056.8194343092914
 20
2919.9269363649933
 11
4061.4113343092918
 21
2892.757736364993
  0
LINE
  8
_0-0_1
  6
CONTINUOUS
 62
    7
 10
4081.9390343092914
 20
2936.0050363649934
 11
4062.8316343092911
 21
2922.9595363649928
  0
LINE
  8
_0-0_1
  6
CONTINUOUS
 62
    7
 10
4083.241734309292
 20
2942.9487363649928
 11
4061.0521343092923
 21
2927.7987363649931
  0
LINE
  8
_0-0_1
  6
CONTINUOUS
 62
    7
 10
4056.7412343092919
 20
2927.6608363649934
 11
4045.7108343092909
 21
2935.1894363649926
  0
LINE
  8
_0-0_1
  6
CONTINUOUS
 62
    7
 10
4055.6962343092914
 20
2922.3203363649927
 11
4044.5830343092912
 21
2929.9056363649934
  0
LINE
  8
_0-0_1
  6
CONTINUOUS
 62
    7
 10
4041.243534309292
 20
2929.8856363649938
 11
4020.3581343092906
 21
2911.7180363649936
  0
LINE
  8
_0-0_1
  6
CONTINUOUS
 62
    7
 10
4036.8834343092922
 20
2932.7197363649934
 11
4014.7491343092925
 21
2913.4662363649927
  0
LINE
  8
_0-0_1
  6
CONTINUOUS
 62
    7
 10
4038.3777343092925
 20
2937.0044363649931
 11
4030.4970343092918
 21
2952.5342363649934
  0
LINE
  8
_0-0_1
  6
CONTINUOUS
 62
    7
 10
4043.6887343092917
 20
2937.5879363649933
 11
4038.4217343092923
 21
2947.9670363649939
  0
LINE
  8
_0-0_1
  6
CONTINUOUS
 62
    7
 10
4044.5830343092912
 20
2929.9056363649934
 11
4043.0152343092918
 21
2930.3688363649926
  0
LINE
  8
_0-0_1
  6
CONTINUOUS
 62
    7
 10
4043.0152343092918
 20
2930.3688363649926
 11
4041.243534309292
 21
2929.8856363649938
  0
LINE
  8
_0-0_1
  6
CONTINUOUS
 62
    7
 10
4036.8834343092922
 20
2932.7197363649934
 11
4038.390534309292
 21
2934.5840363649932
  0
LINE
  8
_0-0_1
  6
CONTINUOUS
 62
    7
 10
4038.6550343092922
 20
2935.6180363649928
 11
4038.3777343092925
 21
2937.0044363649931
  0
LINE
  8
_0-0_1
  6
CONTINUOUS
 62
    7
 10
4045.7108343092909
 20
2935.1894363649926
 11
4043.6887343092917
 21
2937.5879363649933
  0
LINE
  8
_0-0_1
  6
CONTINUOUS
 62
    7
 10
4038.390534309292
 20
2934.5840363649932
 11
4038.6550343092922
 21
2935.6180363649928
  0
LINE
  8
_0-0_1
  6
CONTINUOUS
 62
    7
 10
4056.8194343092914
 20
2919.9269363649933
 11
4056.3005343092914
 21
2921.5483363649937
  0
LINE
  8
_0-0_1
  6
CONTINUOUS
 62
    7
 10
4056.3005343092914
 20
2921.5483363649937
 11
4055.6962343092914
 21
2922.3203363649927
  0
LINE
  8
_0-0_1
  6
CONTINUOUS
 62
    7
 10
4061.0521343092923
 20
2927.7987363649931
 11
4058.8051343092916
 21
2926.9930363649937
  0
LINE
  8
_0-0_1
  6
CONTINUOUS
 62
    7
 10
4058.8051343092916
 20
2926.9930363649937
 11
4056.7412343092919
 21
2927.6608363649934
  0
LINE
  8
_0-0_1
  6
CONTINUOUS
 62
    7
 10
4062.8316343092911
 20
2922.9595363649928
 11
4061.7251343092908
 21
2920.9042363649928
  0
LINE
  8
_0-0_1
  6
CONTINUOUS
 62
    7
 10
4090.7446343092915
 20
2936.5543363649927
 11
4089.4223343092917
 21
2938.5769363649938
  0
LINE
  8
_0-0_1
  6
CONTINUOUS
 62
    7
 10
4089.4223343092917
 20
2938.5769363649938
 11
4088.1202343092918
 21
2938.9025363649935
  0
LINE
  8
_0-0_1
  6
CONTINUOUS
 62
    7
 10
4088.1202343092918
 20
2938.9025363649935
 11
4081.9390343092914
 21
2936.0050363649934
  0
LINE
  8
_0-0_1
  6
CONTINUOUS
 62
    7
 10
4090.7446343092915
 20
2952.3096363649938
 11
4090.0733343092911
 21
2950.2954363649928
  0
LINE
  8
_0-0_1
  6
CONTINUOUS
 62
    7
 10
4090.0733343092911
 20
2950.2954363649928
 11
4088.1202343092918
 21
2947.0403363649934
  0
LINE
  8
_0-0_1
  6
CONTINUOUS
 62
    7
 10
4088.1202343092918
 20
2947.0403363649934
 11
4083.241734309292
 21
2942.9487363649928
  0
LINE
  8
_0-0_1
  6
CONTINUOUS
 62
    7
 10
4072.8210343092924
 20
2877.3801363649927
 11
4070.5424343092914
 21
2879.3334363649933
  0
LINE
  8
_0-0_1
  6
CONTINUOUS
 62
    7
 10
4070.5424343092914
 20
2879.3334363649933
 11
4069.2403343092919
 21
2881.9374363649931
  0
LINE
  8
_0-0_1
  6
CONTINUOUS
 62
    7
 10
4069.2403343092919
 20
2881.9374363649931
 11
4065.9081343092907
 21
2896.1551363649933
  0
LINE
  8
_0-0_1
  6
CONTINUOUS
 62
    7
 10
4061.4113343092918
 20
2892.757736364993
 11
4061.7536343092911
 21
2887.7965363649937
  0
LINE
  8
_0-0_1
  6
CONTINUOUS
 62
    7
 10
4061.7536343092911
 20
2887.7965363649937
 11
4062.078934309292
 21
2881.9374363649931
  0
LINE
  8
_0-0_1
  6
CONTINUOUS
 62
    7
 10
4062.078934309292
 20
2881.9374363649931
 11
4061.7536343092911
 21
2879.6587363649942
  0
LINE
  8
_0-0_1
  6
CONTINUOUS
 62
    7
 10
4061.7536343092911
 20
2879.6587363649942
 11
4060.125934309292
 21
2877.7057363649928
  0
LINE
  8
_0-0_1
  6
CONTINUOUS
 62
    7
 10
4060.125934309292
 20
2877.7057363649928
 11
4059.2386343092921
 21
2877.3402363649934
  0
LINE
  8
_0-0_1
  6
CONTINUOUS
 62
    7
 10
4038.4217343092923
 20
2947.9670363649939
 11
4036.0379343092918
 21
2954.2017363649929
  0
LINE
  8
_0-0_1
  6
CONTINUOUS
 62
    7
 10
4036.0379343092918
 20
2954.2017363649929
 11
4035.0612343092916
 21
2957.782236364993
  0
LINE
  8
_0-0_1
  6
CONTINUOUS
 62
    7
 10
4035.0612343092916
 20
2957.782236364993
 11
4035.0612343092916
 21
2959.7355363649931
  0
LINE
  8
_0-0_1
  6
CONTINUOUS
 62
    7
 10
4035.0612343092916
 20
2959.7355363649931
 11
4035.7095343092919
 21
2960.3402363649939
  0
LINE
  8
_0-0_1
  6
CONTINUOUS
 62
    7
 10
4030.4970343092918
 20
2952.5342363649934
 11
4028.8765343092919
 21
2955.1781363649934
  0
LINE
  8
_0-0_1
  6
CONTINUOUS
 62
    7
 10
4028.8765343092919
 20
2955.1781363649934
 11
4025.9468343092922
 21
2959.7355363649931
  0
LINE
  8
_0-0_1
  6
CONTINUOUS
 62
    7
 10
4025.9468343092922
 20
2959.7355363649931
 11
4024.9961343092918
 21
2960.3402363649939
  0
LINE
  8
_0-0_1
  6
CONTINUOUS
 62
    7
 10
4020.3581343092906
 20
2911.7180363649936
 11
4010.6476343092913
 21
2901.4683363649929
  0
LINE
  8
_0-0_1
  6
CONTINUOUS
 62
    7
 10
4010.6476343092913
 20
2901.4683363649929
 11
4007.7446343092915
 21
2895.2994363649932
  0
LINE
  8
_0-0_1
  6
CONTINUOUS
 62
    7
 10
4014.7491343092925
 20
2913.4662363649927
 11
4010.9732343092919
 21
2911.8848363649927
  0
LINE
  8
_0-0_1
  6
CONTINUOUS
 62
    7
 10
4010.9732343092919
 20
2911.8848363649927
 11
4009.0202343092915
 21
2912.2102363649938
  0
LINE
  8
_0-0_1
  6
CONTINUOUS
 62
    7
 10
4009.0202343092915
 20
2912.2102363649938
 11
4007.7446343092915
 21
2912.9604363649933
  0
LINE
  8
_0-0_1
  6
CONTINUOUS
 62
    7
 10
4012.6269343092918
 20
2960.3402363649939
 11
4024.9961343092918
 21
2960.3402363649939
  0
LINE
  8
_0-0_1
  6
CONTINUOUS
 62
    7
 10
4090.7446343092915
 20
2955.4580363649934
 11
4090.7446343092915
 21
2952.3096363649938
  0
LINE
  8
_0-0_1
  6
CONTINUOUS
 62
    7
 10
4085.8624343092915
 20
2877.3402363649934
 11
4072.8210343092924
 21
2877.3402363649934
  0
LINE
  8
_0-0_1
  6
CONTINUOUS
 62
    7
 10
4007.7446343092915
 20
2882.2227363649931
 11
4007.7446343092915
 21
2895.2994363649932
  0
LINE
  8
_0-0_1
  6
CONTINUOUS
 62
    7
 10
4059.2386343092921
 20
2877.3402363649934
 11
4012.6269343092918
 21
2877.3402363649934
  0
LINE
  8
_0-0_1
  6
CONTINUOUS
 62
    7
 10
4090.7446343092915
 20
2936.5543363649927
 11
4090.7446343092915
 21
2882.2227363649931
  0
LINE
  8
_0-0_1
  6
CONTINUOUS
 62
    7
 10
4035.7095343092919
 20
2960.3402363649939
 11
4085.8624343092915
 21
2960.3402363649939
  0
LINE
  8
_0-0_1
  6
CONTINUOUS
 62
    7
 10
4007.7446343092915
 20
2912.9604363649933
 11
4007.7446343092915
 21
2955.4580363649934
  0
LINE
  8
_0-0_1
  6
CONTINUOUS
 62
    7
 10
3858.7445343092918
 20
2706.0989363649933
 11
3878.1312343092914
 21
2722.9625363649934
  0
LINE
  8
_0-0_1
  6
CONTINUOUS
 62
    7
 10
3858.7445343092918
 20
2699.4720363649931
 11
3883.739934309292
 21
2721.2145363649925
  0
LINE
  8
_0-0_1
  6
CONTINUOUS
 62
    7
 10
3878.1312343092914
 20
2722.9625363649934
 11
3887.8415343092915
 21
2733.2125363649939
  0
LINE
  8
_0-0_1
  6
CONTINUOUS
 62
    7
 10
3887.8415343092915
 20
2733.2125363649939
 11
3890.7447343092917
 21
2739.3814363649931
  0
LINE
  8
_0-0_1
  6
CONTINUOUS
 62
    7
 10
3883.739934309292
 20
2721.2145363649925
 11
3887.5161343092914
 21
2722.7959363649934
  0
LINE
  8
_0-0_1
  6
CONTINUOUS
 62
    7
 10
3887.5161343092914
 20
2722.7959363649934
 11
3889.4691343092918
 21
2722.4704363649935
  0
LINE
  8
_0-0_1
  6
CONTINUOUS
 62
    7
 10
3889.4691343092918
 20
2722.4704363649935
 11
3890.7447343092917
 21
2721.7201363649933
  0
LINE
  8
_0-0_1
  6
CONTINUOUS
 62
    7
 10
3885.862234309292
 20
2674.3404363649934
 11
3858.7445343092918
 21
2674.3404363649934
  0
LINE
  8
_0-0_1
  6
CONTINUOUS
 62
    7
 10
3890.7447343092917
 20
2752.4581363649932
 11
3890.7447343092917
 21
2739.3814363649931
  0
LINE
  8
_0-0_1
  6
CONTINUOUS
 62
    7
 10
3858.7445343092918
 20
2757.3403363649932
 11
3885.862234309292
 21
2757.3403363649932
  0
LINE
  8
_0-0_1
  6
CONTINUOUS
 62
    7
 10
3890.7447343092917
 20
2721.7201363649933
 11
3890.7447343092917
 21
2679.2227363649931
  0
LINE
  8
_0-0_1
  6
CONTINUOUS
 62
    7
 10
3884.7460343092916
 20
2837.6771363649937
 11
3887.2362343092914
 21
2840.5501363649928
  0
LINE
  8
_0-0_1
  6
CONTINUOUS
 62
    7
 10
3887.2362343092914
 20
2840.5501363649928
 11
3889.6302343092921
 21
2844.9964363649933
  0
LINE
  8
_0-0_1
  6
CONTINUOUS
 62
    7
 10
3889.6302343092921
 20
2844.9964363649933
 11
3890.7447343092917
 21
2848.4986363649928
  0
LINE
  8
_0-0_1
  6
CONTINUOUS
 62
    7
 10
3884.4488343092917
 20
2831.0603363649934
 11
3886.4895343092912
 21
2831.9006363649933
  0
LINE
  8
_0-0_1
  6
CONTINUOUS
 62
    7
 10
3886.4895343092912
 20
2831.9006363649933
 11
3888.5415343092927
 21
2832.5846363649935
  0
LINE
  8
_0-0_1
  6
CONTINUOUS
 62
    7
 10
3888.5415343092927
 20
2832.5846363649935
 11
3889.9096343092915
 21
2832.5846363649935
  0
LINE
  8
_0-0_1
  6
CONTINUOUS
 62
    7
 10
3858.7445343092918
 20
2817.0604363649932
 11
3884.7460343092916
 21
2837.6771363649937
  0
LINE
  8
_0-0_1
  6
CONTINUOUS
 62
    7
 10
3858.7445343092918
 20
2810.6795363649935
 11
3884.4488343092917
 21
2831.0603363649934
  0
LINE
  8
_0-0_1
  6
CONTINUOUS
 62
    7
 10
3889.9096343092915
 20
2832.5846363649935
 11
3890.7447343092917
 21
2831.9323363649933
  0
LINE
  8
_0-0_1
  6
CONTINUOUS
 62
    7
 10
3890.7447343092917
 20
2779.2227363649931
 11
3890.7447343092917
 21
2831.9323363649933
  0
LINE
  8
_0-0_1
  6
CONTINUOUS
 62
    7
 10
3858.7445343092918
 20
2774.3404363649934
 11
3885.862234309292
 21
2774.3404363649934
  0
LINE
  8
_0-0_1
  6
CONTINUOUS
 62
    7
 10
3890.7447343092917
 20
2848.4986363649928
 11
3890.7447343092917
 21
2852.4579363649937
  0
LINE
  8
_0-0_1
  6
CONTINUOUS
 62
    7
 10
3879.9105343092924
 20
2924.0608363649931
 11
3887.603234309292
 21
2926.8581363649937
  0
LINE
  8
_0-0_1
  6
CONTINUOUS
 62
    7
 10
3887.603234309292
 20
2926.8581363649937
 11
3890.1478343092917
 21
2928.2718363649933
  0
LINE
  8
_0-0_1
  6
CONTINUOUS
 62
    7
 10
3890.1478343092917
 20
2928.2718363649933
 11
3890.7447343092917
 21
2929.1398363649932
  0
LINE
  8
_0-0_1
  6
CONTINUOUS
 62
    7
 10
3877.2629343092913
 20
2919.1920363649933
 11
3884.4931343092912
 21
2920.6380363649932
  0
LINE
  8
_0-0_1
  6
CONTINUOUS
 62
    7
 10
3884.4931343092912
 20
2920.6380363649932
 11
3888.7342343092923
 21
2921.4862363649936
  0
LINE
  8
_0-0_1
  6
CONTINUOUS
 62
    7
 10
3888.7342343092923
 20
2921.4862363649936
 11
3890.430734309291
 21
2921.2034363649936
  0
LINE
  8
_0-0_1
  6
CONTINUOUS
 62
    7
 10
3890.430734309291
 20
2921.2034363649936
 11
3890.7447343092917
 21
2920.9287363649928
  0
LINE
  8
_0-0_1
  6
CONTINUOUS
 62
    7
 10
3858.7445343092918
 20
2918.2839363649928
 11
3879.9105343092924
 21
2924.0608363649931
  0
LINE
  8
_0-0_1
  6
CONTINUOUS
 62
    7
 10
3858.7445343092918
 20
2914.1378363649933
 11
3877.2629343092913
 21
2919.1920363649933
  0
LINE
  8
_0-0_1
  6
CONTINUOUS
 62
    7
 10
3890.7447343092917
 20
2882.2227363649931
 11
3890.7447343092917
 21
2920.9287363649928
  0
LINE
  8
_0-0_1
  6
CONTINUOUS
 62
    7
 10
3885.862234309292
 20
2960.3402363649939
 11
3858.7445343092918
 21
2960.3402363649939
  0
LINE
  8
_0-0_1
  6
CONTINUOUS
 62
    7
 10
3890.7447343092917
 20
2929.1398363649932
 11
3890.7447343092917
 21
2955.4580363649934
  0
LINE
  8
_0-0_1
  6
CONTINUOUS
 62
    7
 10
3882.5304343092912
 20
3024.5484363649934
 11
3887.3295343092923
 21
3026.302036364993
  0
LINE
  8
_0-0_1
  6
CONTINUOUS
 62
    7
 10
3883.2938343092919
 20
3020.6141363649931
 11
3886.9116343092919
 21
3020.6141363649931
  0
LINE
  8
_0-0_1
  6
CONTINUOUS
 62
    7
 10
3886.9116343092919
 20
3020.6141363649931
 11
3888.6652343092919
 21
3020.3219363649937
  0
LINE
  8
_0-0_1
  6
CONTINUOUS
 62
    7
 10
3888.6652343092919
 20
3020.3219363649937
 11
3890.7447343092917
 21
3018.4406363649932
  0
LINE
  8
_0-0_1
  6
CONTINUOUS
 62
    7
 10
3858.7445343092918
 20
3018.3817363649928
 11
3882.5304343092912
 21
3024.5484363649934
  0
LINE
  8
_0-0_1
  6
CONTINUOUS
 62
    7
 10
3858.7445343092918
 20
3014.2494363649935
 11
3883.2938343092919
 21
3020.6141363649931
  0
LINE
  8
_0-0_1
  6
CONTINUOUS
 62
    7
 10
3887.3295343092923
 20
3026.302036364993
 11
3889.221234309291
 21
3027.1841363649937
  0
LINE
  8
_0-0_1
  6
CONTINUOUS
 62
    7
 10
3889.221234309291
 20
3027.1841363649937
 11
3890.7447343092917
 21
3028.9248363649931
  0
LINE
  8
_0-0_1
  6
CONTINUOUS
 62
    7
 10
3885.862234309292
 20
2977.3403363649932
 11
3858.7445343092918
 21
2977.3403363649932
  0
LINE
  8
_0-0_1
  6
CONTINUOUS
 62
    7
 10
3890.7447343092917
 20
3055.4581363649932
 11
3890.7447343092917
 21
3028.9248363649931
  0
LINE
  8
_0-0_1
  6
CONTINUOUS
 62
    7
 10
3858.7445343092918
 20
3060.3403363649936
 11
3885.862234309292
 21
3060.3403363649936
  0
LINE
  8
_0-0_1
  6
CONTINUOUS
 62
    7
 10
3890.7447343092917
 20
3018.4406363649932
 11
3890.7447343092917
 21
2982.2228363649938
  0
LINE
  8
_0-0_1
  6
CONTINUOUS
 62
    7
 10
3307.7445343092909
 20
3008.9817363649936
 11
3308.9946343092915
 21
3009.9816363649925
  0
LINE
  8
_0-0_1
  6
CONTINUOUS
 62
    7
 10
3308.9946343092915
 20
3009.9816363649925
 11
3310.9739343092911
 21
3010.2644363649938
  0
LINE
  8
_0-0_1
  6
CONTINUOUS
 62
    7
 10
3310.9739343092911
 20
3010.2644363649938
 11
3316.0127343092918
 21
3010.6121363649931
  0
LINE
  8
_0-0_1
  6
CONTINUOUS
 62
    7
 10
3316.770934309292
 20
3014.5627363649937
 11
3313.5185343092917
 21
3015.3538363649932
  0
LINE
  8
_0-0_1
  6
CONTINUOUS
 62
    7
 10
3313.5185343092917
 20
3015.3538363649932
 11
3310.1256343092919
 21
3016.2020363649931
  0
LINE
  8
_0-0_1
  6
CONTINUOUS
 62
    7
 10
3310.1256343092919
 20
3016.2020363649931
 11
3307.8636343092912
 21
3017.8984363649938
  0
LINE
  8
_0-0_1
  6
CONTINUOUS
 62
    7
 10
3339.7447343092917
 20
3012.6460363649931
 11
3316.770934309292
 21
3014.5627363649937
  0
LINE
  8
_0-0_1
  6
CONTINUOUS
 62
    7
 10
3316.0127343092918
 20
3010.6121363649931
 11
3339.7447343092917
 21
3008.632136364994
  0
LINE
  8
_0-0_1
  6
CONTINUOUS
 62
    7
 10
3307.7445343092909
 20
3055.4581363649932
 11
3307.7445343092909
 21
3017.8984363649938
  0
LINE
  8
_0-0_1
  6
CONTINUOUS
 62
    7
 10
3312.6270343092915
 20
2977.3403363649932
 11
3339.7447343092917
 21
2977.3403363649932
  0
LINE
  8
_0-0_1
  6
CONTINUOUS
 62
    7
 10
3307.7445343092909
 20
3008.9817363649936
 11
3307.7445343092909
 21
2982.2228363649938
  0
LINE
  8
_0-0_1
  6
CONTINUOUS
 62
    7
 10
3339.7447343092917
 20
3060.3403363649936
 11
3312.6270343092915
 21
3060.3403363649936
  0
LINE
  8
_0-0_1
  6
CONTINUOUS
 62
    7
 10
3308.1201343092916
 20
2697.425036364993
 11
3307.7445343092909
 21
2696.8785363649931
  0
LINE
  8
_0-0_1
  6
CONTINUOUS
 62
    7
 10
3308.1201343092916
 20
2697.425036364993
 11
3310.7507343092921
 21
2698.8864363649927
  0
LINE
  8
_0-0_1
  6
CONTINUOUS
 62
    7
 10
3310.7507343092921
 20
2698.8864363649927
 11
3316.5734343092913
 21
2700.9321363649933
  0
LINE
  8
_0-0_1
  6
CONTINUOUS
 62
    7
 10
3313.8850343092918
 20
2704.524136364993
 11
3311.7991343092917
 21
2704.6234363649933
  0
LINE
  8
_0-0_1
  6
CONTINUOUS
 62
    7
 10
3311.7991343092917
 20
2704.6234363649933
 11
3309.7532343092917
 21
2704.9156363649936
  0
LINE
  8
_0-0_1
  6
CONTINUOUS
 62
    7
 10
3309.7532343092917
 20
2704.9156363649936
 11
3307.7445343092909
 21
2706.1939363649935
  0
LINE
  8
_0-0_1
  6
CONTINUOUS
 62
    7
 10
3339.7447343092917
 20
2709.0287363649932
 11
3313.8850343092918
 21
2704.524136364993
  0
LINE
  8
_0-0_1
  6
CONTINUOUS
 62
    7
 10
3339.7447343092917
 20
2704.9685363649933
 11
3316.5734343092913
 21
2700.9321363649933
  0
LINE
  8
_0-0_1
  6
CONTINUOUS
 62
    7
 10
3307.7445343092909
 20
2679.2227363649931
 11
3307.7445343092909
 21
2696.8785363649931
  0
LINE
  8
_0-0_1
  6
CONTINUOUS
 62
    7
 10
3312.6270343092915
 20
2757.3403363649932
 11
3339.7447343092917
 21
2757.3403363649932
  0
LINE
  8
_0-0_1
  6
CONTINUOUS
 62
    7
 10
3307.7445343092909
 20
2706.1939363649935
 11
3307.7445343092909
 21
2752.4581363649932
  0
LINE
  8
_0-0_1
  6
CONTINUOUS
 62
    7
 10
3339.7447343092917
 20
2674.3404363649934
 11
3312.6270343092915
 21
2674.3404363649934
  0
LINE
  8
_0-0_1
  6
CONTINUOUS
 62
    7
 10
3326.5591343092915
 20
2799.1770363649939
 11
3339.7447343092917
 21
2801.4054363649934
  0
LINE
  8
_0-0_1
  6
CONTINUOUS
 62
    7
 10
3339.7447343092917
 20
2806.4764363649929
 11
3323.1620343092914
 21
2803.6737363649936
  0
LINE
  8
_0-0_1
  6
CONTINUOUS
 62
    7
 10
3307.784434309292
 20
2792.264036364993
 11
3309.7377343092912
 21
2794.5427363649928
  0
LINE
  8
_0-0_1
  6
CONTINUOUS
 62
    7
 10
3309.7377343092912
 20
2794.5427363649928
 11
3312.3417343092924
 21
2795.8447363649934
  0
LINE
  8
_0-0_1
  6
CONTINUOUS
 62
    7
 10
3312.3417343092924
 20
2795.8447363649934
 11
3326.5591343092915
 21
2799.1770363649939
  0
LINE
  8
_0-0_1
  6
CONTINUOUS
 62
    7
 10
3323.1620343092914
 20
2803.6737363649936
 11
3318.2008343092916
 21
2803.3315363649936
  0
LINE
  8
_0-0_1
  6
CONTINUOUS
 62
    7
 10
3318.2008343092916
 20
2803.3315363649936
 11
3312.3417343092924
 21
2803.0061363649929
  0
LINE
  8
_0-0_1
  6
CONTINUOUS
 62
    7
 10
3312.3417343092924
 20
2803.0061363649929
 11
3310.0630343092917
 21
2803.3315363649936
  0
LINE
  8
_0-0_1
  6
CONTINUOUS
 62
    7
 10
3310.0630343092917
 20
2803.3315363649936
 11
3308.1100343092908
 21
2804.9591363649934
  0
LINE
  8
_0-0_1
  6
CONTINUOUS
 62
    7
 10
3308.1100343092908
 20
2804.9591363649934
 11
3307.7445343092909
 21
2805.8465363649934
  0
LINE
  8
_0-0_1
  6
CONTINUOUS
 62
    7
 10
3307.7445343092909
 20
2779.2227363649931
 11
3307.7445343092909
 21
2792.264036364993
  0
LINE
  8
_0-0_1
  6
CONTINUOUS
 62
    7
 10
3307.7445343092909
 20
2805.8465363649934
 11
3307.7445343092909
 21
2852.4579363649937
  0
LINE
  8
_0-0_1
  6
CONTINUOUS
 62
    7
 10
3339.7447343092917
 20
2774.3404363649934
 11
3312.6270343092915
 21
2774.3404363649934
  0
LINE
  8
_0-0_1
  6
CONTINUOUS
 62
    7
 10
3307.7445343092909
 20
2889.1852363649932
 11
3309.658734309292
 21
2890.9930363649933
  0
LINE
  8
_0-0_1
  6
CONTINUOUS
 62
    7
 10
3309.658734309292
 20
2890.9930363649933
 11
3314.446734309292
 21
2893.0450363649934
  0
LINE
  8
_0-0_1
  6
CONTINUOUS
 62
    7
 10
3314.446734309292
 20
2893.0450363649934
 11
3318.0712343092914
 21
2894.5279363649929
  0
LINE
  8
_0-0_1
  6
CONTINUOUS
 62
    7
 10
3307.7445343092909
 20
2901.6430363649938
 11
3308.7298343092916
 21
2900.8547363649941
  0
LINE
  8
_0-0_1
  6
CONTINUOUS
 62
    7
 10
3308.7298343092916
 20
2900.8547363649941
 11
3311.1241343092911
 21
2899.4868363649939
  0
LINE
  8
_0-0_1
  6
CONTINUOUS
 62
    7
 10
3311.1241343092911
 20
2899.4868363649939
 11
3314.2020343092918
 21
2899.4868363649939
  0
LINE
  8
_0-0_1
  6
CONTINUOUS
 62
    7
 10
3314.2020343092918
 20
2899.4868363649939
 11
3324.2554343092911
 21
2901.2461363649927
  0
LINE
  8
_0-0_1
  6
CONTINUOUS
 62
    7
 10
3324.2554343092911
 20
2901.2461363649927
 11
3339.7447343092917
 21
2905.1567363649933
  0
LINE
  8
_0-0_1
  6
CONTINUOUS
 62
    7
 10
3318.0712343092914
 20
2894.5279363649929
 11
3339.7447343092917
 21
2899.9998363649929
  0
LINE
  8
_0-0_1
  6
CONTINUOUS
 62
    7
 10
3307.7445343092909
 20
2955.4580363649934
 11
3307.7445343092909
 21
2901.6430363649938
  0
LINE
  8
_0-0_1
  6
CONTINUOUS
 62
    7
 10
3307.7445343092909
 20
2889.1852363649932
 11
3307.7445343092909
 21
2882.2227363649931
  0
LINE
  8
_0-0_1
  6
CONTINUOUS
 62
    7
 10
3339.7447343092917
 20
2960.3402363649939
 11
3312.6270343092915
 21
2960.3402363649939
  0
LINE
  8
_0-0_1
  6
CONTINUOUS
 62
    7
 10
3339.7447343092917
 20
3060.3403363649936
 11
3339.7447343092917
 21
3012.6460363649931
  0
LINE
  8
_0-0_1
  6
CONTINUOUS
 62
    7
 10
3339.7447343092917
 20
2757.3403363649932
 11
3339.7447343092917
 21
2709.0287363649932
  0
LINE
  8
_0-0_1
  6
CONTINUOUS
 62
    7
 10
3339.7447343092917
 20
2857.3404363649929
 11
3339.7447343092917
 21
2806.4764363649929
  0
LINE
  8
_0-0_1
  6
CONTINUOUS
 62
    7
 10
3339.7447343092917
 20
2960.3402363649939
 11
3339.7447343092917
 21
2905.1567363649933
  0
LINE
  8
_0-0_1
  6
CONTINUOUS
 62
    7
 10
3858.7445343092918
 20
3060.3403363649936
 11
3858.7445343092918
 21
3018.3817363649928
  0
LINE
  8
_0-0_1
  6
CONTINUOUS
 62
    7
 10
3858.7445343092918
 20
2757.3403363649932
 11
3858.7445343092918
 21
2706.0989363649933
  0
LINE
  8
_0-0_1
  6
CONTINUOUS
 62
    7
 10
3858.7445343092918
 20
2857.3404363649929
 11
3858.7445343092918
 21
2817.0604363649932
  0
LINE
  8
_0-0_1
  6
CONTINUOUS
 62
    7
 10
3858.7445343092918
 20
2960.3402363649939
 11
3858.7445343092918
 21
2918.2839363649928
  0
LINE
  8
_0-0_1
  6
CONTINUOUS
 62
    7
 10
3339.7447343092917
 20
3008.632136364994
 11
3339.7447343092917
 21
2977.3403363649932
  0
LINE
  8
_0-0_1
  6
CONTINUOUS
 62
    7
 10
3339.7447343092917
 20
2899.9998363649929
 11
3339.7447343092917
 21
2877.3402363649934
  0
LINE
  8
_0-0_1
  6
CONTINUOUS
 62
    7
 10
3339.7447343092917
 20
2801.4054363649934
 11
3339.7447343092917
 21
2774.3404363649934
  0
LINE
  8
_0-0_1
  6
CONTINUOUS
 62
    7
 10
3339.7447343092917
 20
2704.9685363649933
 11
3339.7447343092917
 21
2674.3404363649934
  0
LINE
  8
_0-0_1
  6
CONTINUOUS
 62
    7
 10
3858.7445343092918
 20
2810.6795363649935
 11
3858.7445343092918
 21
2774.3404363649934
  0
LINE
  8
_0-0_1
  6
CONTINUOUS
 62
    7
 10
3858.7445343092918
 20
2914.1378363649933
 11
3858.7445343092918
 21
2877.3402363649934
  0
LINE
  8
_0-0_1
  6
CONTINUOUS
 62
    7
 10
3858.7445343092918
 20
3014.2494363649935
 11
3858.7445343092918
 21
2977.3403363649932
  0
LINE
  8
_0-0_1
  6
CONTINUOUS
 62
    7
 10
3858.7445343092918
 20
2699.4720363649931
 11
3858.7445343092918
 21
2674.3404363649934
  0
LINE
  8
_0-0_1
  6
CONTINUOUS
 62
    7
 10
3349.2446343092925
 20
3076.8403363649932
 11
3349.2446343092925
 21
2657.8403363649932
  0
LINE
  8
_0-0_1
  6
CONTINUOUS
 62
    7
 10
3849.2448343092919
 20
3076.8403363649932
 11
3849.2448343092919
 21
2657.8403363649932
  0
LINE
  8
_0-0_1
  6
CONTINUOUS
 62
    7
 10
3349.2446343092925
 20
3027.3402363649934
 11
3849.2448343092919
 21
3027.3402363649934
  0
LINE
  8
_0-0_1
  6
CONTINUOUS
 62
    7
 10
3349.2446343092925
 20
3024.8404363649934
 11
3849.2448343092919
 21
3024.8404363649934
  0
LINE
  8
_0-0_1
  6
CONTINUOUS
 62
    7
 10
3349.2446343092925
 20
2707.3403363649932
 11
3849.2448343092919
 21
2707.3403363649932
  0
LINE
  8
_0-0_1
  6
CONTINUOUS
 62
    7
 10
3349.2446343092925
 20
2709.8403363649932
 11
3849.2448343092919
 21
2709.8403363649932
  0
LINE
  8
_0-0_1
  6
CONTINUOUS
 62
    7
 10
3349.2446343092925
 20
2657.8403363649932
 11
3849.2448343092919
 21
2657.8403363649932
  0
LINE
  8
_0-0_1
  6
CONTINUOUS
 62
    7
 10
3367.9880343092918
 20
3050.9393363649929
 11
3369.4023343092922
 21
3052.3534363649933
  0
LINE
  8
_0-0_1
  6
CONTINUOUS
 62
    7
 10
3358.3165343092915
 20
3063.4392363649931
 11
3356.9022343092915
 21
3062.0251363649932
  0
LINE
  8
_0-0_1
  6
CONTINUOUS
 62
    7
 10
3361.3845343092912
 20
3055.4214363649926
 11
3367.9880343092918
 21
3050.9393363649929
  0
LINE
  8
_0-0_1
  6
CONTINUOUS
 62
    7
 10
3369.4023343092922
 20
3052.3534363649933
 11
3364.9200343092912
 21
3058.9569363649935
  0
LINE
  8
_0-0_1
  6
CONTINUOUS
 62
    7
 10
3364.9200343092912
 20
3058.9569363649935
 11
3358.3165343092915
 21
3063.4392363649931
  0
LINE
  8
_0-0_1
  6
CONTINUOUS
 62
    7
 10
3356.9022343092915
 20
3062.0251363649932
 11
3361.3845343092912
 21
3055.4214363649926
  0
LINE
  8
_0-0_1
  6
CONTINUOUS
 62
    7
 10
3387.0235343092918
 20
3047.9391363649934
 11
3388.437934309291
 21
3046.525036364993
  0
LINE
  8
_0-0_1
  6
CONTINUOUS
 62
    7
 10
3377.3521343092916
 20
3035.4392363649922
 11
3375.9377343092915
 21
3036.8533363649931
  0
LINE
  8
_0-0_1
  6
CONTINUOUS
 62
    7
 10
3380.4201343092918
 20
3043.4570363649927
 11
3387.0235343092918
 21
3047.9391363649934
  0
LINE
  8
_0-0_1
  6
CONTINUOUS
 62
    7
 10
3388.437934309291
 20
3046.525036364993
 11
3383.9555343092925
 21
3039.9216363649934
  0
LINE
  8
_0-0_1
  6
CONTINUOUS
 62
    7
 10
3383.9555343092925
 20
3039.9216363649934
 11
3377.3521343092916
 21
3035.4392363649922
  0
LINE
  8
_0-0_1
  6
CONTINUOUS
 62
    7
 10
3375.9377343092915
 20
3036.8533363649931
 11
3380.4201343092918
 21
3043.4570363649927
  0
LINE
  8
_0-0_1
  6
CONTINUOUS
 62
    7
 10
3406.0591343092915
 20
3050.9393363649929
 11
3407.473434309291
 21
3052.3534363649933
  0
LINE
  8
_0-0_1
  6
CONTINUOUS
 62
    7
 10
3396.387634309292
 20
3063.4392363649931
 11
3394.9733343092921
 21
3062.0251363649932
  0
LINE
  8
_0-0_1
  6
CONTINUOUS
 62
    7
 10
3399.4556343092918
 20
3055.4214363649926
 11
3406.0591343092915
 21
3050.9393363649929
  0
LINE
  8
_0-0_1
  6
CONTINUOUS
 62
    7
 10
3407.473434309291
 20
3052.3534363649933
 11
3402.9910343092924
 21
3058.9569363649935
  0
LINE
  8
_0-0_1
  6
CONTINUOUS
 62
    7
 10
3402.9910343092924
 20
3058.9569363649935
 11
3396.387634309292
 21
3063.4392363649931
  0
LINE
  8
_0-0_1
  6
CONTINUOUS
 62
    7
 10
3394.9733343092921
 20
3062.0251363649932
 11
3399.4556343092918
 21
3055.4214363649926
  0
LINE
  8
_0-0_1
  6
CONTINUOUS
 62
    7
 10
3425.0946343092915
 20
3047.9391363649934
 11
3426.5090343092925
 21
3046.525036364993
  0
LINE
  8
_0-0_1
  6
CONTINUOUS
 62
    7
 10
3415.4232343092917
 20
3035.4392363649922
 11
3414.0088343092907
 21
3036.8533363649931
  0
LINE
  8
_0-0_1
  6
CONTINUOUS
 62
    7
 10
3418.4912343092919
 20
3043.4570363649927
 11
3425.0946343092915
 21
3047.9391363649934
  0
LINE
  8
_0-0_1
  6
CONTINUOUS
 62
    7
 10
3426.5090343092925
 20
3046.525036364993
 11
3422.0266343092912
 21
3039.9216363649934
  0
LINE
  8
_0-0_1
  6
CONTINUOUS
 62
    7
 10
3422.0266343092912
 20
3039.9216363649934
 11
3415.4232343092917
 21
3035.4392363649922
  0
LINE
  8
_0-0_1
  6
CONTINUOUS
 62
    7
 10
3414.0088343092907
 20
3036.8533363649931
 11
3418.4912343092919
 21
3043.4570363649927
  0
LINE
  8
_0-0_1
  6
CONTINUOUS
 62
    7
 10
3444.1301343092914
 20
3050.9393363649929
 11
3445.5445343092924
 21
3052.3534363649933
  0
LINE
  8
_0-0_1
  6
CONTINUOUS
 62
    7
 10
3434.4587343092917
 20
3063.4392363649931
 11
3433.044334309292
 21
3062.0251363649932
  0
LINE
  8
_0-0_1
  6
CONTINUOUS
 62
    7
 10
3437.5267343092919
 20
3055.4214363649926
 11
3444.1301343092914
 21
3050.9393363649929
  0
LINE
  8
_0-0_1
  6
CONTINUOUS
 62
    7
 10
3445.5445343092924
 20
3052.3534363649933
 11
3441.0621343092912
 21
3058.9569363649935
  0
LINE
  8
_0-0_1
  6
CONTINUOUS
 62
    7
 10
3441.0621343092912
 20
3058.9569363649935
 11
3434.4587343092917
 21
3063.4392363649931
  0
LINE
  8
_0-0_1
  6
CONTINUOUS
 62
    7
 10
3433.044334309292
 20
3062.0251363649932
 11
3437.5267343092919
 21
3055.4214363649926
  0
LINE
  8
_0-0_1
  6
CONTINUOUS
 62
    7
 10
3463.1657343092916
 20
3047.9391363649934
 11
3464.5801343092917
 21
3046.525036364993
  0
LINE
  8
_0-0_1
  6
CONTINUOUS
 62
    7
 10
3453.4943343092914
 20
3035.4392363649922
 11
3452.0799343092908
 21
3036.8533363649931
  0
LINE
  8
_0-0_1
  6
CONTINUOUS
 62
    7
 10
3456.5623343092911
 20
3043.4570363649927
 11
3463.1657343092916
 21
3047.9391363649934
  0
LINE
  8
_0-0_1
  6
CONTINUOUS
 62
    7
 10
3464.5801343092917
 20
3046.525036364993
 11
3460.0977343092918
 21
3039.9216363649934
  0
LINE
  8
_0-0_1
  6
CONTINUOUS
 62
    7
 10
3460.0977343092918
 20
3039.9216363649934
 11
3453.4943343092914
 21
3035.4392363649922
  0
LINE
  8
_0-0_1
  6
CONTINUOUS
 62
    7
 10
3452.0799343092908
 20
3036.8533363649931
 11
3456.5623343092911
 21
3043.4570363649927
  0
LINE
  8
_0-0_1
  6
CONTINUOUS
 62
    7
 10
3482.2012343092915
 20
3050.9393363649929
 11
3483.6154343092921
 21
3052.3534363649933
  0
LINE
  8
_0-0_1
  6
CONTINUOUS
 62
    7
 10
3472.5298343092913
 20
3063.4392363649931
 11
3471.1154343092921
 21
3062.0251363649932
  0
LINE
  8
_0-0_1
  6
CONTINUOUS
 62
    7
 10
3475.597834309292
 20
3055.4214363649926
 11
3482.2012343092915
 21
3050.9393363649929
  0
LINE
  8
_0-0_1
  6
CONTINUOUS
 62
    7
 10
3483.6154343092921
 20
3052.3534363649933
 11
3479.1332343092918
 21
3058.9569363649935
  0
LINE
  8
_0-0_1
  6
CONTINUOUS
 62
    7
 10
3479.1332343092918
 20
3058.9569363649935
 11
3472.5298343092913
 21
3063.4392363649931
  0
LINE
  8
_0-0_1
  6
CONTINUOUS
 62
    7
 10
3471.1154343092921
 20
3062.0251363649932
 11
3475.597834309292
 21
3055.4214363649926
  0
LINE
  8
_0-0_1
  6
CONTINUOUS
 62
    7
 10
3501.2368343092921
 20
3047.9391363649934
 11
3502.6509343092907
 21
3046.525036364993
  0
LINE
  8
_0-0_1
  6
CONTINUOUS
 62
    7
 10
3491.5651343092918
 20
3035.4392363649922
 11
3490.1510343092914
 21
3036.8533363649931
  0
LINE
  8
_0-0_1
  6
CONTINUOUS
 62
    7
 10
3494.6334343092917
 20
3043.4570363649927
 11
3501.2368343092921
 21
3047.9391363649934
  0
LINE
  8
_0-0_1
  6
CONTINUOUS
 62
    7
 10
3502.6509343092907
 20
3046.525036364993
 11
3498.1688343092919
 21
3039.9216363649934
  0
LINE
  8
_0-0_1
  6
CONTINUOUS
 62
    7
 10
3498.1688343092919
 20
3039.9216363649934
 11
3491.5651343092918
 21
3035.4392363649922
  0
LINE
  8
_0-0_1
  6
CONTINUOUS
 62
    7
 10
3490.1510343092914
 20
3036.8533363649931
 11
3494.6334343092917
 21
3043.4570363649927
  0
LINE
  8
_0-0_1
  6
CONTINUOUS
 62
    7
 10
3520.2723343092921
 20
3050.9393363649929
 11
3521.6864343092907
 21
3052.3534363649933
  0
LINE
  8
_0-0_1
  6
CONTINUOUS
 62
    7
 10
3510.6006343092918
 20
3063.4392363649931
 11
3509.1865343092913
 21
3062.0251363649932
  0
LINE
  8
_0-0_1
  6
CONTINUOUS
 62
    7
 10
3513.6687343092917
 20
3055.4214363649926
 11
3520.2723343092921
 21
3050.9393363649929
  0
LINE
  8
_0-0_1
  6
CONTINUOUS
 62
    7
 10
3521.6864343092907
 20
3052.3534363649933
 11
3517.2043343092919
 21
3058.9569363649935
  0
LINE
  8
_0-0_1
  6
CONTINUOUS
 62
    7
 10
3517.2043343092919
 20
3058.9569363649935
 11
3510.6006343092918
 21
3063.4392363649931
  0
LINE
  8
_0-0_1
  6
CONTINUOUS
 62
    7
 10
3509.1865343092913
 20
3062.0251363649932
 11
3513.6687343092917
 21
3055.4214363649926
  0
LINE
  8
_0-0_1
  6
CONTINUOUS
 62
    7
 10
3539.3079343092909
 20
3047.9391363649934
 11
3540.7220343092922
 21
3046.525036364993
  0
LINE
  8
_0-0_1
  6
CONTINUOUS
 62
    7
 10
3529.6362343092915
 20
3035.4392363649922
 11
3528.222134309292
 21
3036.8533363649931
  0
LINE
  8
_0-0_1
  6
CONTINUOUS
 62
    7
 10
3532.7042343092917
 20
3043.4570363649927
 11
3539.3079343092909
 21
3047.9391363649934
  0
LINE
  8
_0-0_1
  6
CONTINUOUS
 62
    7
 10
3540.7220343092922
 20
3046.525036364993
 11
3536.239934309292
 21
3039.9216363649934
  0
LINE
  8
_0-0_1
  6
CONTINUOUS
 62
    7
 10
3536.239934309292
 20
3039.9216363649934
 11
3529.6362343092915
 21
3035.4392363649922
  0
LINE
  8
_0-0_1
  6
CONTINUOUS
 62
    7
 10
3528.222134309292
 20
3036.8533363649931
 11
3532.7042343092917
 21
3043.4570363649927
  0
LINE
  8
_0-0_1
  6
CONTINUOUS
 62
    7
 10
3558.3434343092922
 20
3050.9393363649929
 11
3559.7575343092922
 21
3052.3534363649933
  0
LINE
  8
_0-0_1
  6
CONTINUOUS
 62
    7
 10
3548.6717343092914
 20
3063.4392363649931
 11
3547.2576343092919
 21
3062.0251363649932
  0
LINE
  8
_0-0_1
  6
CONTINUOUS
 62
    7
 10
3551.7397343092916
 20
3055.4214363649926
 11
3558.3434343092922
 21
3050.9393363649929
  0
LINE
  8
_0-0_1
  6
CONTINUOUS
 62
    7
 10
3559.7575343092922
 20
3052.3534363649933
 11
3555.275434309292
 21
3058.9569363649935
  0
LINE
  8
_0-0_1
  6
CONTINUOUS
 62
    7
 10
3555.275434309292
 20
3058.9569363649935
 11
3548.6717343092914
 21
3063.4392363649931
  0
LINE
  8
_0-0_1
  6
CONTINUOUS
 62
    7
 10
3547.2576343092919
 20
3062.0251363649932
 11
3551.7397343092916
 21
3055.4214363649926
  0
LINE
  8
_0-0_1
  6
CONTINUOUS
 62
    7
 10
3577.3790343092924
 20
3047.9391363649934
 11
3578.7931343092914
 21
3046.525036364993
  0
LINE
  8
_0-0_1
  6
CONTINUOUS
 62
    7
 10
3567.7073343092925
 20
3035.4392363649922
 11
3566.2932343092916
 21
3036.8533363649931
  0
LINE
  8
_0-0_1
  6
CONTINUOUS
 62
    7
 10
3570.7753343092918
 20
3043.4570363649927
 11
3577.3790343092924
 21
3047.9391363649934
  0
LINE
  8
_0-0_1
  6
CONTINUOUS
 62
    7
 10
3578.7931343092914
 20
3046.525036364993
 11
3574.3110343092917
 21
3039.9216363649934
  0
LINE
  8
_0-0_1
  6
CONTINUOUS
 62
    7
 10
3574.3110343092917
 20
3039.9216363649934
 11
3567.7073343092925
 21
3035.4392363649922
  0
LINE
  8
_0-0_1
  6
CONTINUOUS
 62
    7
 10
3566.2932343092916
 20
3036.8533363649931
 11
3570.7753343092918
 21
3043.4570363649927
  0
LINE
  8
_0-0_1
  6
CONTINUOUS
 62
    7
 10
3596.4145343092914
 20
3050.9393363649929
 11
3597.8286343092914
 21
3052.3534363649933
  0
LINE
  8
_0-0_1
  6
CONTINUOUS
 62
    7
 10
3586.7428343092924
 20
3063.4392363649931
 11
3585.328734309292
 21
3062.0251363649932
  0
LINE
  8
_0-0_1
  6
CONTINUOUS
 62
    7
 10
3589.8108343092917
 20
3055.4214363649926
 11
3596.4145343092914
 21
3050.9393363649929
  0
LINE
  8
_0-0_1
  6
CONTINUOUS
 62
    7
 10
3597.8286343092914
 20
3052.3534363649933
 11
3593.3465343092917
 21
3058.9569363649935
  0
LINE
  8
_0-0_1
  6
CONTINUOUS
 62
    7
 10
3593.3465343092917
 20
3058.9569363649935
 11
3586.7428343092924
 21
3063.4392363649931
  0
LINE
  8
_0-0_1
  6
CONTINUOUS
 62
    7
 10
3585.328734309292
 20
3062.0251363649932
 11
3589.8108343092917
 21
3055.4214363649926
  0
LINE
  8
_0-0_1
  6
CONTINUOUS
 62
    7
 10
3615.450134309292
 20
3047.9391363649934
 11
3616.864234309292
 21
3046.525036364993
  0
LINE
  8
_0-0_1
  6
CONTINUOUS
 62
    7
 10
3605.7784343092912
 20
3035.4392363649922
 11
3604.3643343092913
 21
3036.8533363649931
  0
LINE
  8
_0-0_1
  6
CONTINUOUS
 62
    7
 10
3608.8464343092915
 20
3043.4570363649927
 11
3615.450134309292
 21
3047.9391363649934
  0
LINE
  8
_0-0_1
  6
CONTINUOUS
 62
    7
 10
3616.864234309292
 20
3046.525036364993
 11
3612.3820343092916
 21
3039.9216363649934
  0
LINE
  8
_0-0_1
  6
CONTINUOUS
 62
    7
 10
3612.3820343092916
 20
3039.9216363649934
 11
3605.7784343092912
 21
3035.4392363649922
  0
LINE
  8
_0-0_1
  6
CONTINUOUS
 62
    7
 10
3604.3643343092913
 20
3036.8533363649931
 11
3608.8464343092915
 21
3043.4570363649927
  0
LINE
  8
_0-0_1
  6
CONTINUOUS
 62
    7
 10
3634.485634309292
 20
3050.9393363649929
 11
3635.8997343092915
 21
3052.3534363649933
  0
LINE
  8
_0-0_1
  6
CONTINUOUS
 62
    7
 10
3624.8139343092912
 20
3063.4392363649931
 11
3623.3998343092908
 21
3062.0251363649932
  0
LINE
  8
_0-0_1
  6
CONTINUOUS
 62
    7
 10
3627.8819343092914
 20
3055.4214363649926
 11
3634.485634309292
 21
3050.9393363649929
  0
LINE
  8
_0-0_1
  6
CONTINUOUS
 62
    7
 10
3635.8997343092915
 20
3052.3534363649933
 11
3631.4176343092913
 21
3058.9569363649935
  0
LINE
  8
_0-0_1
  6
CONTINUOUS
 62
    7
 10
3631.4176343092913
 20
3058.9569363649935
 11
3624.8139343092912
 21
3063.4392363649931
  0
LINE
  8
_0-0_1
  6
CONTINUOUS
 62
    7
 10
3623.3998343092908
 20
3062.0251363649932
 11
3627.8819343092914
 21
3055.4214363649926
  0
LINE
  8
_0-0_1
  6
CONTINUOUS
 62
    7
 10
3653.5211343092919
 20
3047.9391363649934
 11
3654.9353343092912
 21
3046.525036364993
  0
LINE
  8
_0-0_1
  6
CONTINUOUS
 62
    7
 10
3643.8495343092918
 20
3035.4392363649922
 11
3642.4353343092912
 21
3036.8533363649931
  0
LINE
  8
_0-0_1
  6
CONTINUOUS
 62
    7
 10
3646.9175343092916
 20
3043.4570363649927
 11
3653.5211343092919
 21
3047.9391363649934
  0
LINE
  8
_0-0_1
  6
CONTINUOUS
 62
    7
 10
3654.9353343092912
 20
3046.525036364993
 11
3650.4531343092913
 21
3039.9216363649934
  0
LINE
  8
_0-0_1
  6
CONTINUOUS
 62
    7
 10
3650.4531343092913
 20
3039.9216363649934
 11
3643.8495343092918
 21
3035.4392363649922
  0
LINE
  8
_0-0_1
  6
CONTINUOUS
 62
    7
 10
3642.4353343092912
 20
3036.8533363649931
 11
3646.9175343092916
 21
3043.4570363649927
  0
LINE
  8
_0-0_1
  6
CONTINUOUS
 62
    7
 10
3672.5567343092916
 20
3050.9393363649929
 11
3673.9708343092911
 21
3052.3534363649933
  0
LINE
  8
_0-0_1
  6
CONTINUOUS
 62
    7
 10
3662.8850343092918
 20
3063.4392363649931
 11
3661.4709343092914
 21
3062.0251363649932
  0
LINE
  8
_0-0_1
  6
CONTINUOUS
 62
    7
 10
3665.9530343092915
 20
3055.4214363649926
 11
3672.5567343092916
 21
3050.9393363649929
  0
LINE
  8
_0-0_1
  6
CONTINUOUS
 62
    7
 10
3673.9708343092911
 20
3052.3534363649933
 11
3669.4887343092923
 21
3058.9569363649935
  0
LINE
  8
_0-0_1
  6
CONTINUOUS
 62
    7
 10
3669.4887343092923
 20
3058.9569363649935
 11
3662.8850343092918
 21
3063.4392363649931
  0
LINE
  8
_0-0_1
  6
CONTINUOUS
 62
    7
 10
3661.4709343092914
 20
3062.0251363649932
 11
3665.9530343092915
 21
3055.4214363649926
  0
LINE
  8
_0-0_1
  6
CONTINUOUS
 62
    7
 10
3691.5922343092916
 20
3047.9391363649934
 11
3693.0064343092913
 21
3046.525036364993
  0
LINE
  8
_0-0_1
  6
CONTINUOUS
 62
    7
 10
3681.9206343092919
 20
3035.4392363649922
 11
3680.5064343092913
 21
3036.8533363649931
  0
LINE
  8
_0-0_1
  6
CONTINUOUS
 62
    7
 10
3684.9886343092921
 20
3043.4570363649927
 11
3691.5922343092916
 21
3047.9391363649934
  0
LINE
  8
_0-0_1
  6
CONTINUOUS
 62
    7
 10
3693.0064343092913
 20
3046.525036364993
 11
3688.5242343092909
 21
3039.9216363649934
  0
LINE
  8
_0-0_1
  6
CONTINUOUS
 62
    7
 10
3688.5242343092909
 20
3039.9216363649934
 11
3681.9206343092919
 21
3035.4392363649922
  0
LINE
  8
_0-0_1
  6
CONTINUOUS
 62
    7
 10
3680.5064343092913
 20
3036.8533363649931
 11
3684.9886343092921
 21
3043.4570363649927
  0
LINE
  8
_0-0_1
  6
CONTINUOUS
 62
    7
 10
3710.6278343092913
 20
3050.9393363649929
 11
3712.0419343092913
 21
3052.3534363649933
  0
LINE
  8
_0-0_1
  6
CONTINUOUS
 62
    7
 10
3700.9561343092919
 20
3063.4392363649931
 11
3699.5420343092919
 21
3062.0251363649932
  0
LINE
  8
_0-0_1
  6
CONTINUOUS
 62
    7
 10
3704.0241343092921
 20
3055.4214363649926
 11
3710.6278343092913
 21
3050.9393363649929
  0
LINE
  8
_0-0_1
  6
CONTINUOUS
 62
    7
 10
3712.0419343092913
 20
3052.3534363649933
 11
3707.5595343092914
 21
3058.9569363649935
  0
LINE
  8
_0-0_1
  6
CONTINUOUS
 62
    7
 10
3707.5595343092914
 20
3058.9569363649935
 11
3700.9561343092919
 21
3063.4392363649931
  0
LINE
  8
_0-0_1
  6
CONTINUOUS
 62
    7
 10
3699.5420343092919
 20
3062.0251363649932
 11
3704.0241343092921
 21
3055.4214363649926
  0
LINE
  8
_0-0_1
  6
CONTINUOUS
 62
    7
 10
3729.6631343092918
 20
3047.9391363649934
 11
3731.0774343092912
 21
3046.525036364993
  0
LINE
  8
_0-0_1
  6
CONTINUOUS
 62
    7
 10
3719.9916343092918
 20
3035.4392363649922
 11
3718.5775343092919
 21
3036.8533363649931
  0
LINE
  8
_0-0_1
  6
CONTINUOUS
 62
    7
 10
3723.0597343092909
 20
3043.4570363649927
 11
3729.6631343092918
 21
3047.9391363649934
  0
LINE
  8
_0-0_1
  6
CONTINUOUS
 62
    7
 10
3731.0774343092912
 20
3046.525036364993
 11
3726.5951343092916
 21
3039.9216363649934
  0
LINE
  8
_0-0_1
  6
CONTINUOUS
 62
    7
 10
3726.5951343092916
 20
3039.9216363649934
 11
3719.9916343092918
 21
3035.4392363649922
  0
LINE
  8
_0-0_1
  6
CONTINUOUS
 62
    7
 10
3718.5775343092919
 20
3036.8533363649931
 11
3723.0597343092909
 21
3043.4570363649927
  0
LINE
  8
_0-0_1
  6
CONTINUOUS
 62
    7
 10
3748.6986343092917
 20
3050.9393363649929
 11
3750.1130343092918
 21
3052.3534363649933
  0
LINE
  8
_0-0_1
  6
CONTINUOUS
 62
    7
 10
3739.027234309292
 20
3063.4392363649931
 11
3737.612834309291
 21
3062.0251363649932
  0
LINE
  8
_0-0_1
  6
CONTINUOUS
 62
    7
 10
3742.0952343092922
 20
3055.4214363649926
 11
3748.6986343092917
 21
3050.9393363649929
  0
LINE
  8
_0-0_1
  6
CONTINUOUS
 62
    7
 10
3750.1130343092918
 20
3052.3534363649933
 11
3745.6306343092915
 21
3058.9569363649935
  0
LINE
  8
_0-0_1
  6
CONTINUOUS
 62
    7
 10
3745.6306343092915
 20
3058.9569363649935
 11
3739.027234309292
 21
3063.4392363649931
  0
LINE
  8
_0-0_1
  6
CONTINUOUS
 62
    7
 10
3737.612834309291
 20
3062.0251363649932
 11
3742.0952343092922
 21
3055.4214363649926
  0
LINE
  8
_0-0_1
  6
CONTINUOUS
 62
    7
 10
3767.7342343092914
 20
3047.9391363649934
 11
3769.1485343092918
 21
3046.525036364993
  0
LINE
  8
_0-0_1
  6
CONTINUOUS
 62
    7
 10
3758.062734309292
 20
3035.4392363649922
 11
3756.6484343092925
 21
3036.8533363649931
  0
LINE
  8
_0-0_1
  6
CONTINUOUS
 62
    7
 10
3761.1307343092922
 20
3043.4570363649927
 11
3767.7342343092914
 21
3047.9391363649934
  0
LINE
  8
_0-0_1
  6
CONTINUOUS
 62
    7
 10
3769.1485343092918
 20
3046.525036364993
 11
3764.6662343092921
 21
3039.9216363649934
  0
LINE
  8
_0-0_1
  6
CONTINUOUS
 62
    7
 10
3764.6662343092921
 20
3039.9216363649934
 11
3758.062734309292
 21
3035.4392363649922
  0
LINE
  8
_0-0_1
  6
CONTINUOUS
 62
    7
 10
3756.6484343092925
 20
3036.8533363649931
 11
3761.1307343092922
 21
3043.4570363649927
  0
LINE
  8
_0-0_1
  6
CONTINUOUS
 62
    7
 10
3786.7697343092914
 20
3050.9393363649929
 11
3788.1841343092919
 21
3052.3534363649933
  0
LINE
  8
_0-0_1
  6
CONTINUOUS
 62
    7
 10
3777.0983343092917
 20
3063.4392363649931
 11
3775.6839343092925
 21
3062.0251363649932
  0
LINE
  8
_0-0_1
  6
CONTINUOUS
 62
    7
 10
3780.1663343092914
 20
3055.4214363649926
 11
3786.7697343092914
 21
3050.9393363649929
  0
LINE
  8
_0-0_1
  6
CONTINUOUS
 62
    7
 10
3788.1841343092919
 20
3052.3534363649933
 11
3783.7017343092921
 21
3058.9569363649935
  0
LINE
  8
_0-0_1
  6
CONTINUOUS
 62
    7
 10
3783.7017343092921
 20
3058.9569363649935
 11
3777.0983343092917
 21
3063.4392363649931
  0
LINE
  8
_0-0_1
  6
CONTINUOUS
 62
    7
 10
3775.6839343092925
 20
3062.0251363649932
 11
3780.1663343092914
 21
3055.4214363649926
  0
LINE
  8
_0-0_1
  6
CONTINUOUS
 62
    7
 10
3805.8053343092924
 20
3047.9391363649934
 11
3807.2196343092919
 21
3046.525036364993
  0
LINE
  8
_0-0_1
  6
CONTINUOUS
 62
    7
 10
3796.1338343092916
 20
3035.4392363649922
 11
3794.7195343092917
 21
3036.8533363649931
  0
LINE
  8
_0-0_1
  6
CONTINUOUS
 62
    7
 10
3799.2018343092923
 20
3043.4570363649927
 11
3805.8053343092924
 21
3047.9391363649934
  0
LINE
  8
_0-0_1
  6
CONTINUOUS
 62
    7
 10
3807.2196343092919
 20
3046.525036364993
 11
3802.7373343092909
 21
3039.9216363649934
  0
LINE
  8
_0-0_1
  6
CONTINUOUS
 62
    7
 10
3802.7373343092909
 20
3039.9216363649934
 11
3796.1338343092916
 21
3035.4392363649922
  0
LINE
  8
_0-0_1
  6
CONTINUOUS
 62
    7
 10
3794.7195343092917
 20
3036.8533363649931
 11
3799.2018343092923
 21
3043.4570363649927
  0
LINE
  8
_0-0_1
  6
CONTINUOUS
 62
    7
 10
3824.8408343092924
 20
3050.9393363649929
 11
3826.2552343092921
 21
3052.3534363649933
  0
LINE
  8
_0-0_1
  6
CONTINUOUS
 62
    7
 10
3815.1694343092913
 20
3063.4392363649931
 11
3813.7550343092917
 21
3062.0251363649932
  0
LINE
  8
_0-0_1
  6
CONTINUOUS
 62
    7
 10
3818.237434309292
 20
3055.4214363649926
 11
3824.8408343092924
 21
3050.9393363649929
  0
LINE
  8
_0-0_1
  6
CONTINUOUS
 62
    7
 10
3826.2552343092921
 20
3052.3534363649933
 11
3821.7728343092908
 21
3058.9569363649935
  0
LINE
  8
_0-0_1
  6
CONTINUOUS
 62
    7
 10
3821.7728343092908
 20
3058.9569363649935
 11
3815.1694343092913
 21
3063.4392363649931
  0
LINE
  8
_0-0_1
  6
CONTINUOUS
 62
    7
 10
3813.7550343092917
 20
3062.0251363649932
 11
3818.237434309292
 21
3055.4214363649926
  0
LINE
  8
_0-0_1
  6
CONTINUOUS
 62
    7
 10
3843.8764343092907
 20
3047.9391363649934
 11
3845.290734309292
 21
3046.525036364993
  0
LINE
  8
_0-0_1
  6
CONTINUOUS
 62
    7
 10
3834.2049343092917
 20
3035.4392363649922
 11
3832.7906343092918
 21
3036.8533363649931
  0
LINE
  8
_0-0_1
  6
CONTINUOUS
 62
    7
 10
3837.2729343092915
 20
3043.4570363649927
 11
3843.8764343092907
 21
3047.9391363649934
  0
LINE
  8
_0-0_1
  6
CONTINUOUS
 62
    7
 10
3845.290734309292
 20
3046.525036364993
 11
3840.8083343092908
 21
3039.9216363649934
  0
LINE
  8
_0-0_1
  6
CONTINUOUS
 62
    7
 10
3840.8083343092908
 20
3039.9216363649934
 11
3834.2049343092917
 21
3035.4392363649922
  0
LINE
  8
_0-0_1
  6
CONTINUOUS
 62
    7
 10
3832.7906343092918
 20
3036.8533363649931
 11
3837.2729343092915
 21
3043.4570363649927
  0
LINE
  8
_0-0_1
  6
CONTINUOUS
 62
    7
 10
3368.9649343092915
 20
2684.6785363649929
 11
3370.3792343092914
 21
2686.0926363649933
  0
LINE
  8
_0-0_1
  6
CONTINUOUS
 62
    7
 10
3359.293434309292
 20
2697.1784363649936
 11
3357.8791343092917
 21
2695.7643363649931
  0
LINE
  8
_0-0_1
  6
CONTINUOUS
 62
    7
 10
3362.3614343092913
 20
2689.1606363649935
 11
3368.9649343092915
 21
2684.6785363649929
  0
LINE
  8
_0-0_1
  6
CONTINUOUS
 62
    7
 10
3370.3792343092914
 20
2686.0926363649933
 11
3365.8969343092917
 21
2692.696136364993
  0
LINE
  8
_0-0_1
  6
CONTINUOUS
 62
    7
 10
3365.8969343092917
 20
2692.696136364993
 11
3359.293434309292
 21
2697.1784363649936
  0
LINE
  8
_0-0_1
  6
CONTINUOUS
 62
    7
 10
3357.8791343092917
 20
2695.7643363649931
 11
3362.3614343092913
 21
2689.1606363649935
  0
LINE
  8
_0-0_1
  6
CONTINUOUS
 62
    7
 10
3388.0004343092924
 20
2681.6783363649934
 11
3389.4148343092916
 21
2680.2642363649929
  0
LINE
  8
_0-0_1
  6
CONTINUOUS
 62
    7
 10
3378.3290343092908
 20
2669.1784363649931
 11
3376.9146343092916
 21
2670.5925363649935
  0
LINE
  8
_0-0_1
  6
CONTINUOUS
 62
    7
 10
3381.397034309291
 20
2677.1962363649932
 11
3388.0004343092924
 21
2681.6783363649934
  0
LINE
  8
_0-0_1
  6
CONTINUOUS
 62
    7
 10
3389.4148343092916
 20
2680.2642363649929
 11
3384.9324343092912
 21
2673.660836364993
  0
LINE
  8
_0-0_1
  6
CONTINUOUS
 62
    7
 10
3384.9324343092912
 20
2673.660836364993
 11
3378.3290343092908
 21
2669.1784363649931
  0
LINE
  8
_0-0_1
  6
CONTINUOUS
 62
    7
 10
3376.9146343092916
 20
2670.5925363649935
 11
3381.397034309291
 21
2677.1962363649932
  0
LINE
  8
_0-0_1
  6
CONTINUOUS
 62
    7
 10
3407.0359343092923
 20
2684.6785363649929
 11
3408.4503343092915
 21
2686.0926363649933
  0
LINE
  8
_0-0_1
  6
CONTINUOUS
 62
    7
 10
3397.3645343092908
 20
2697.1784363649936
 11
3395.9501343092916
 21
2695.7643363649931
  0
LINE
  8
_0-0_1
  6
CONTINUOUS
 62
    7
 10
3400.4325343092924
 20
2689.1606363649935
 11
3407.0359343092923
 21
2684.6785363649929
  0
LINE
  8
_0-0_1
  6
CONTINUOUS
 62
    7
 10
3408.4503343092915
 20
2686.0926363649933
 11
3403.9679343092912
 21
2692.696136364993
  0
LINE
  8
_0-0_1
  6
CONTINUOUS
 62
    7
 10
3403.9679343092912
 20
2692.696136364993
 11
3397.3645343092908
 21
2697.1784363649936
  0
LINE
  8
_0-0_1
  6
CONTINUOUS
 62
    7
 10
3395.9501343092916
 20
2695.7643363649931
 11
3400.4325343092924
 21
2689.1606363649935
  0
LINE
  8
_0-0_1
  6
CONTINUOUS
 62
    7
 10
3426.0715343092916
 20
2681.6783363649934
 11
3427.4859343092908
 21
2680.2642363649929
  0
LINE
  8
_0-0_1
  6
CONTINUOUS
 62
    7
 10
3416.4001343092923
 20
2669.1784363649931
 11
3414.9857343092913
 21
2670.5925363649935
  0
LINE
  8
_0-0_1
  6
CONTINUOUS
 62
    7
 10
3419.4681343092911
 20
2677.1962363649932
 11
3426.0715343092916
 21
2681.6783363649934
  0
LINE
  8
_0-0_1
  6
CONTINUOUS
 62
    7
 10
3427.4859343092908
 20
2680.2642363649929
 11
3423.0035343092918
 21
2673.660836364993
  0
LINE
  8
_0-0_1
  6
CONTINUOUS
 62
    7
 10
3423.0035343092918
 20
2673.660836364993
 11
3416.4001343092923
 21
2669.1784363649931
  0
LINE
  8
_0-0_1
  6
CONTINUOUS
 62
    7
 10
3414.9857343092913
 20
2670.5925363649935
 11
3419.4681343092911
 21
2677.1962363649932
  0
LINE
  8
_0-0_1
  6
CONTINUOUS
 62
    7
 10
3445.1070343092915
 20
2684.6785363649929
 11
3446.5214343092907
 21
2686.0926363649933
  0
LINE
  8
_0-0_1
  6
CONTINUOUS
 62
    7
 10
3435.4356343092923
 20
2697.1784363649936
 11
3434.0212343092912
 21
2695.7643363649931
  0
LINE
  8
_0-0_1
  6
CONTINUOUS
 62
    7
 10
3438.5036343092911
 20
2689.1606363649935
 11
3445.1070343092915
 21
2684.6785363649929
  0
LINE
  8
_0-0_1
  6
CONTINUOUS
 62
    7
 10
3446.5214343092907
 20
2686.0926363649933
 11
3442.0390343092918
 21
2692.696136364993
  0
LINE
  8
_0-0_1
  6
CONTINUOUS
 62
    7
 10
3442.0390343092918
 20
2692.696136364993
 11
3435.4356343092923
 21
2697.1784363649936
  0
LINE
  8
_0-0_1
  6
CONTINUOUS
 62
    7
 10
3434.0212343092912
 20
2695.7643363649931
 11
3438.5036343092911
 21
2689.1606363649935
  0
LINE
  8
_0-0_1
  6
CONTINUOUS
 62
    7
 10
3464.1426343092917
 20
2681.6783363649934
 11
3465.5570343092922
 21
2680.2642363649929
  0
LINE
  8
_0-0_1
  6
CONTINUOUS
 62
    7
 10
3454.4712343092915
 20
2669.1784363649931
 11
3453.0568343092914
 21
2670.5925363649935
  0
LINE
  8
_0-0_1
  6
CONTINUOUS
 62
    7
 10
3457.5392343092917
 20
2677.1962363649932
 11
3464.1426343092917
 21
2681.6783363649934
  0
LINE
  8
_0-0_1
  6
CONTINUOUS
 62
    7
 10
3465.5570343092922
 20
2680.2642363649929
 11
3461.074634309291
 21
2673.660836364993
  0
LINE
  8
_0-0_1
  6
CONTINUOUS
 62
    7
 10
3461.074634309291
 20
2673.660836364993
 11
3454.4712343092915
 21
2669.1784363649931
  0
LINE
  8
_0-0_1
  6
CONTINUOUS
 62
    7
 10
3453.0568343092914
 20
2670.5925363649935
 11
3457.5392343092917
 21
2677.1962363649932
  0
LINE
  8
_0-0_1
  6
CONTINUOUS
 62
    7
 10
3483.1781343092916
 20
2684.6785363649929
 11
3484.5922343092907
 21
2686.0926363649933
  0
LINE
  8
_0-0_1
  6
CONTINUOUS
 62
    7
 10
3473.5067343092915
 20
2697.1784363649936
 11
3472.0923343092913
 21
2695.7643363649931
  0
LINE
  8
_0-0_1
  6
CONTINUOUS
 62
    7
 10
3476.5747343092917
 20
2689.1606363649935
 11
3483.1781343092916
 21
2684.6785363649929
  0
LINE
  8
_0-0_1
  6
CONTINUOUS
 62
    7
 10
3484.5922343092907
 20
2686.0926363649933
 11
3480.110134309291
 21
2692.696136364993
  0
LINE
  8
_0-0_1
  6
CONTINUOUS
 62
    7
 10
3480.110134309291
 20
2692.696136364993
 11
3473.5067343092915
 21
2697.1784363649936
  0
LINE
  8
_0-0_1
  6
CONTINUOUS
 62
    7
 10
3472.0923343092913
 20
2695.7643363649931
 11
3476.5747343092917
 21
2689.1606363649935
  0
LINE
  8
_0-0_1
  6
CONTINUOUS
 62
    7
 10
3502.2137343092913
 20
2681.6783363649934
 11
3503.6278343092913
 21
2680.2642363649929
  0
LINE
  8
_0-0_1
  6
CONTINUOUS
 62
    7
 10
3492.5420343092919
 20
2669.1784363649931
 11
3491.127934309292
 21
2670.5925363649935
  0
LINE
  8
_0-0_1
  6
CONTINUOUS
 62
    7
 10
3495.6102343092916
 20
2677.1962363649932
 11
3502.2137343092913
 21
2681.6783363649934
  0
LINE
  8
_0-0_1
  6
CONTINUOUS
 62
    7
 10
3503.6278343092913
 20
2680.2642363649929
 11
3499.1457343092925
 21
2673.660836364993
  0
LINE
  8
_0-0_1
  6
CONTINUOUS
 62
    7
 10
3499.1457343092925
 20
2673.660836364993
 11
3492.5420343092919
 21
2669.1784363649931
  0
LINE
  8
_0-0_1
  6
CONTINUOUS
 62
    7
 10
3491.127934309292
 20
2670.5925363649935
 11
3495.6102343092916
 21
2677.1962363649932
  0
LINE
  8
_0-0_1
  6
CONTINUOUS
 62
    7
 10
3521.2492343092913
 20
2684.6785363649929
 11
3522.6633343092913
 21
2686.0926363649933
  0
LINE
  8
_0-0_1
  6
CONTINUOUS
 62
    7
 10
3511.5775343092919
 20
2697.1784363649936
 11
3510.1634343092919
 21
2695.7643363649931
  0
LINE
  8
_0-0_1
  6
CONTINUOUS
 62
    7
 10
3514.6455343092921
 20
2689.1606363649935
 11
3521.2492343092913
 21
2684.6785363649929
  0
LINE
  8
_0-0_1
  6
CONTINUOUS
 62
    7
 10
3522.6633343092913
 20
2686.0926363649933
 11
3518.1812343092911
 21
2692.696136364993
  0
LINE
  8
_0-0_1
  6
CONTINUOUS
 62
    7
 10
3518.1812343092911
 20
2692.696136364993
 11
3511.5775343092919
 21
2697.1784363649936
  0
LINE
  8
_0-0_1
  6
CONTINUOUS
 62
    7
 10
3510.1634343092919
 20
2695.7643363649931
 11
3514.6455343092921
 21
2689.1606363649935
  0
LINE
  8
_0-0_1
  6
CONTINUOUS
 62
    7
 10
3540.2848343092915
 20
2681.6783363649934
 11
3541.6989343092919
 21
2680.2642363649929
  0
LINE
  8
_0-0_1
  6
CONTINUOUS
 62
    7
 10
3530.613134309292
 20
2669.1784363649931
 11
3529.1990343092907
 21
2670.5925363649935
  0
LINE
  8
_0-0_1
  6
CONTINUOUS
 62
    7
 10
3533.6811343092909
 20
2677.1962363649932
 11
3540.2848343092915
 21
2681.6783363649934
  0
LINE
  8
_0-0_1
  6
CONTINUOUS
 62
    7
 10
3541.6989343092919
 20
2680.2642363649929
 11
3537.2168343092917
 21
2673.660836364993
  0
LINE
  8
_0-0_1
  6
CONTINUOUS
 62
    7
 10
3537.2168343092917
 20
2673.660836364993
 11
3530.613134309292
 21
2669.1784363649931
  0
LINE
  8
_0-0_1
  6
CONTINUOUS
 62
    7
 10
3529.1990343092907
 20
2670.5925363649935
 11
3533.6811343092909
 21
2677.1962363649932
  0
LINE
  8
_0-0_1
  6
CONTINUOUS
 62
    7
 10
3559.3203343092914
 20
2684.6785363649929
 11
3560.7344343092918
 21
2686.0926363649933
  0
LINE
  8
_0-0_1
  6
CONTINUOUS
 62
    7
 10
3549.648634309292
 20
2697.1784363649936
 11
3548.234534309292
 21
2695.7643363649931
  0
LINE
  8
_0-0_1
  6
CONTINUOUS
 62
    7
 10
3552.7166343092908
 20
2689.1606363649935
 11
3559.3203343092914
 21
2684.6785363649929
  0
LINE
  8
_0-0_1
  6
CONTINUOUS
 62
    7
 10
3560.7344343092918
 20
2686.0926363649933
 11
3556.2523343092917
 21
2692.696136364993
  0
LINE
  8
_0-0_1
  6
CONTINUOUS
 62
    7
 10
3556.2523343092917
 20
2692.696136364993
 11
3549.648634309292
 21
2697.1784363649936
  0
LINE
  8
_0-0_1
  6
CONTINUOUS
 62
    7
 10
3548.234534309292
 20
2695.7643363649931
 11
3552.7166343092908
 21
2689.1606363649935
  0
LINE
  8
_0-0_1
  6
CONTINUOUS
 62
    7
 10
3578.355934309292
 20
2681.6783363649934
 11
3579.770034309292
 21
2680.2642363649929
  0
LINE
  8
_0-0_1
  6
CONTINUOUS
 62
    7
 10
3568.6842343092912
 20
2669.1784363649931
 11
3567.2701343092922
 21
2670.5925363649935
  0
LINE
  8
_0-0_1
  6
CONTINUOUS
 62
    7
 10
3571.7522343092924
 20
2677.1962363649932
 11
3578.355934309292
 21
2681.6783363649934
  0
LINE
  8
_0-0_1
  6
CONTINUOUS
 62
    7
 10
3579.770034309292
 20
2680.2642363649929
 11
3575.2879343092918
 21
2673.660836364993
  0
LINE
  8
_0-0_1
  6
CONTINUOUS
 62
    7
 10
3575.2879343092918
 20
2673.660836364993
 11
3568.6842343092912
 21
2669.1784363649931
  0
LINE
  8
_0-0_1
  6
CONTINUOUS
 62
    7
 10
3567.2701343092922
 20
2670.5925363649935
 11
3571.7522343092924
 21
2677.1962363649932
  0
LINE
  8
_0-0_1
  6
CONTINUOUS
 62
    7
 10
3597.391434309292
 20
2684.6785363649929
 11
3598.8055343092919
 21
2686.0926363649933
  0
LINE
  8
_0-0_1
  6
CONTINUOUS
 62
    7
 10
3587.7197343092912
 20
2697.1784363649936
 11
3586.3056343092912
 21
2695.7643363649931
  0
LINE
  8
_0-0_1
  6
CONTINUOUS
 62
    7
 10
3590.7877343092923
 20
2689.1606363649935
 11
3597.391434309292
 21
2684.6785363649929
  0
LINE
  8
_0-0_1
  6
CONTINUOUS
 62
    7
 10
3598.8055343092919
 20
2686.0926363649933
 11
3594.3234343092918
 21
2692.696136364993
  0
LINE
  8
_0-0_1
  6
CONTINUOUS
 62
    7
 10
3594.3234343092918
 20
2692.696136364993
 11
3587.7197343092912
 21
2697.1784363649936
  0
LINE
  8
_0-0_1
  6
CONTINUOUS
 62
    7
 10
3586.3056343092912
 20
2695.7643363649931
 11
3590.7877343092923
 21
2689.1606363649935
  0
LINE
  8
_0-0_1
  6
CONTINUOUS
 62
    7
 10
3616.4269343092919
 20
2681.6783363649934
 11
3617.8411343092912
 21
2680.2642363649929
  0
LINE
  8
_0-0_1
  6
CONTINUOUS
 62
    7
 10
3606.7553343092918
 20
2669.1784363649931
 11
3605.3411343092912
 21
2670.5925363649935
  0
LINE
  8
_0-0_1
  6
CONTINUOUS
 62
    7
 10
3609.8233343092916
 20
2677.1962363649932
 11
3616.4269343092919
 21
2681.6783363649934
  0
LINE
  8
_0-0_1
  6
CONTINUOUS
 62
    7
 10
3617.8411343092912
 20
2680.2642363649929
 11
3613.3589343092917
 21
2673.660836364993
  0
LINE
  8
_0-0_1
  6
CONTINUOUS
 62
    7
 10
3613.3589343092917
 20
2673.660836364993
 11
3606.7553343092918
 21
2669.1784363649931
  0
LINE
  8
_0-0_1
  6
CONTINUOUS
 62
    7
 10
3605.3411343092912
 20
2670.5925363649935
 11
3609.8233343092916
 21
2677.1962363649932
  0
LINE
  8
_0-0_1
  6
CONTINUOUS
 62
    7
 10
3635.4625343092907
 20
2684.6785363649929
 11
3636.8766343092911
 21
2686.0926363649933
  0
LINE
  8
_0-0_1
  6
CONTINUOUS
 62
    7
 10
3625.7908343092918
 20
2697.1784363649936
 11
3624.3767343092918
 21
2695.7643363649931
  0
LINE
  8
_0-0_1
  6
CONTINUOUS
 62
    7
 10
3628.8588343092915
 20
2689.1606363649935
 11
3635.4625343092907
 21
2684.6785363649929
  0
LINE
  8
_0-0_1
  6
CONTINUOUS
 62
    7
 10
3636.8766343092911
 20
2686.0926363649933
 11
3632.3945343092919
 21
2692.696136364993
  0
LINE
  8
_0-0_1
  6
CONTINUOUS
 62
    7
 10
3632.3945343092919
 20
2692.696136364993
 11
3625.7908343092918
 21
2697.1784363649936
  0
LINE
  8
_0-0_1
  6
CONTINUOUS
 62
    7
 10
3624.3767343092918
 20
2695.7643363649931
 11
3628.8588343092915
 21
2689.1606363649935
  0
LINE
  8
_0-0_1
  6
CONTINUOUS
 62
    7
 10
3654.4980343092907
 20
2681.6783363649934
 11
3655.9122343092918
 21
2680.2642363649929
  0
LINE
  8
_0-0_1
  6
CONTINUOUS
 62
    7
 10
3644.826434309291
 20
2669.1784363649931
 11
3643.4122343092918
 21
2670.5925363649935
  0
LINE
  8
_0-0_1
  6
CONTINUOUS
 62
    7
 10
3647.8944343092917
 20
2677.1962363649932
 11
3654.4980343092907
 21
2681.6783363649934
  0
LINE
  8
_0-0_1
  6
CONTINUOUS
 62
    7
 10
3655.9122343092918
 20
2680.2642363649929
 11
3651.4300343092918
 21
2673.660836364993
  0
LINE
  8
_0-0_1
  6
CONTINUOUS
 62
    7
 10
3651.4300343092918
 20
2673.660836364993
 11
3644.826434309291
 21
2669.1784363649931
  0
LINE
  8
_0-0_1
  6
CONTINUOUS
 62
    7
 10
3643.4122343092918
 20
2670.5925363649935
 11
3647.8944343092917
 21
2677.1962363649932
  0
LINE
  8
_0-0_1
  6
CONTINUOUS
 62
    7
 10
3673.5336343092922
 20
2684.6785363649929
 11
3674.9477343092913
 21
2686.0926363649933
  0
LINE
  8
_0-0_1
  6
CONTINUOUS
 62
    7
 10
3663.861934309291
 20
2697.1784363649936
 11
3662.4478343092915
 21
2695.7643363649931
  0
LINE
  8
_0-0_1
  6
CONTINUOUS
 62
    7
 10
3666.9299343092916
 20
2689.1606363649935
 11
3673.5336343092922
 21
2684.6785363649929
  0
LINE
  8
_0-0_1
  6
CONTINUOUS
 62
    7
 10
3674.9477343092913
 20
2686.0926363649933
 11
3670.4656343092915
 21
2692.696136364993
  0
LINE
  8
_0-0_1
  6
CONTINUOUS
 62
    7
 10
3670.4656343092915
 20
2692.696136364993
 11
3663.861934309291
 21
2697.1784363649936
  0
LINE
  8
_0-0_1
  6
CONTINUOUS
 62
    7
 10
3662.4478343092915
 20
2695.7643363649931
 11
3666.9299343092916
 21
2689.1606363649935
  0
LINE
  8
_0-0_1
  6
CONTINUOUS
 62
    7
 10
3692.5691343092922
 20
2681.6783363649934
 11
3693.9832343092912
 21
2680.2642363649929
  0
LINE
  8
_0-0_1
  6
CONTINUOUS
 62
    7
 10
3682.8975343092925
 20
2669.1784363649931
 11
3681.4833343092914
 21
2670.5925363649935
  0
LINE
  8
_0-0_1
  6
CONTINUOUS
 62
    7
 10
3685.9655343092913
 20
2677.1962363649932
 11
3692.5691343092922
 21
2681.6783363649934
  0
LINE
  8
_0-0_1
  6
CONTINUOUS
 62
    7
 10
3693.9832343092912
 20
2680.2642363649929
 11
3689.5011343092915
 21
2673.660836364993
  0
LINE
  8
_0-0_1
  6
CONTINUOUS
 62
    7
 10
3689.5011343092915
 20
2673.660836364993
 11
3682.8975343092925
 21
2669.1784363649931
  0
LINE
  8
_0-0_1
  6
CONTINUOUS
 62
    7
 10
3681.4833343092914
 20
2670.5925363649935
 11
3685.9655343092913
 21
2677.1962363649932
  0
LINE
  8
_0-0_1
  6
CONTINUOUS
 62
    7
 10
3711.6047343092914
 20
2684.6785363649929
 11
3713.0188343092918
 21
2686.0926363649933
  0
LINE
  8
_0-0_1
  6
CONTINUOUS
 62
    7
 10
3701.9330343092911
 20
2697.1784363649936
 11
3700.5189343092925
 21
2695.7643363649931
  0
LINE
  8
_0-0_1
  6
CONTINUOUS
 62
    7
 10
3705.0010343092913
 20
2689.1606363649935
 11
3711.6047343092914
 21
2684.6785363649929
  0
LINE
  8
_0-0_1
  6
CONTINUOUS
 62
    7
 10
3713.0188343092918
 20
2686.0926363649933
 11
3708.5364343092915
 21
2692.696136364993
  0
LINE
  8
_0-0_1
  6
CONTINUOUS
 62
    7
 10
3708.5364343092915
 20
2692.696136364993
 11
3701.9330343092911
 21
2697.1784363649936
  0
LINE
  8
_0-0_1
  6
CONTINUOUS
 62
    7
 10
3700.5189343092925
 20
2695.7643363649931
 11
3705.0010343092913
 21
2689.1606363649935
  0
LINE
  8
_0-0_1
  6
CONTINUOUS
 62
    7
 10
3730.6400343092919
 20
2681.6783363649934
 11
3732.0543343092918
 21
2680.2642363649929
  0
LINE
  8
_0-0_1
  6
CONTINUOUS
 62
    7
 10
3720.968534309291
 20
2669.1784363649931
 11
3719.5544343092924
 21
2670.5925363649935
  0
LINE
  8
_0-0_1
  6
CONTINUOUS
 62
    7
 10
3724.0365343092913
 20
2677.1962363649932
 11
3730.6400343092919
 21
2681.6783363649934
  0
LINE
  8
_0-0_1
  6
CONTINUOUS
 62
    7
 10
3732.0543343092918
 20
2680.2642363649929
 11
3727.5720343092917
 21
2673.660836364993
  0
LINE
  8
_0-0_1
  6
CONTINUOUS
 62
    7
 10
3727.5720343092917
 20
2673.660836364993
 11
3720.968534309291
 21
2669.1784363649931
  0
LINE
  8
_0-0_1
  6
CONTINUOUS
 62
    7
 10
3719.5544343092924
 20
2670.5925363649935
 11
3724.0365343092913
 21
2677.1962363649932
  0
LINE
  8
_0-0_1
  6
CONTINUOUS
 62
    7
 10
3749.6755343092918
 20
2684.6785363649929
 11
3751.089934309291
 21
2686.0926363649933
  0
LINE
  8
_0-0_1
  6
CONTINUOUS
 62
    7
 10
3740.0041343092917
 20
2697.1784363649936
 11
3738.5897343092915
 21
2695.7643363649931
  0
LINE
  8
_0-0_1
  6
CONTINUOUS
 62
    7
 10
3743.072134309291
 20
2689.1606363649935
 11
3749.6755343092918
 21
2684.6785363649929
  0
LINE
  8
_0-0_1
  6
CONTINUOUS
 62
    7
 10
3751.089934309291
 20
2686.0926363649933
 11
3746.6075343092916
 21
2692.696136364993
  0
LINE
  8
_0-0_1
  6
CONTINUOUS
 62
    7
 10
3746.6075343092916
 20
2692.696136364993
 11
3740.0041343092917
 21
2697.1784363649936
  0
LINE
  8
_0-0_1
  6
CONTINUOUS
 62
    7
 10
3738.5897343092915
 20
2695.7643363649931
 11
3743.072134309291
 21
2689.1606363649935
  0
LINE
  8
_0-0_1
  6
CONTINUOUS
 62
    7
 10
3768.711134309292
 20
2681.6783363649934
 11
3770.125434309291
 21
2680.2642363649929
  0
LINE
  8
_0-0_1
  6
CONTINUOUS
 62
    7
 10
3759.0396343092916
 20
2669.1784363649931
 11
3757.6253343092912
 21
2670.5925363649935
  0
LINE
  8
_0-0_1
  6
CONTINUOUS
 62
    7
 10
3762.1076343092914
 20
2677.1962363649932
 11
3768.711134309292
 21
2681.6783363649934
  0
LINE
  8
_0-0_1
  6
CONTINUOUS
 62
    7
 10
3770.125434309291
 20
2680.2642363649929
 11
3765.6431343092913
 21
2673.660836364993
  0
LINE
  8
_0-0_1
  6
CONTINUOUS
 62
    7
 10
3765.6431343092913
 20
2673.660836364993
 11
3759.0396343092916
 21
2669.1784363649931
  0
LINE
  8
_0-0_1
  6
CONTINUOUS
 62
    7
 10
3757.6253343092912
 20
2670.5925363649935
 11
3762.1076343092914
 21
2677.1962363649932
  0
LINE
  8
_0-0_1
  6
CONTINUOUS
 62
    7
 10
3787.7466343092919
 20
2684.6785363649929
 11
3789.1610343092912
 21
2686.0926363649933
  0
LINE
  8
_0-0_1
  6
CONTINUOUS
 62
    7
 10
3778.0752343092918
 20
2697.1784363649936
 11
3776.6608343092912
 21
2695.7643363649931
  0
LINE
  8
_0-0_1
  6
CONTINUOUS
 62
    7
 10
3781.143234309292
 20
2689.1606363649935
 11
3787.7466343092919
 21
2684.6785363649929
  0
LINE
  8
_0-0_1
  6
CONTINUOUS
 62
    7
 10
3789.1610343092912
 20
2686.0926363649933
 11
3784.6786343092913
 21
2692.696136364993
  0
LINE
  8
_0-0_1
  6
CONTINUOUS
 62
    7
 10
3784.6786343092913
 20
2692.696136364993
 11
3778.0752343092918
 21
2697.1784363649936
  0
LINE
  8
_0-0_1
  6
CONTINUOUS
 62
    7
 10
3776.6608343092912
 20
2695.7643363649931
 11
3781.143234309292
 21
2689.1606363649935
  0
LINE
  8
_0-0_1
  6
CONTINUOUS
 62
    7
 10
3806.7822343092912
 20
2681.6783363649934
 11
3808.1965343092911
 21
2680.2642363649929
  0
LINE
  8
_0-0_1
  6
CONTINUOUS
 62
    7
 10
3797.1107343092917
 20
2669.1784363649931
 11
3795.6964343092909
 21
2670.5925363649935
  0
LINE
  8
_0-0_1
  6
CONTINUOUS
 62
    7
 10
3800.1787343092919
 20
2677.1962363649932
 11
3806.7822343092912
 21
2681.6783363649934
  0
LINE
  8
_0-0_1
  6
CONTINUOUS
 62
    7
 10
3808.1965343092911
 20
2680.2642363649929
 11
3803.7142343092914
 21
2673.660836364993
  0
LINE
  8
_0-0_1
  6
CONTINUOUS
 62
    7
 10
3803.7142343092914
 20
2673.660836364993
 11
3797.1107343092917
 21
2669.1784363649931
  0
LINE
  8
_0-0_1
  6
CONTINUOUS
 62
    7
 10
3795.6964343092909
 20
2670.5925363649935
 11
3800.1787343092919
 21
2677.1962363649932
  0
LINE
  8
_0-0_1
  6
CONTINUOUS
 62
    7
 10
3825.8177343092912
 20
2684.6785363649929
 11
3827.2321343092917
 21
2686.0926363649933
  0
LINE
  8
_0-0_1
  6
CONTINUOUS
 62
    7
 10
3816.1463343092919
 20
2697.1784363649936
 11
3814.7319343092909
 21
2695.7643363649931
  0
LINE
  8
_0-0_1
  6
CONTINUOUS
 62
    7
 10
3819.2143343092907
 20
2689.1606363649935
 11
3825.8177343092912
 21
2684.6785363649929
  0
LINE
  8
_0-0_1
  6
CONTINUOUS
 62
    7
 10
3827.2321343092917
 20
2686.0926363649933
 11
3822.7497343092914
 21
2692.696136364993
  0
LINE
  8
_0-0_1
  6
CONTINUOUS
 62
    7
 10
3822.7497343092914
 20
2692.696136364993
 11
3816.1463343092919
 21
2697.1784363649936
  0
LINE
  8
_0-0_1
  6
CONTINUOUS
 62
    7
 10
3814.7319343092909
 20
2695.7643363649931
 11
3819.2143343092907
 21
2689.1606363649935
  0
LINE
  8
_0-0_1
  6
CONTINUOUS
 62
    7
 10
3844.8532343092916
 20
2681.6783363649934
 11
3846.2676343092917
 21
2680.2642363649929
  0
LINE
  8
_0-0_1
  6
CONTINUOUS
 62
    7
 10
3835.1818343092918
 20
2669.1784363649931
 11
3833.7674343092922
 21
2670.5925363649935
  0
LINE
  8
_0-0_1
  6
CONTINUOUS
 62
    7
 10
3838.2498343092907
 20
2677.1962363649932
 11
3844.8532343092916
 21
2681.6783363649934
  0
LINE
  8
_0-0_1
  6
CONTINUOUS
 62
    7
 10
3846.2676343092917
 20
2680.2642363649929
 11
3841.7852343092914
 21
2673.660836364993
  0
LINE
  8
_0-0_1
  6
CONTINUOUS
 62
    7
 10
3841.7852343092914
 20
2673.660836364993
 11
3835.1818343092918
 21
2669.1784363649931
  0
LINE
  8
_0-0_1
  6
CONTINUOUS
 62
    7
 10
3833.7674343092922
 20
2670.5925363649935
 11
3838.2498343092907
 21
2677.1962363649932
  0
ARC
  8
_0-0_1
  6
CONTINUOUS
 62
    7
 10
3112.6269343092913
 20
2752.4581363649932
 40
4.8823529999999993
 50
90
 51
180
  0
ARC
  8
_0-0_1
  6
CONTINUOUS
 62
    7
 10
3185.862434309292
 20
2752.4581363649932
 40
4.8823529999999993
 50
0
 51
90
  0
ARC
  8
_0-0_1
  6
CONTINUOUS
 62
    7
 10
3185.862434309292
 20
2679.2227363649931
 40
4.8823529999999993
 50
270
 51
0
  0
ARC
  8
_0-0_1
  6
CONTINUOUS
 62
    7
 10
3112.6269343092913
 20
2679.2227363649931
 40
4.8823529999999993
 50
180
 51
270
  0
ARC
  8
_0-0_1
  6
CONTINUOUS
 62
    7
 10
3185.862434309292
 20
2852.4579363649937
 40
4.8823529999999993
 50
0
 51
90
  0
ARC
  8
_0-0_1
  6
CONTINUOUS
 62
    7
 10
3112.6269343092913
 20
2852.4579363649937
 40
4.8823529999999993
 50
90
 51
180
  0
ARC
  8
_0-0_1
  6
CONTINUOUS
 62
    7
 10
3185.862434309292
 20
2779.2227363649931
 40
4.8823529999999993
 50
270
 51
0
  0
ARC
  8
_0-0_1
  6
CONTINUOUS
 62
    7
 10
3112.6269343092913
 20
2779.2227363649931
 40
4.8823529999999993
 50
180
 51
270
  0
ARC
  8
_0-0_1
  6
CONTINUOUS
 62
    7
 10
3285.862234309292
 20
2679.2227363649931
 40
4.8823529999999993
 50
270
 51
0
  0
ARC
  8
_0-0_1
  6
CONTINUOUS
 62
    7
 10
3285.862234309292
 20
2752.4581363649932
 40
4.8823529999999993
 50
0
 51
90
  0
ARC
  8
_0-0_1
  6
CONTINUOUS
 62
    7
 10
3212.6269343092913
 20
2679.2227363649931
 40
4.8823529999999993
 50
180
 51
270
  0
ARC
  8
_0-0_1
  6
CONTINUOUS
 62
    7
 10
3212.6269343092913
 20
2752.4581363649932
 40
4.8823529999999993
 50
90
 51
180
  0
ARC
  8
_0-0_1
  6
CONTINUOUS
 62
    7
 10
3285.862234309292
 20
3055.4581363649932
 40
4.8823529999999993
 50
0
 51
90
  0
ARC
  8
_0-0_1
  6
CONTINUOUS
 62
    7
 10
3285.862234309292
 20
2982.2228363649938
 40
4.8823529999999993
 50
270
 51
0
  0
ARC
  8
_0-0_1
  6
CONTINUOUS
 62
    7
 10
3212.6269343092913
 20
2982.2228363649938
 40
4.8823529999999993
 50
180
 51
270
  0
ARC
  8
_0-0_1
  6
CONTINUOUS
 62
    7
 10
3212.6269343092913
 20
3055.4581363649932
 40
4.8823529999999993
 50
90
 51
180
  0
ARC
  8
_0-0_1
  6
CONTINUOUS
 62
    7
 10
3185.862434309292
 20
3055.4581363649932
 40
4.8823529999999993
 50
0
 51
90
  0
ARC
  8
_0-0_1
  6
CONTINUOUS
 62
    7
 10
3112.6269343092913
 20
3055.4581363649932
 40
4.8823529999999993
 50
90
 51
180
  0
ARC
  8
_0-0_1
  6
CONTINUOUS
 62
    7
 10
3112.6269343092913
 20
2982.2228363649938
 40
4.8823529999999993
 50
180
 51
270
  0
ARC
  8
_0-0_1
  6
CONTINUOUS
 62
    7
 10
3185.862434309292
 20
2982.2228363649938
 40
4.8823529999999993
 50
270
 51
0
  0
ARC
  8
_0-0_1
  6
CONTINUOUS
 62
    7
 10
3112.6269343092913
 20
2955.4580363649934
 40
4.8823529999999993
 50
90
 51
180
  0
ARC
  8
_0-0_1
  6
CONTINUOUS
 62
    7
 10
3112.6269343092913
 20
2882.2227363649931
 40
4.8823529999999993
 50
180
 51
270
  0
ARC
  8
_0-0_1
  6
CONTINUOUS
 62
    7
 10
3185.862434309292
 20
2955.4580363649934
 40
4.8823529999999993
 50
0
 51
90
  0
ARC
  8
_0-0_1
  6
CONTINUOUS
 62
    7
 10
3185.862434309292
 20
2882.2227363649931
 40
4.8823529999999993
 50
270
 51
0
  0
ARC
  8
_0-0_1
  6
CONTINUOUS
 62
    7
 10
3285.862234309292
 20
2852.4579363649937
 40
4.8823529999999993
 50
0
 51
90
  0
ARC
  8
_0-0_1
  6
CONTINUOUS
 62
    7
 10
3212.6269343092913
 20
2852.4579363649937
 40
4.8823529999999993
 50
90
 51
180
  0
ARC
  8
_0-0_1
  6
CONTINUOUS
 62
    7
 10
3285.862234309292
 20
2779.2227363649931
 40
4.8823529999999993
 50
270
 51
0
  0
ARC
  8
_0-0_1
  6
CONTINUOUS
 62
    7
 10
3212.6269343092913
 20
2779.2227363649931
 40
4.8823529999999993
 50
180
 51
270
  0
ARC
  8
_0-0_1
  6
CONTINUOUS
 62
    7
 10
3285.862234309292
 20
2882.2227363649931
 40
4.8823529999999993
 50
270
 51
0
  0
ARC
  8
_0-0_1
  6
CONTINUOUS
 62
    7
 10
3285.862234309292
 20
2955.4580363649934
 40
4.8823529999999993
 50
0
 51
90
  0
ARC
  8
_0-0_1
  6
CONTINUOUS
 62
    7
 10
3212.6269343092913
 20
2955.4580363649934
 40
4.8823529999999993
 50
90
 51
180
  0
ARC
  8
_0-0_1
  6
CONTINUOUS
 62
    7
 10
3212.6269343092913
 20
2882.2227363649931
 40
4.8823529999999993
 50
180
 51
270
  0
ARC
  8
_0-0_1
  6
CONTINUOUS
 62
    7
 10
3912.6270343092915
 20
2752.4581363649932
 40
4.8823529999999993
 50
90
 51
180
  0
ARC
  8
_0-0_1
  6
CONTINUOUS
 62
    7
 10
3985.8623343092909
 20
2752.4581363649932
 40
4.8823529999999993
 50
0
 51
90
  0
ARC
  8
_0-0_1
  6
CONTINUOUS
 62
    7
 10
3985.8623343092909
 20
2679.2227363649931
 40
4.8823529999999993
 50
270
 51
0
  0
ARC
  8
_0-0_1
  6
CONTINUOUS
 62
    7
 10
3912.6270343092915
 20
2679.2227363649931
 40
4.8823529999999993
 50
180
 51
270
  0
ARC
  8
_0-0_1
  6
CONTINUOUS
 62
    7
 10
3985.8623343092909
 20
2852.4579363649937
 40
4.8823529999999993
 50
0
 51
90
  0
ARC
  8
_0-0_1
  6
CONTINUOUS
 62
    7
 10
3912.6270343092915
 20
2852.4579363649937
 40
4.8823529999999993
 50
90
 51
180
  0
ARC
  8
_0-0_1
  6
CONTINUOUS
 62
    7
 10
3985.8623343092909
 20
2779.2227363649931
 40
4.8823529999999993
 50
270
 51
0
  0
ARC
  8
_0-0_1
  6
CONTINUOUS
 62
    7
 10
3912.6270343092915
 20
2779.2227363649931
 40
4.8823529999999993
 50
180
 51
270
  0
ARC
  8
_0-0_1
  6
CONTINUOUS
 62
    7
 10
4085.8624343092915
 20
2679.2227363649931
 40
4.8823529999999993
 50
270
 51
0
  0
ARC
  8
_0-0_1
  6
CONTINUOUS
 62
    7
 10
4085.8624343092915
 20
2752.4581363649932
 40
4.8823529999999993
 50
0
 51
90
  0
ARC
  8
_0-0_1
  6
CONTINUOUS
 62
    7
 10
4012.6269343092918
 20
2679.2227363649931
 40
4.8823529999999993
 50
180
 51
270
  0
ARC
  8
_0-0_1
  6
CONTINUOUS
 62
    7
 10
4012.6269343092918
 20
2752.4581363649932
 40
4.8823529999999993
 50
90
 51
180
  0
ARC
  8
_0-0_1
  6
CONTINUOUS
 62
    7
 10
4085.8624343092915
 20
3055.4581363649932
 40
4.8823529999999993
 50
0
 51
90
  0
ARC
  8
_0-0_1
  6
CONTINUOUS
 62
    7
 10
4085.8624343092915
 20
2982.2228363649938
 40
4.8823529999999993
 50
270
 51
0
  0
ARC
  8
_0-0_1
  6
CONTINUOUS
 62
    7
 10
4012.6269343092918
 20
2982.2228363649938
 40
4.8823529999999993
 50
180
 51
270
  0
ARC
  8
_0-0_1
  6
CONTINUOUS
 62
    7
 10
4012.6269343092918
 20
3055.4581363649932
 40
4.8823529999999993
 50
90
 51
180
  0
ARC
  8
_0-0_1
  6
CONTINUOUS
 62
    7
 10
3985.8623343092909
 20
3055.4581363649932
 40
4.8823529999999993
 50
0
 51
90
  0
ARC
  8
_0-0_1
  6
CONTINUOUS
 62
    7
 10
3912.6270343092915
 20
3055.4581363649932
 40
4.8823529999999993
 50
90
 51
180
  0
ARC
  8
_0-0_1
  6
CONTINUOUS
 62
    7
 10
3912.6270343092915
 20
2982.2228363649938
 40
4.8823529999999993
 50
180
 51
270
  0
ARC
  8
_0-0_1
  6
CONTINUOUS
 62
    7
 10
3985.8623343092909
 20
2982.2228363649938
 40
4.8823529999999993
 50
270
 51
0
  0
ARC
  8
_0-0_1
  6
CONTINUOUS
 62
    7
 10
3912.6270343092915
 20
2955.4580363649934
 40
4.8823529999999993
 50
90
 51
180
  0
ARC
  8
_0-0_1
  6
CONTINUOUS
 62
    7
 10
3912.6270343092915
 20
2882.2227363649931
 40
4.8823529999999993
 50
180
 51
270
  0
ARC
  8
_0-0_1
  6
CONTINUOUS
 62
    7
 10
3985.8623343092909
 20
2955.4580363649934
 40
4.8823529999999993
 50
0
 51
90
  0
ARC
  8
_0-0_1
  6
CONTINUOUS
 62
    7
 10
3985.8623343092909
 20
2882.2227363649931
 40
4.8823529999999993
 50
270
 51
0
  0
ARC
  8
_0-0_1
  6
CONTINUOUS
 62
    7
 10
4085.8624343092915
 20
2852.4579363649937
 40
4.8823529999999993
 50
0
 51
90
  0
ARC
  8
_0-0_1
  6
CONTINUOUS
 62
    7
 10
4012.6269343092918
 20
2852.4579363649937
 40
4.8823529999999993
 50
90
 51
180
  0
ARC
  8
_0-0_1
  6
CONTINUOUS
 62
    7
 10
4085.8624343092915
 20
2779.2227363649931
 40
4.8823529999999993
 50
270
 51
0
  0
ARC
  8
_0-0_1
  6
CONTINUOUS
 62
    7
 10
4012.6269343092918
 20
2779.2227363649931
 40
4.8823529999999993
 50
180
 51
270
  0
ARC
  8
_0-0_1
  6
CONTINUOUS
 62
    7
 10
4085.8624343092915
 20
2882.2227363649931
 40
4.8823529999999993
 50
270
 51
0
  0
ARC
  8
_0-0_1
  6
CONTINUOUS
 62
    7
 10
4085.8624343092915
 20
2955.4580363649934
 40
4.8823529999999993
 50
0
 51
90
  0
ARC
  8
_0-0_1
  6
CONTINUOUS
 62
    7
 10
4012.6269343092918
 20
2955.4580363649934
 40
4.8823529999999993
 50
90
 51
180
  0
ARC
  8
_0-0_1
  6
CONTINUOUS
 62
    7
 10
4012.6269343092918
 20
2882.2227363649931
 40
4.8823529999999993
 50
180
 51
270
  0
ARC
  8
_0-0_1
  6
CONTINUOUS
 62
    7
 10
3885.862234309292
 20
2679.2227363649931
 40
4.8823529999999993
 50
270
 51
0
  0
ARC
  8
_0-0_1
  6
CONTINUOUS
 62
    7
 10
3885.862234309292
 20
2752.4581363649932
 40
4.8823529999999993
 50
0
 51
90
  0
ARC
  8
_0-0_1
  6
CONTINUOUS
 62
    7
 10
3885.862234309292
 20
2852.4579363649937
 40
4.8823529999999993
 50
0
 51
90
  0
ARC
  8
_0-0_1
  6
CONTINUOUS
 62
    7
 10
3885.862234309292
 20
2779.2227363649931
 40
4.8823529999999993
 50
270
 51
0
  0
ARC
  8
_0-0_1
  6
CONTINUOUS
 62
    7
 10
3885.862234309292
 20
2955.4580363649934
 40
4.8823529999999993
 50
0
 51
90
  0
ARC
  8
_0-0_1
  6
CONTINUOUS
 62
    7
 10
3885.862234309292
 20
2882.2227363649931
 40
4.8823529999999993
 50
270
 51
0
  0
ARC
  8
_0-0_1
  6
CONTINUOUS
 62
    7
 10
3885.862234309292
 20
2982.2228363649938
 40
4.8823529999999993
 50
270
 51
0
  0
ARC
  8
_0-0_1
  6
CONTINUOUS
 62
    7
 10
3885.862234309292
 20
3055.4581363649932
 40
4.8823529999999993
 50
0
 51
90
  0
ARC
  8
_0-0_1
  6
CONTINUOUS
 62
    7
 10
3312.6270343092915
 20
2982.2228363649938
 40
4.8823529999999993
 50
180
 51
270
  0
ARC
  8
_0-0_1
  6
CONTINUOUS
 62
    7
 10
3312.6270343092915
 20
3055.4581363649932
 40
4.8823529999999993
 50
90
 51
180
  0
ARC
  8
_0-0_1
  6
CONTINUOUS
 62
    7
 10
3312.6270343092915
 20
2679.2227363649931
 40
4.8823529999999993
 50
180
 51
270
  0
ARC
  8
_0-0_1
  6
CONTINUOUS
 62
    7
 10
3312.6270343092915
 20
2752.4581363649932
 40
4.8823529999999993
 50
90
 51
180
  0
ARC
  8
_0-0_1
  6
CONTINUOUS
 62
    7
 10
3312.6270343092915
 20
2779.2227363649931
 40
4.8823529999999993
 50
180
 51
270
  0
ARC
  8
_0-0_1
  6
CONTINUOUS
 62
    7
 10
3312.6270343092915
 20
2852.4579363649937
 40
4.8823529999999993
 50
90
 51
180
  0
ARC
  8
_0-0_1
  6
CONTINUOUS
 62
    7
 10
3312.6270343092915
 20
2882.2227363649931
 40
4.8823529999999993
 50
180
 51
270
  0
ARC
  8
_0-0_1
  6
CONTINUOUS
 62
    7
 10
3312.6270343092915
 20
2955.4580363649934
 40
4.8823529999999993
 50
90
 51
180
  0
LINE
  8
_0-0_1
  6
CONTINUOUS
 62
    7
 10
3359.2446343092925
 20
2752.3403363649932
 11
3359.2446343092925
 21
2709.8403363649932
  0
LINE
  8
_0-0_1
  6
CONTINUOUS
 62
    7
 10
3367.2446343092925
 20
2752.3403363649932
 11
3367.2446343092925
 21
2709.8403363649932
  0
LINE
  8
_0-0_1
  6
CONTINUOUS
 62
    7
 10
3377.2446343092925
 20
2752.3403363649932
 11
3377.2446343092925
 21
2709.8403363649932
  0
LINE
  8
_0-0_1
  6
CONTINUOUS
 62
    7
 10
3385.244634309292
 20
2752.3403363649932
 11
3385.244634309292
 21
2709.8403363649932
  0
LINE
  8
_0-0_1
  6
CONTINUOUS
 62
    7
 10
3395.244634309292
 20
2752.3403363649932
 11
3395.244634309292
 21
2709.8403363649932
  0
LINE
  8
_0-0_1
  6
CONTINUOUS
 62
    7
 10
3403.244634309292
 20
2752.3403363649932
 11
3403.244634309292
 21
2709.8403363649932
  0
LINE
  8
_0-0_1
  6
CONTINUOUS
 62
    7
 10
3413.244634309292
 20
2752.3403363649932
 11
3413.244634309292
 21
2709.8403363649932
  0
LINE
  8
_0-0_1
  6
CONTINUOUS
 62
    7
 10
3421.244634309292
 20
2752.3403363649932
 11
3421.244634309292
 21
2709.8403363649932
  0
LINE
  8
_0-0_1
  6
CONTINUOUS
 62
    7
 10
3503.244634309292
 20
2752.3403363649932
 11
3503.244634309292
 21
2709.8403363649932
  0
LINE
  8
_0-0_1
  6
CONTINUOUS
 62
    7
 10
3511.244634309292
 20
2752.3403363649932
 11
3511.244634309292
 21
2709.8403363649932
  0
LINE
  8
_0-0_1
  6
CONTINUOUS
 62
    7
 10
3521.244634309292
 20
2752.3403363649932
 11
3521.244634309292
 21
2709.8403363649932
  0
LINE
  8
_0-0_1
  6
CONTINUOUS
 62
    7
 10
3529.2446343092915
 20
2752.3403363649932
 11
3529.2446343092915
 21
2709.8403363649932
  0
LINE
  8
_0-0_1
  6
CONTINUOUS
 62
    7
 10
3539.2446343092915
 20
2752.3403363649932
 11
3539.2446343092915
 21
2709.8403363649932
  0
LINE
  8
_0-0_1
  6
CONTINUOUS
 62
    7
 10
3547.2446343092915
 20
2752.3403363649932
 11
3547.2446343092915
 21
2709.8403363649932
  0
LINE
  8
_0-0_1
  6
CONTINUOUS
 62
    7
 10
3557.2446343092915
 20
2752.3403363649932
 11
3557.2446343092915
 21
2709.8403363649932
  0
LINE
  8
_0-0_1
  6
CONTINUOUS
 62
    7
 10
3565.244634309292
 20
2752.3403363649932
 11
3565.244634309292
 21
2709.8403363649932
  0
LINE
  8
_0-0_1
  6
CONTINUOUS
 62
    7
 10
3575.244634309292
 20
2752.3403363649932
 11
3575.244634309292
 21
2709.8403363649932
  0
LINE
  8
_0-0_1
  6
CONTINUOUS
 62
    7
 10
3583.244634309292
 20
2752.3403363649932
 11
3583.244634309292
 21
2709.8403363649932
  0
LINE
  8
_0-0_1
  6
CONTINUOUS
 62
    7
 10
3593.244634309292
 20
2752.3403363649932
 11
3593.244634309292
 21
2709.8403363649932
  0
LINE
  8
_0-0_1
  6
CONTINUOUS
 62
    7
 10
3601.2446343092915
 20
2752.3403363649932
 11
3601.2446343092915
 21
2709.8403363649932
  0
LINE
  8
_0-0_1
  6
CONTINUOUS
 62
    7
 10
3611.2446343092915
 20
2752.3403363649932
 11
3611.2446343092915
 21
2709.8403363649932
  0
LINE
  8
_0-0_1
  6
CONTINUOUS
 62
    7
 10
3619.2446343092915
 20
2752.3403363649932
 11
3619.2446343092915
 21
2709.8403363649932
  0
LINE
  8
_0-0_1
  6
CONTINUOUS
 62
    7
 10
3629.2446343092915
 20
2752.3403363649932
 11
3629.2446343092915
 21
2709.8403363649932
  0
LINE
  8
_0-0_1
  6
CONTINUOUS
 62
    7
 10
3637.2446343092915
 20
2752.3403363649932
 11
3637.2446343092915
 21
2709.8403363649932
  0
LINE
  8
_0-0_1
  6
CONTINUOUS
 62
    7
 10
3647.2446343092915
 20
2752.3403363649932
 11
3647.2446343092915
 21
2709.8403363649932
  0
LINE
  8
_0-0_1
  6
CONTINUOUS
 62
    7
 10
3655.244634309292
 20
2752.3403363649932
 11
3655.244634309292
 21
2709.8403363649932
  0
LINE
  8
_0-0_1
  6
CONTINUOUS
 62
    7
 10
3665.244634309292
 20
2752.3403363649932
 11
3665.244634309292
 21
2709.8403363649932
  0
LINE
  8
_0-0_1
  6
CONTINUOUS
 62
    7
 10
3673.244634309292
 20
2752.3403363649932
 11
3673.244634309292
 21
2709.8403363649932
  0
LINE
  8
_0-0_1
  6
CONTINUOUS
 62
    7
 10
3683.244634309292
 20
2752.3403363649932
 11
3683.244634309292
 21
2709.8403363649932
  0
LINE
  8
_0-0_1
  6
CONTINUOUS
 62
    7
 10
3691.2446343092915
 20
2752.3403363649932
 11
3691.2446343092915
 21
2709.8403363649932
  0
LINE
  8
_0-0_1
  6
CONTINUOUS
 62
    7
 10
3701.2446343092915
 20
2752.3403363649932
 11
3701.2446343092915
 21
2709.8403363649932
  0
LINE
  8
_0-0_1
  6
CONTINUOUS
 62
    7
 10
3709.2446343092915
 20
2752.3403363649932
 11
3709.2446343092915
 21
2709.8403363649932
  0
LINE
  8
_0-0_1
  6
CONTINUOUS
 62
    7
 10
3719.2446343092915
 20
2752.3403363649932
 11
3719.2446343092915
 21
2709.8403363649932
  0
LINE
  8
_0-0_1
  6
CONTINUOUS
 62
    7
 10
3727.2446343092915
 20
2752.3403363649932
 11
3727.2446343092915
 21
2709.8403363649932
  0
LINE
  8
_0-0_1
  6
CONTINUOUS
 62
    7
 10
3737.2446343092915
 20
2752.3403363649932
 11
3737.2446343092915
 21
2709.8403363649932
  0
LINE
  8
_0-0_1
  6
CONTINUOUS
 62
    7
 10
3359.2446343092925
 20
2864.8403363649932
 11
3359.2446343092925
 21
2757.3403363649932
  0
LINE
  8
_0-0_1
  6
CONTINUOUS
 62
    7
 10
3367.2446343092925
 20
2864.8403363649932
 11
3367.2446343092925
 21
2757.3403363649932
  0
LINE
  8
_0-0_1
  6
CONTINUOUS
 62
    7
 10
3377.2446343092925
 20
2864.8403363649932
 11
3377.2446343092925
 21
2757.3403363649932
  0
LINE
  8
_0-0_1
  6
CONTINUOUS
 62
    7
 10
3385.244634309292
 20
2864.8403363649932
 11
3385.244634309292
 21
2757.3403363649932
  0
LINE
  8
_0-0_1
  6
CONTINUOUS
 62
    7
 10
3395.244634309292
 20
2864.8403363649932
 11
3395.244634309292
 21
2757.3403363649932
  0
LINE
  8
_0-0_1
  6
CONTINUOUS
 62
    7
 10
3403.244634309292
 20
2864.8403363649932
 11
3403.244634309292
 21
2757.3403363649932
  0
LINE
  8
_0-0_1
  6
CONTINUOUS
 62
    7
 10
3413.244634309292
 20
2864.8403363649932
 11
3413.244634309292
 21
2757.3403363649932
  0
LINE
  8
_0-0_1
  6
CONTINUOUS
 62
    7
 10
3421.244634309292
 20
2864.8403363649932
 11
3421.244634309292
 21
2757.3403363649932
  0
LINE
  8
_0-0_1
  6
CONTINUOUS
 62
    7
 10
3431.244634309292
 20
2864.8403363649932
 11
3431.244634309292
 21
2757.3403363649932
  0
LINE
  8
_0-0_1
  6
CONTINUOUS
 62
    7
 10
3439.2446343092925
 20
2864.8403363649932
 11
3439.2446343092925
 21
2757.3403363649932
  0
LINE
  8
_0-0_1
  6
CONTINUOUS
 62
    7
 10
3449.2446343092925
 20
2864.8403363649932
 11
3449.2446343092925
 21
2757.3403363649932
  0
LINE
  8
_0-0_1
  6
CONTINUOUS
 62
    7
 10
3457.2446343092915
 20
2864.8403363649932
 11
3457.2446343092915
 21
2757.3403363649932
  0
LINE
  8
_0-0_1
  6
CONTINUOUS
 62
    7
 10
3467.2446343092915
 20
2864.8403363649932
 11
3467.2446343092915
 21
2757.3403363649932
  0
LINE
  8
_0-0_1
  6
CONTINUOUS
 62
    7
 10
3475.244634309292
 20
2864.8403363649932
 11
3475.244634309292
 21
2757.3403363649932
  0
LINE
  8
_0-0_1
  6
CONTINUOUS
 62
    7
 10
3503.244634309292
 20
2864.8403363649932
 11
3503.244634309292
 21
2757.3403363649932
  0
LINE
  8
_0-0_1
  6
CONTINUOUS
 62
    7
 10
3511.244634309292
 20
2864.8403363649932
 11
3511.244634309292
 21
2757.3403363649932
  0
LINE
  8
_0-0_1
  6
CONTINUOUS
 62
    7
 10
3521.244634309292
 20
2864.8403363649932
 11
3521.244634309292
 21
2757.3403363649932
  0
LINE
  8
_0-0_1
  6
CONTINUOUS
 62
    7
 10
3529.2446343092915
 20
2864.8403363649932
 11
3529.2446343092915
 21
2757.3403363649932
  0
LINE
  8
_0-0_1
  6
CONTINUOUS
 62
    7
 10
3539.2446343092915
 20
2864.8403363649932
 11
3539.2446343092915
 21
2757.3403363649932
  0
LINE
  8
_0-0_1
  6
CONTINUOUS
 62
    7
 10
3547.2446343092915
 20
2864.8403363649932
 11
3547.2446343092915
 21
2757.3403363649932
  0
LINE
  8
_0-0_1
  6
CONTINUOUS
 62
    7
 10
3557.2446343092915
 20
2864.8403363649932
 11
3557.2446343092915
 21
2757.3403363649932
  0
LINE
  8
_0-0_1
  6
CONTINUOUS
 62
    7
 10
3565.244634309292
 20
2864.8403363649932
 11
3565.244634309292
 21
2757.3403363649932
  0
LINE
  8
_0-0_1
  6
CONTINUOUS
 62
    7
 10
3575.244634309292
 20
2864.8403363649932
 11
3575.244634309292
 21
2757.3403363649932
  0
LINE
  8
_0-0_1
  6
CONTINUOUS
 62
    7
 10
3583.244634309292
 20
2864.8403363649932
 11
3583.244634309292
 21
2757.3403363649932
  0
LINE
  8
_0-0_1
  6
CONTINUOUS
 62
    7
 10
3593.244634309292
 20
2864.8403363649932
 11
3593.244634309292
 21
2757.3403363649932
  0
LINE
  8
_0-0_1
  6
CONTINUOUS
 62
    7
 10
3601.2446343092915
 20
2864.8403363649932
 11
3601.2446343092915
 21
2757.3403363649932
  0
LINE
  8
_0-0_1
  6
CONTINUOUS
 62
    7
 10
3611.2446343092915
 20
2864.8403363649932
 11
3611.2446343092915
 21
2757.3403363649932
  0
LINE
  8
_0-0_1
  6
CONTINUOUS
 62
    7
 10
3619.2446343092915
 20
2864.8403363649932
 11
3619.2446343092915
 21
2757.3403363649932
  0
LINE
  8
_0-0_1
  6
CONTINUOUS
 62
    7
 10
3629.2446343092915
 20
2864.8403363649932
 11
3629.2446343092915
 21
2757.3403363649932
  0
LINE
  8
_0-0_1
  6
CONTINUOUS
 62
    7
 10
3637.2446343092915
 20
2864.8403363649932
 11
3637.2446343092915
 21
2757.3403363649932
  0
LINE
  8
_0-0_1
  6
CONTINUOUS
 62
    7
 10
3647.2446343092915
 20
2864.8403363649932
 11
3647.2446343092915
 21
2757.3403363649932
  0
LINE
  8
_0-0_1
  6
CONTINUOUS
 62
    7
 10
3655.244634309292
 20
2864.8403363649932
 11
3655.244634309292
 21
2757.3403363649932
  0
LINE
  8
_0-0_1
  6
CONTINUOUS
 62
    7
 10
3665.244634309292
 20
2864.8403363649932
 11
3665.244634309292
 21
2757.3403363649932
  0
LINE
  8
_0-0_1
  6
CONTINUOUS
 62
    7
 10
3673.244634309292
 20
2864.8403363649932
 11
3673.244634309292
 21
2757.3403363649932
  0
LINE
  8
_0-0_1
  6
CONTINUOUS
 62
    7
 10
3683.244634309292
 20
2864.8403363649932
 11
3683.244634309292
 21
2757.3403363649932
  0
LINE
  8
_0-0_1
  6
CONTINUOUS
 62
    7
 10
3691.2446343092915
 20
2864.8403363649932
 11
3691.2446343092915
 21
2757.3403363649932
  0
LINE
  8
_0-0_1
  6
CONTINUOUS
 62
    7
 10
3701.2446343092915
 20
2864.8403363649932
 11
3701.2446343092915
 21
2757.3403363649932
  0
LINE
  8
_0-0_1
  6
CONTINUOUS
 62
    7
 10
3709.2446343092915
 20
2864.8403363649932
 11
3709.2446343092915
 21
2757.3403363649932
  0
LINE
  8
_0-0_1
  6
CONTINUOUS
 62
    7
 10
3719.2446343092915
 20
2864.8403363649932
 11
3719.2446343092915
 21
2757.3403363649932
  0
LINE
  8
_0-0_1
  6
CONTINUOUS
 62
    7
 10
3727.2446343092915
 20
2864.8403363649932
 11
3727.2446343092915
 21
2757.3403363649932
  0
LINE
  8
_0-0_1
  6
CONTINUOUS
 62
    7
 10
3737.2446343092915
 20
2864.8403363649932
 11
3737.2446343092915
 21
2757.3403363649932
  0
LINE
  8
_0-0_1
  6
CONTINUOUS
 62
    7
 10
3359.2446343092925
 20
3024.8404363649934
 11
3359.2446343092925
 21
2982.3403363649932
  0
LINE
  8
_0-0_1
  6
CONTINUOUS
 62
    7
 10
3359.2446343092925
 20
2977.3403363649932
 11
3359.2446343092925
 21
2869.8403363649932
  0
LINE
  8
_0-0_1
  6
CONTINUOUS
 62
    7
 10
3367.2446343092925
 20
3024.8404363649934
 11
3367.2446343092925
 21
2982.3403363649932
  0
LINE
  8
_0-0_1
  6
CONTINUOUS
 62
    7
 10
3367.2446343092925
 20
2977.3403363649932
 11
3367.2446343092925
 21
2869.8403363649932
  0
LINE
  8
_0-0_1
  6
CONTINUOUS
 62
    7
 10
3377.2446343092925
 20
3024.8404363649934
 11
3377.2446343092925
 21
2982.3403363649932
  0
LINE
  8
_0-0_1
  6
CONTINUOUS
 62
    7
 10
3377.2446343092925
 20
2977.3403363649932
 11
3377.2446343092925
 21
2869.8403363649932
  0
LINE
  8
_0-0_1
  6
CONTINUOUS
 62
    7
 10
3385.244634309292
 20
3024.8404363649934
 11
3385.244634309292
 21
2982.3403363649932
  0
LINE
  8
_0-0_1
  6
CONTINUOUS
 62
    7
 10
3385.244634309292
 20
2977.3403363649932
 11
3385.244634309292
 21
2869.8403363649932
  0
LINE
  8
_0-0_1
  6
CONTINUOUS
 62
    7
 10
3395.244634309292
 20
3024.8404363649934
 11
3395.244634309292
 21
2982.3403363649932
  0
LINE
  8
_0-0_1
  6
CONTINUOUS
 62
    7
 10
3395.244634309292
 20
2977.3403363649932
 11
3395.244634309292
 21
2869.8403363649932
  0
LINE
  8
_0-0_1
  6
CONTINUOUS
 62
    7
 10
3403.244634309292
 20
3024.8404363649934
 11
3403.244634309292
 21
2982.3403363649932
  0
LINE
  8
_0-0_1
  6
CONTINUOUS
 62
    7
 10
3403.244634309292
 20
2977.3403363649932
 11
3403.244634309292
 21
2869.8403363649932
  0
LINE
  8
_0-0_1
  6
CONTINUOUS
 62
    7
 10
3413.244634309292
 20
3024.8404363649934
 11
3413.244634309292
 21
2982.3403363649932
  0
LINE
  8
_0-0_1
  6
CONTINUOUS
 62
    7
 10
3413.244634309292
 20
2977.3403363649932
 11
3413.244634309292
 21
2869.8403363649932
  0
LINE
  8
_0-0_1
  6
CONTINUOUS
 62
    7
 10
3421.244634309292
 20
3024.8404363649934
 11
3421.244634309292
 21
2982.3403363649932
  0
LINE
  8
_0-0_1
  6
CONTINUOUS
 62
    7
 10
3421.244634309292
 20
2977.3403363649932
 11
3421.244634309292
 21
2869.8403363649932
  0
LINE
  8
_0-0_1
  6
CONTINUOUS
 62
    7
 10
3431.244634309292
 20
3024.8404363649934
 11
3431.244634309292
 21
2982.3403363649932
  0
LINE
  8
_0-0_1
  6
CONTINUOUS
 62
    7
 10
3431.244634309292
 20
2977.3403363649932
 11
3431.244634309292
 21
2869.8403363649932
  0
LINE
  8
_0-0_1
  6
CONTINUOUS
 62
    7
 10
3439.2446343092925
 20
3024.8404363649934
 11
3439.2446343092925
 21
2982.3403363649932
  0
LINE
  8
_0-0_1
  6
CONTINUOUS
 62
    7
 10
3439.2446343092925
 20
2977.3403363649932
 11
3439.2446343092925
 21
2869.8403363649932
  0
LINE
  8
_0-0_1
  6
CONTINUOUS
 62
    7
 10
3457.2446343092915
 20
3024.8404363649934
 11
3457.2446343092915
 21
2982.3403363649932
  0
LINE
  8
_0-0_1
  6
CONTINUOUS
 62
    7
 10
3457.2446343092915
 20
2977.3403363649932
 11
3457.2446343092915
 21
2869.8403363649932
  0
LINE
  8
_0-0_1
  6
CONTINUOUS
 62
    7
 10
3467.2446343092915
 20
3024.8404363649934
 11
3467.2446343092915
 21
2982.3403363649932
  0
LINE
  8
_0-0_1
  6
CONTINUOUS
 62
    7
 10
3467.2446343092915
 20
2977.3403363649932
 11
3467.2446343092915
 21
2869.8403363649932
  0
LINE
  8
_0-0_1
  6
CONTINUOUS
 62
    7
 10
3475.244634309292
 20
3024.8404363649934
 11
3475.244634309292
 21
2982.3403363649932
  0
LINE
  8
_0-0_1
  6
CONTINUOUS
 62
    7
 10
3475.244634309292
 20
2977.3403363649932
 11
3475.244634309292
 21
2869.8403363649932
  0
LINE
  8
_0-0_1
  6
CONTINUOUS
 62
    7
 10
3485.244634309292
 20
3024.8404363649934
 11
3485.244634309292
 21
2982.3403363649932
  0
LINE
  8
_0-0_1
  6
CONTINUOUS
 62
    7
 10
3449.2446343092925
 20
3024.8404363649934
 11
3449.2446343092925
 21
2982.3403363649932
  0
LINE
  8
_0-0_1
  6
CONTINUOUS
 62
    7
 10
3449.2446343092925
 20
2977.3403363649932
 11
3449.2446343092925
 21
2869.8403363649932
  0
LINE
  8
_0-0_1
  6
CONTINUOUS
 62
    7
 10
3493.244634309292
 20
3024.8404363649934
 11
3493.244634309292
 21
2982.3403363649932
  0
LINE
  8
_0-0_1
  6
CONTINUOUS
 62
    7
 10
3503.244634309292
 20
3024.8404363649934
 11
3503.244634309292
 21
2982.3403363649932
  0
LINE
  8
_0-0_1
  6
CONTINUOUS
 62
    7
 10
3503.244634309292
 20
2977.3403363649932
 11
3503.244634309292
 21
2869.8403363649932
  0
LINE
  8
_0-0_1
  6
CONTINUOUS
 62
    7
 10
3511.244634309292
 20
3024.8404363649934
 11
3511.244634309292
 21
2982.3403363649932
  0
LINE
  8
_0-0_1
  6
CONTINUOUS
 62
    7
 10
3511.244634309292
 20
2977.3403363649932
 11
3511.244634309292
 21
2869.8403363649932
  0
LINE
  8
_0-0_1
  6
CONTINUOUS
 62
    7
 10
3521.244634309292
 20
3024.8404363649934
 11
3521.244634309292
 21
2982.3403363649932
  0
LINE
  8
_0-0_1
  6
CONTINUOUS
 62
    7
 10
3521.244634309292
 20
2977.3403363649932
 11
3521.244634309292
 21
2869.8403363649932
  0
LINE
  8
_0-0_1
  6
CONTINUOUS
 62
    7
 10
3529.2446343092915
 20
3024.8404363649934
 11
3529.2446343092915
 21
2982.3403363649932
  0
LINE
  8
_0-0_1
  6
CONTINUOUS
 62
    7
 10
3529.2446343092915
 20
2977.3403363649932
 11
3529.2446343092915
 21
2869.8403363649932
  0
LINE
  8
_0-0_1
  6
CONTINUOUS
 62
    7
 10
3539.2446343092915
 20
3024.8404363649934
 11
3539.2446343092915
 21
2982.3403363649932
  0
LINE
  8
_0-0_1
  6
CONTINUOUS
 62
    7
 10
3539.2446343092915
 20
2977.3403363649932
 11
3539.2446343092915
 21
2869.8403363649932
  0
LINE
  8
_0-0_1
  6
CONTINUOUS
 62
    7
 10
3547.2446343092915
 20
3024.8404363649934
 11
3547.2446343092915
 21
2982.3403363649932
  0
LINE
  8
_0-0_1
  6
CONTINUOUS
 62
    7
 10
3547.2446343092915
 20
2977.3403363649932
 11
3547.2446343092915
 21
2869.8403363649932
  0
LINE
  8
_0-0_1
  6
CONTINUOUS
 62
    7
 10
3557.2446343092915
 20
3024.8404363649934
 11
3557.2446343092915
 21
2982.3403363649932
  0
LINE
  8
_0-0_1
  6
CONTINUOUS
 62
    7
 10
3557.2446343092915
 20
2977.3403363649932
 11
3557.2446343092915
 21
2869.8403363649932
  0
LINE
  8
_0-0_1
  6
CONTINUOUS
 62
    7
 10
3565.244634309292
 20
3024.8404363649934
 11
3565.244634309292
 21
2982.3403363649932
  0
LINE
  8
_0-0_1
  6
CONTINUOUS
 62
    7
 10
3565.244634309292
 20
2977.3403363649932
 11
3565.244634309292
 21
2869.8403363649932
  0
LINE
  8
_0-0_1
  6
CONTINUOUS
 62
    7
 10
3575.244634309292
 20
3024.8404363649934
 11
3575.244634309292
 21
2982.3403363649932
  0
LINE
  8
_0-0_1
  6
CONTINUOUS
 62
    7
 10
3575.244634309292
 20
2977.3403363649932
 11
3575.244634309292
 21
2869.8403363649932
  0
LINE
  8
_0-0_1
  6
CONTINUOUS
 62
    7
 10
3583.244634309292
 20
3024.8404363649934
 11
3583.244634309292
 21
2982.3403363649932
  0
LINE
  8
_0-0_1
  6
CONTINUOUS
 62
    7
 10
3583.244634309292
 20
2977.3403363649932
 11
3583.244634309292
 21
2869.8403363649932
  0
LINE
  8
_0-0_1
  6
CONTINUOUS
 62
    7
 10
3593.244634309292
 20
3024.8404363649934
 11
3593.244634309292
 21
2982.3403363649932
  0
LINE
  8
_0-0_1
  6
CONTINUOUS
 62
    7
 10
3593.244634309292
 20
2977.3403363649932
 11
3593.244634309292
 21
2869.8403363649932
  0
LINE
  8
_0-0_1
  6
CONTINUOUS
 62
    7
 10
3601.2446343092915
 20
3024.8404363649934
 11
3601.2446343092915
 21
2982.3403363649932
  0
LINE
  8
_0-0_1
  6
CONTINUOUS
 62
    7
 10
3601.2446343092915
 20
2977.3403363649932
 11
3601.2446343092915
 21
2869.8403363649932
  0
LINE
  8
_0-0_1
  6
CONTINUOUS
 62
    7
 10
3611.2446343092915
 20
3024.8404363649934
 11
3611.2446343092915
 21
2982.3403363649932
  0
LINE
  8
_0-0_1
  6
CONTINUOUS
 62
    7
 10
3611.2446343092915
 20
2977.3403363649932
 11
3611.2446343092915
 21
2869.8403363649932
  0
LINE
  8
_0-0_1
  6
CONTINUOUS
 62
    7
 10
3619.2446343092915
 20
3024.8404363649934
 11
3619.2446343092915
 21
2982.3403363649932
  0
LINE
  8
_0-0_1
  6
CONTINUOUS
 62
    7
 10
3619.2446343092915
 20
2977.3403363649932
 11
3619.2446343092915
 21
2869.8403363649932
  0
LINE
  8
_0-0_1
  6
CONTINUOUS
 62
    7
 10
3629.2446343092915
 20
3024.8404363649934
 11
3629.2446343092915
 21
2982.3403363649932
  0
LINE
  8
_0-0_1
  6
CONTINUOUS
 62
    7
 10
3629.2446343092915
 20
2977.3403363649932
 11
3629.2446343092915
 21
2869.8403363649932
  0
LINE
  8
_0-0_1
  6
CONTINUOUS
 62
    7
 10
3637.2446343092915
 20
3024.8404363649934
 11
3637.2446343092915
 21
2982.3403363649932
  0
LINE
  8
_0-0_1
  6
CONTINUOUS
 62
    7
 10
3637.2446343092915
 20
2977.3403363649932
 11
3637.2446343092915
 21
2869.8403363649932
  0
LINE
  8
_0-0_1
  6
CONTINUOUS
 62
    7
 10
3647.2446343092915
 20
3024.8404363649934
 11
3647.2446343092915
 21
2982.3403363649932
  0
LINE
  8
_0-0_1
  6
CONTINUOUS
 62
    7
 10
3647.2446343092915
 20
2977.3403363649932
 11
3647.2446343092915
 21
2869.8403363649932
  0
LINE
  8
_0-0_1
  6
CONTINUOUS
 62
    7
 10
3655.244634309292
 20
3024.8404363649934
 11
3655.244634309292
 21
2982.3403363649932
  0
LINE
  8
_0-0_1
  6
CONTINUOUS
 62
    7
 10
3655.244634309292
 20
2977.3403363649932
 11
3655.244634309292
 21
2869.8403363649932
  0
LINE
  8
_0-0_1
  6
CONTINUOUS
 62
    7
 10
3665.244634309292
 20
3024.8404363649934
 11
3665.244634309292
 21
2982.3403363649932
  0
LINE
  8
_0-0_1
  6
CONTINUOUS
 62
    7
 10
3665.244634309292
 20
2977.3403363649932
 11
3665.244634309292
 21
2869.8403363649932
  0
LINE
  8
_0-0_1
  6
CONTINUOUS
 62
    7
 10
3673.244634309292
 20
3024.8404363649934
 11
3673.244634309292
 21
2982.3403363649932
  0
LINE
  8
_0-0_1
  6
CONTINUOUS
 62
    7
 10
3673.244634309292
 20
2977.3403363649932
 11
3673.244634309292
 21
2869.8403363649932
  0
LINE
  8
_0-0_1
  6
CONTINUOUS
 62
    7
 10
3683.244634309292
 20
3024.8404363649934
 11
3683.244634309292
 21
2982.3403363649932
  0
LINE
  8
_0-0_1
  6
CONTINUOUS
 62
    7
 10
3683.244634309292
 20
2977.3403363649932
 11
3683.244634309292
 21
2869.8403363649932
  0
LINE
  8
_0-0_1
  6
CONTINUOUS
 62
    7
 10
3691.2446343092915
 20
2977.3403363649932
 11
3691.2446343092915
 21
2869.8403363649932
  0
LINE
  8
_0-0_1
  6
CONTINUOUS
 62
    7
 10
3701.2446343092915
 20
2977.3403363649932
 11
3701.2446343092915
 21
2869.8403363649932
  0
LINE
  8
_0-0_1
  6
CONTINUOUS
 62
    7
 10
3709.2446343092915
 20
2977.3403363649932
 11
3709.2446343092915
 21
2869.8403363649932
  0
LINE
  8
_0-0_1
  6
CONTINUOUS
 62
    7
 10
3719.2446343092915
 20
2977.3403363649932
 11
3719.2446343092915
 21
2869.8403363649932
  0
LINE
  8
_0-0_1
  6
CONTINUOUS
 62
    7
 10
3727.2446343092915
 20
2977.3403363649932
 11
3727.2446343092915
 21
2869.8403363649932
  0
LINE
  8
_0-0_1
  6
CONTINUOUS
 62
    7
 10
3737.2446343092915
 20
2977.3403363649932
 11
3737.2446343092915
 21
2869.8403363649932
  0
LINE
  8
_0-0_1
  6
CONTINUOUS
 62
    7
 10
3845.2446343092915
 20
2977.3403363649932
 11
3845.2446343092915
 21
2869.8403363649932
  0
LINE
  8
_0-0_1
  6
CONTINUOUS
 62
    7
 10
3349.2446343092925
 20
2982.3403363649932
 11
3359.2446343092925
 21
2982.3403363649932
  0
LINE
  8
_0-0_1
  6
CONTINUOUS
 62
    7
 10
3367.2446343092925
 20
2982.3403363649932
 11
3377.2446343092925
 21
2982.3403363649932
  0
LINE
  8
_0-0_1
  6
CONTINUOUS
 62
    7
 10
3385.244634309292
 20
2982.3403363649932
 11
3395.244634309292
 21
2982.3403363649932
  0
LINE
  8
_0-0_1
  6
CONTINUOUS
 62
    7
 10
3403.244634309292
 20
2982.3403363649932
 11
3413.244634309292
 21
2982.3403363649932
  0
LINE
  8
_0-0_1
  6
CONTINUOUS
 62
    7
 10
3421.244634309292
 20
2982.3403363649932
 11
3431.244634309292
 21
2982.3403363649932
  0
LINE
  8
_0-0_1
  6
CONTINUOUS
 62
    7
 10
3349.2446343092925
 20
2977.3403363649932
 11
3359.2446343092925
 21
2977.3403363649932
  0
LINE
  8
_0-0_1
  6
CONTINUOUS
 62
    7
 10
3367.2446343092925
 20
2977.3403363649932
 11
3377.2446343092925
 21
2977.3403363649932
  0
LINE
  8
_0-0_1
  6
CONTINUOUS
 62
    7
 10
3385.244634309292
 20
2977.3403363649932
 11
3395.244634309292
 21
2977.3403363649932
  0
LINE
  8
_0-0_1
  6
CONTINUOUS
 62
    7
 10
3403.244634309292
 20
2977.3403363649932
 11
3413.244634309292
 21
2977.3403363649932
  0
LINE
  8
_0-0_1
  6
CONTINUOUS
 62
    7
 10
3421.244634309292
 20
2977.3403363649932
 11
3431.244634309292
 21
2977.3403363649932
  0
LINE
  8
_0-0_1
  6
CONTINUOUS
 62
    7
 10
3439.2446343092925
 20
2977.3403363649932
 11
3449.2446343092925
 21
2977.3403363649932
  0
LINE
  8
_0-0_1
  6
CONTINUOUS
 62
    7
 10
3439.2446343092925
 20
2982.3403363649932
 11
3449.2446343092925
 21
2982.3403363649932
  0
LINE
  8
_0-0_1
  6
CONTINUOUS
 62
    7
 10
3457.2446343092915
 20
2982.3403363649932
 11
3467.2446343092915
 21
2982.3403363649932
  0
LINE
  8
_0-0_1
  6
CONTINUOUS
 62
    7
 10
3457.2446343092915
 20
2977.3403363649932
 11
3467.2446343092915
 21
2977.3403363649932
  0
LINE
  8
_0-0_1
  6
CONTINUOUS
 62
    7
 10
3475.244634309292
 20
2982.3403363649932
 11
3485.244634309292
 21
2982.3403363649932
  0
LINE
  8
_0-0_1
  6
CONTINUOUS
 62
    7
 10
3475.244634309292
 20
2977.3403363649932
 11
3485.244634309292
 21
2977.3403363649932
  0
LINE
  8
_0-0_1
  6
CONTINUOUS
 62
    7
 10
3493.244634309292
 20
2977.3403363649932
 11
3503.244634309292
 21
2977.3403363649932
  0
LINE
  8
_0-0_1
  6
CONTINUOUS
 62
    7
 10
3493.244634309292
 20
2982.3403363649932
 11
3503.244634309292
 21
2982.3403363649932
  0
LINE
  8
_0-0_1
  6
CONTINUOUS
 62
    7
 10
3511.244634309292
 20
2977.3403363649932
 11
3521.244634309292
 21
2977.3403363649932
  0
LINE
  8
_0-0_1
  6
CONTINUOUS
 62
    7
 10
3511.244634309292
 20
2982.3403363649932
 11
3521.244634309292
 21
2982.3403363649932
  0
LINE
  8
_0-0_1
  6
CONTINUOUS
 62
    7
 10
3529.2446343092915
 20
2982.3403363649932
 11
3539.2446343092915
 21
2982.3403363649932
  0
LINE
  8
_0-0_1
  6
CONTINUOUS
 62
    7
 10
3529.2446343092915
 20
2977.3403363649932
 11
3539.2446343092915
 21
2977.3403363649932
  0
LINE
  8
_0-0_1
  6
CONTINUOUS
 62
    7
 10
3547.2446343092915
 20
2977.3403363649932
 11
3557.2446343092915
 21
2977.3403363649932
  0
LINE
  8
_0-0_1
  6
CONTINUOUS
 62
    7
 10
3547.2446343092915
 20
2982.3403363649932
 11
3557.2446343092915
 21
2982.3403363649932
  0
LINE
  8
_0-0_1
  6
CONTINUOUS
 62
    7
 10
3565.244634309292
 20
2982.3403363649932
 11
3575.244634309292
 21
2982.3403363649932
  0
LINE
  8
_0-0_1
  6
CONTINUOUS
 62
    7
 10
3565.244634309292
 20
2977.3403363649932
 11
3575.244634309292
 21
2977.3403363649932
  0
LINE
  8
_0-0_1
  6
CONTINUOUS
 62
    7
 10
3583.244634309292
 20
2977.3403363649932
 11
3593.244634309292
 21
2977.3403363649932
  0
LINE
  8
_0-0_1
  6
CONTINUOUS
 62
    7
 10
3583.244634309292
 20
2982.3403363649932
 11
3593.244634309292
 21
2982.3403363649932
  0
LINE
  8
_0-0_1
  6
CONTINUOUS
 62
    7
 10
3601.2446343092915
 20
2982.3403363649932
 11
3611.2446343092915
 21
2982.3403363649932
  0
LINE
  8
_0-0_1
  6
CONTINUOUS
 62
    7
 10
3601.2446343092915
 20
2977.3403363649932
 11
3611.2446343092915
 21
2977.3403363649932
  0
LINE
  8
_0-0_1
  6
CONTINUOUS
 62
    7
 10
3619.2446343092915
 20
2982.3403363649932
 11
3629.2446343092915
 21
2982.3403363649932
  0
LINE
  8
_0-0_1
  6
CONTINUOUS
 62
    7
 10
3619.2446343092915
 20
2977.3403363649932
 11
3629.2446343092915
 21
2977.3403363649932
  0
LINE
  8
_0-0_1
  6
CONTINUOUS
 62
    7
 10
3637.2446343092915
 20
2982.3403363649932
 11
3647.2446343092915
 21
2982.3403363649932
  0
LINE
  8
_0-0_1
  6
CONTINUOUS
 62
    7
 10
3655.244634309292
 20
2982.3403363649932
 11
3665.244634309292
 21
2982.3403363649932
  0
LINE
  8
_0-0_1
  6
CONTINUOUS
 62
    7
 10
3673.244634309292
 20
2982.3403363649932
 11
3683.244634309292
 21
2982.3403363649932
  0
LINE
  8
_0-0_1
  6
CONTINUOUS
 62
    7
 10
3673.244634309292
 20
2977.3403363649932
 11
3683.244634309292
 21
2977.3403363649932
  0
LINE
  8
_0-0_1
  6
CONTINUOUS
 62
    7
 10
3637.2446343092915
 20
2977.3403363649932
 11
3647.2446343092915
 21
2977.3403363649932
  0
LINE
  8
_0-0_1
  6
CONTINUOUS
 62
    7
 10
3655.244634309292
 20
2977.3403363649932
 11
3665.244634309292
 21
2977.3403363649932
  0
LINE
  8
_0-0_1
  6
CONTINUOUS
 62
    7
 10
3691.2446343092915
 20
2977.3403363649932
 11
3701.2446343092915
 21
2977.3403363649932
  0
LINE
  8
_0-0_1
  6
CONTINUOUS
 62
    7
 10
3709.2446343092915
 20
2977.3403363649932
 11
3719.2446343092915
 21
2977.3403363649932
  0
LINE
  8
_0-0_1
  6
CONTINUOUS
 62
    7
 10
3727.2446343092915
 20
2977.3403363649932
 11
3737.2446343092915
 21
2977.3403363649932
  0
LINE
  8
_0-0_1
  6
CONTINUOUS
 62
    7
 10
3745.2446343092915
 20
2977.3403363649932
 11
3745.2446343092915
 21
2869.8403363649932
  0
LINE
  8
_0-0_1
  6
CONTINUOUS
 62
    7
 10
3755.2446343092915
 20
2977.3403363649932
 11
3755.2446343092915
 21
2869.8403363649932
  0
LINE
  8
_0-0_1
  6
CONTINUOUS
 62
    7
 10
3763.2446343092915
 20
2977.3403363649932
 11
3763.2446343092915
 21
2869.8403363649932
  0
LINE
  8
_0-0_1
  6
CONTINUOUS
 62
    7
 10
3773.2446343092915
 20
2977.3403363649932
 11
3773.2446343092915
 21
2869.8403363649932
  0
LINE
  8
_0-0_1
  6
CONTINUOUS
 62
    7
 10
3781.2446343092915
 20
2977.3403363649932
 11
3781.2446343092915
 21
2869.8403363649932
  0
LINE
  8
_0-0_1
  6
CONTINUOUS
 62
    7
 10
3791.2446343092915
 20
2977.3403363649932
 11
3791.2446343092915
 21
2869.8403363649932
  0
LINE
  8
_0-0_1
  6
CONTINUOUS
 62
    7
 10
3799.2446343092915
 20
2977.3403363649932
 11
3799.2446343092915
 21
2869.8403363649932
  0
LINE
  8
_0-0_1
  6
CONTINUOUS
 62
    7
 10
3809.2446343092915
 20
2977.3403363649932
 11
3809.2446343092915
 21
2869.8403363649932
  0
LINE
  8
_0-0_1
  6
CONTINUOUS
 62
    7
 10
3817.2446343092915
 20
2977.3403363649932
 11
3817.2446343092915
 21
2869.8403363649932
  0
LINE
  8
_0-0_1
  6
CONTINUOUS
 62
    7
 10
3827.2446343092915
 20
2977.3403363649932
 11
3827.2446343092915
 21
2869.8403363649932
  0
LINE
  8
_0-0_1
  6
CONTINUOUS
 62
    7
 10
3835.2446343092915
 20
2977.3403363649932
 11
3835.2446343092915
 21
2869.8403363649932
  0
LINE
  8
_0-0_1
  6
CONTINUOUS
 62
    7
 10
3845.2446343092915
 20
2977.3403363649932
 11
3845.2446343092915
 21
2869.8403363649932
  0
LINE
  8
_0-0_1
  6
CONTINUOUS
 62
    7
 10
3745.2446343092915
 20
2977.3403363649932
 11
3755.2446343092915
 21
2977.3403363649932
  0
LINE
  8
_0-0_1
  6
CONTINUOUS
 62
    7
 10
3763.2446343092915
 20
2977.3403363649932
 11
3773.2446343092915
 21
2977.3403363649932
  0
LINE
  8
_0-0_1
  6
CONTINUOUS
 62
    7
 10
3781.2446343092915
 20
2977.3403363649932
 11
3791.2446343092915
 21
2977.3403363649932
  0
LINE
  8
_0-0_1
  6
CONTINUOUS
 62
    7
 10
3799.2446343092915
 20
2977.3403363649932
 11
3809.2446343092915
 21
2977.3403363649932
  0
LINE
  8
_0-0_1
  6
CONTINUOUS
 62
    7
 10
3817.2446343092915
 20
2977.3403363649932
 11
3827.2446343092915
 21
2977.3403363649932
  0
LINE
  8
_0-0_1
  6
CONTINUOUS
 62
    7
 10
3835.2446343092915
 20
2977.3403363649932
 11
3845.2446343092915
 21
2977.3403363649932
  0
LINE
  8
_0-0_1
  6
CONTINUOUS
 62
    7
 10
3691.2446343092915
 20
2982.3403363649932
 11
3755.2446343092915
 21
2982.3403363649932
  0
LINE
  8
_0-0_1
  6
CONTINUOUS
 62
    7
 10
3691.2446343092915
 20
2982.3403363649932
 11
3691.2446343092915
 21
3024.8404363649934
  0
LINE
  8
_0-0_1
  6
CONTINUOUS
 62
    7
 10
3755.2446343092915
 20
2982.3403363649932
 11
3755.2446343092915
 21
3024.8404363649934
  0
LINE
  8
_0-0_1
  6
CONTINUOUS
 62
    7
 10
3763.2446343092915
 20
2982.3403363649932
 11
3763.2446343092915
 21
3024.8404363649934
  0
LINE
  8
_0-0_1
  6
CONTINUOUS
 62
    7
 10
3773.2446343092915
 20
2982.3403363649932
 11
3773.2446343092915
 21
3024.8404363649934
  0
LINE
  8
_0-0_1
  6
CONTINUOUS
 62
    7
 10
3781.2446343092915
 20
2982.3403363649932
 11
3781.2446343092915
 21
3024.8404363649934
  0
LINE
  8
_0-0_1
  6
CONTINUOUS
 62
    7
 10
3791.2446343092915
 20
2982.3403363649932
 11
3791.2446343092915
 21
3024.8404363649934
  0
LINE
  8
_0-0_1
  6
CONTINUOUS
 62
    7
 10
3799.2446343092915
 20
2982.3403363649932
 11
3799.2446343092915
 21
3024.8404363649934
  0
LINE
  8
_0-0_1
  6
CONTINUOUS
 62
    7
 10
3809.2446343092915
 20
2982.3403363649932
 11
3809.2446343092915
 21
3024.8404363649934
  0
LINE
  8
_0-0_1
  6
CONTINUOUS
 62
    7
 10
3817.2446343092915
 20
2982.3403363649932
 11
3817.2446343092915
 21
3024.8404363649934
  0
LINE
  8
_0-0_1
  6
CONTINUOUS
 62
    7
 10
3827.2446343092915
 20
2982.3403363649932
 11
3827.2446343092915
 21
3024.8404363649934
  0
LINE
  8
_0-0_1
  6
CONTINUOUS
 62
    7
 10
3835.2446343092915
 20
2982.3403363649932
 11
3835.2446343092915
 21
3024.8404363649934
  0
LINE
  8
_0-0_1
  6
CONTINUOUS
 62
    7
 10
3845.2446343092915
 20
2982.3403363649932
 11
3845.2446343092915
 21
3024.8404363649934
  0
LINE
  8
_0-0_1
  6
CONTINUOUS
 62
    7
 10
3763.2446343092915
 20
2982.3403363649932
 11
3773.2446343092915
 21
2982.3403363649932
  0
LINE
  8
_0-0_1
  6
CONTINUOUS
 62
    7
 10
3781.2446343092915
 20
2982.3403363649932
 11
3791.2446343092915
 21
2982.3403363649932
  0
LINE
  8
_0-0_1
  6
CONTINUOUS
 62
    7
 10
3799.2446343092915
 20
2982.3403363649932
 11
3809.2446343092915
 21
2982.3403363649932
  0
LINE
  8
_0-0_1
  6
CONTINUOUS
 62
    7
 10
3817.2446343092915
 20
2982.3403363649932
 11
3827.2446343092915
 21
2982.3403363649932
  0
LINE
  8
_0-0_1
  6
CONTINUOUS
 62
    7
 10
3835.2446343092915
 20
2982.3403363649932
 11
3845.2446343092915
 21
2982.3403363649932
  0
LINE
  8
_0-0_1
  6
CONTINUOUS
 62
    7
 10
3431.244634309292
 20
2752.3403363649932
 11
3431.244634309292
 21
2709.8403363649932
  0
LINE
  8
_0-0_1
  6
CONTINUOUS
 62
    7
 10
3439.2446343092925
 20
2752.3403363649932
 11
3439.2446343092925
 21
2709.8403363649932
  0
LINE
  8
_0-0_1
  6
CONTINUOUS
 62
    7
 10
3349.2446343092925
 20
2752.3403363649932
 11
3359.2446343092925
 21
2752.3403363649932
  0
LINE
  8
_0-0_1
  6
CONTINUOUS
 62
    7
 10
3349.2446343092925
 20
2757.3403363649932
 11
3359.2446343092925
 21
2757.3403363649932
  0
LINE
  8
_0-0_1
  6
CONTINUOUS
 62
    7
 10
3367.2446343092925
 20
2757.3403363649932
 11
3377.2446343092925
 21
2757.3403363649932
  0
LINE
  8
_0-0_1
  6
CONTINUOUS
 62
    7
 10
3367.2446343092925
 20
2752.3403363649932
 11
3377.2446343092925
 21
2752.3403363649932
  0
LINE
  8
_0-0_1
  6
CONTINUOUS
 62
    7
 10
3385.244634309292
 20
2757.3403363649932
 11
3395.244634309292
 21
2757.3403363649932
  0
LINE
  8
_0-0_1
  6
CONTINUOUS
 62
    7
 10
3385.244634309292
 20
2752.3403363649932
 11
3395.244634309292
 21
2752.3403363649932
  0
LINE
  8
_0-0_1
  6
CONTINUOUS
 62
    7
 10
3403.244634309292
 20
2752.3403363649932
 11
3413.244634309292
 21
2752.3403363649932
  0
LINE
  8
_0-0_1
  6
CONTINUOUS
 62
    7
 10
3403.244634309292
 20
2757.3403363649932
 11
3413.244634309292
 21
2757.3403363649932
  0
LINE
  8
_0-0_1
  6
CONTINUOUS
 62
    7
 10
3421.244634309292
 20
2752.3403363649932
 11
3431.244634309292
 21
2752.3403363649932
  0
LINE
  8
_0-0_1
  6
CONTINUOUS
 62
    7
 10
3421.244634309292
 20
2757.3403363649932
 11
3431.244634309292
 21
2757.3403363649932
  0
LINE
  8
_0-0_1
  6
CONTINUOUS
 62
    7
 10
3439.2446343092925
 20
2752.3403363649932
 11
3503.244634309292
 21
2752.3403363649932
  0
LINE
  8
_0-0_1
  6
CONTINUOUS
 62
    7
 10
3439.2446343092925
 20
2757.3403363649932
 11
3449.2446343092925
 21
2757.3403363649932
  0
LINE
  8
_0-0_1
  6
CONTINUOUS
 62
    7
 10
3457.2446343092915
 20
2757.3403363649932
 11
3467.2446343092915
 21
2757.3403363649932
  0
LINE
  8
_0-0_1
  6
CONTINUOUS
 62
    7
 10
3475.244634309292
 20
2757.3403363649932
 11
3485.244634309292
 21
2757.3403363649932
  0
LINE
  8
_0-0_1
  6
CONTINUOUS
 62
    7
 10
3493.244634309292
 20
2757.3403363649932
 11
3503.244634309292
 21
2757.3403363649932
  0
LINE
  8
_0-0_1
  6
CONTINUOUS
 62
    7
 10
3439.2446343092925
 20
2752.3403363649932
 11
3503.244634309292
 21
2752.3403363649932
  0
LINE
  8
_0-0_1
  6
CONTINUOUS
 62
    7
 10
3511.244634309292
 20
2752.3403363649932
 11
3521.244634309292
 21
2752.3403363649932
  0
LINE
  8
_0-0_1
  6
CONTINUOUS
 62
    7
 10
3511.244634309292
 20
2757.3403363649932
 11
3521.244634309292
 21
2757.3403363649932
  0
LINE
  8
_0-0_1
  6
CONTINUOUS
 62
    7
 10
3529.2446343092915
 20
2757.3403363649932
 11
3539.2446343092915
 21
2757.3403363649932
  0
LINE
  8
_0-0_1
  6
CONTINUOUS
 62
    7
 10
3529.2446343092915
 20
2752.3403363649932
 11
3539.2446343092915
 21
2752.3403363649932
  0
LINE
  8
_0-0_1
  6
CONTINUOUS
 62
    7
 10
3547.2446343092915
 20
2757.3403363649932
 11
3557.2446343092915
 21
2757.3403363649932
  0
LINE
  8
_0-0_1
  6
CONTINUOUS
 62
    7
 10
3547.2446343092915
 20
2752.3403363649932
 11
3557.2446343092915
 21
2752.3403363649932
  0
LINE
  8
_0-0_1
  6
CONTINUOUS
 62
    7
 10
3565.244634309292
 20
2757.3403363649932
 11
3575.244634309292
 21
2757.3403363649932
  0
LINE
  8
_0-0_1
  6
CONTINUOUS
 62
    7
 10
3565.244634309292
 20
2752.3403363649932
 11
3575.244634309292
 21
2752.3403363649932
  0
LINE
  8
_0-0_1
  6
CONTINUOUS
 62
    7
 10
3583.244634309292
 20
2757.3403363649932
 11
3593.244634309292
 21
2757.3403363649932
  0
LINE
  8
_0-0_1
  6
CONTINUOUS
 62
    7
 10
3583.244634309292
 20
2752.3403363649932
 11
3593.244634309292
 21
2752.3403363649932
  0
LINE
  8
_0-0_1
  6
CONTINUOUS
 62
    7
 10
3601.2446343092915
 20
2757.3403363649932
 11
3611.2446343092915
 21
2757.3403363649932
  0
LINE
  8
_0-0_1
  6
CONTINUOUS
 62
    7
 10
3601.2446343092915
 20
2752.3403363649932
 11
3611.2446343092915
 21
2752.3403363649932
  0
LINE
  8
_0-0_1
  6
CONTINUOUS
 62
    7
 10
3619.2446343092915
 20
2757.3403363649932
 11
3629.2446343092915
 21
2757.3403363649932
  0
LINE
  8
_0-0_1
  6
CONTINUOUS
 62
    7
 10
3619.2446343092915
 20
2752.3403363649932
 11
3629.2446343092915
 21
2752.3403363649932
  0
LINE
  8
_0-0_1
  6
CONTINUOUS
 62
    7
 10
3637.2446343092915
 20
2757.3403363649932
 11
3647.2446343092915
 21
2757.3403363649932
  0
LINE
  8
_0-0_1
  6
CONTINUOUS
 62
    7
 10
3637.2446343092915
 20
2752.3403363649932
 11
3647.2446343092915
 21
2752.3403363649932
  0
LINE
  8
_0-0_1
  6
CONTINUOUS
 62
    7
 10
3655.244634309292
 20
2757.3403363649932
 11
3665.244634309292
 21
2757.3403363649932
  0
LINE
  8
_0-0_1
  6
CONTINUOUS
 62
    7
 10
3655.244634309292
 20
2752.3403363649932
 11
3665.244634309292
 21
2752.3403363649932
  0
LINE
  8
_0-0_1
  6
CONTINUOUS
 62
    7
 10
3673.244634309292
 20
2752.3403363649932
 11
3683.244634309292
 21
2752.3403363649932
  0
LINE
  8
_0-0_1
  6
CONTINUOUS
 62
    7
 10
3673.244634309292
 20
2757.3403363649932
 11
3683.244634309292
 21
2757.3403363649932
  0
LINE
  8
_0-0_1
  6
CONTINUOUS
 62
    7
 10
3691.2446343092915
 20
2757.3403363649932
 11
3701.2446343092915
 21
2757.3403363649932
  0
LINE
  8
_0-0_1
  6
CONTINUOUS
 62
    7
 10
3691.2446343092915
 20
2752.3403363649932
 11
3701.2446343092915
 21
2752.3403363649932
  0
LINE
  8
_0-0_1
  6
CONTINUOUS
 62
    7
 10
3709.2446343092915
 20
2757.3403363649932
 11
3719.2446343092915
 21
2757.3403363649932
  0
LINE
  8
_0-0_1
  6
CONTINUOUS
 62
    7
 10
3709.2446343092915
 20
2752.3403363649932
 11
3719.2446343092915
 21
2752.3403363649932
  0
LINE
  8
_0-0_1
  6
CONTINUOUS
 62
    7
 10
3745.2446343092915
 20
2864.8403363649932
 11
3745.2446343092915
 21
2757.3403363649932
  0
LINE
  8
_0-0_1
  6
CONTINUOUS
 62
    7
 10
3755.2446343092915
 20
2864.8403363649932
 11
3755.2446343092915
 21
2757.3403363649932
  0
LINE
  8
_0-0_1
  6
CONTINUOUS
 62
    7
 10
3763.2446343092915
 20
2864.8403363649932
 11
3763.2446343092915
 21
2757.3403363649932
  0
LINE
  8
_0-0_1
  6
CONTINUOUS
 62
    7
 10
3773.2446343092915
 20
2864.8403363649932
 11
3773.2446343092915
 21
2757.3403363649932
  0
LINE
  8
_0-0_1
  6
CONTINUOUS
 62
    7
 10
3781.2446343092915
 20
2864.8403363649932
 11
3781.2446343092915
 21
2757.3403363649932
  0
LINE
  8
_0-0_1
  6
CONTINUOUS
 62
    7
 10
3791.2446343092915
 20
2864.8403363649932
 11
3791.2446343092915
 21
2757.3403363649932
  0
LINE
  8
_0-0_1
  6
CONTINUOUS
 62
    7
 10
3799.2446343092915
 20
2864.8403363649932
 11
3799.2446343092915
 21
2757.3403363649932
  0
LINE
  8
_0-0_1
  6
CONTINUOUS
 62
    7
 10
3809.2446343092915
 20
2864.8403363649932
 11
3809.2446343092915
 21
2757.3403363649932
  0
LINE
  8
_0-0_1
  6
CONTINUOUS
 62
    7
 10
3817.2446343092915
 20
2864.8403363649932
 11
3817.2446343092915
 21
2757.3403363649932
  0
LINE
  8
_0-0_1
  6
CONTINUOUS
 62
    7
 10
3827.2446343092915
 20
2864.8403363649932
 11
3827.2446343092915
 21
2757.3403363649932
  0
LINE
  8
_0-0_1
  6
CONTINUOUS
 62
    7
 10
3835.2446343092915
 20
2864.8403363649932
 11
3835.2446343092915
 21
2757.3403363649932
  0
LINE
  8
_0-0_1
  6
CONTINUOUS
 62
    7
 10
3845.2446343092915
 20
2864.8403363649932
 11
3845.2446343092915
 21
2757.3403363649932
  0
LINE
  8
_0-0_1
  6
CONTINUOUS
 62
    7
 10
3727.2446343092915
 20
2757.3403363649932
 11
3737.2446343092915
 21
2757.3403363649932
  0
LINE
  8
_0-0_1
  6
CONTINUOUS
 62
    7
 10
3745.2446343092915
 20
2757.3403363649932
 11
3755.2446343092915
 21
2757.3403363649932
  0
LINE
  8
_0-0_1
  6
CONTINUOUS
 62
    7
 10
3763.2446343092915
 20
2757.3403363649932
 11
3773.2446343092915
 21
2757.3403363649932
  0
LINE
  8
_0-0_1
  6
CONTINUOUS
 62
    7
 10
3781.2446343092915
 20
2757.3403363649932
 11
3791.2446343092915
 21
2757.3403363649932
  0
LINE
  8
_0-0_1
  6
CONTINUOUS
 62
    7
 10
3799.2446343092915
 20
2757.3403363649932
 11
3809.2446343092915
 21
2757.3403363649932
  0
LINE
  8
_0-0_1
  6
CONTINUOUS
 62
    7
 10
3817.2446343092915
 20
2757.3403363649932
 11
3827.2446343092915
 21
2757.3403363649932
  0
LINE
  8
_0-0_1
  6
CONTINUOUS
 62
    7
 10
3835.2446343092915
 20
2757.3403363649932
 11
3845.2446343092915
 21
2757.3403363649932
  0
LINE
  8
_0-0_1
  6
CONTINUOUS
 62
    7
 10
3849.2446343092925
 20
2757.3403363649932
 11
3849.2448343092919
 21
2757.3403363649932
  0
LINE
  8
_0-0_1
  6
CONTINUOUS
 62
    7
 10
3745.2446343092915
 20
2752.3403363649932
 11
3745.2446343092915
 21
2709.8403363649932
  0
LINE
  8
_0-0_1
  6
CONTINUOUS
 62
    7
 10
3755.2446343092915
 20
2752.3403363649932
 11
3755.2446343092915
 21
2709.8403363649932
  0
LINE
  8
_0-0_1
  6
CONTINUOUS
 62
    7
 10
3763.2446343092915
 20
2752.3403363649932
 11
3763.2446343092915
 21
2709.8403363649932
  0
LINE
  8
_0-0_1
  6
CONTINUOUS
 62
    7
 10
3773.2446343092915
 20
2752.3403363649932
 11
3773.2446343092915
 21
2709.8403363649932
  0
LINE
  8
_0-0_1
  6
CONTINUOUS
 62
    7
 10
3781.2446343092915
 20
2752.3403363649932
 11
3781.2446343092915
 21
2709.8403363649932
  0
LINE
  8
_0-0_1
  6
CONTINUOUS
 62
    7
 10
3791.2446343092915
 20
2752.3403363649932
 11
3791.2446343092915
 21
2709.8403363649932
  0
LINE
  8
_0-0_1
  6
CONTINUOUS
 62
    7
 10
3799.2446343092915
 20
2752.3403363649932
 11
3799.2446343092915
 21
2709.8403363649932
  0
LINE
  8
_0-0_1
  6
CONTINUOUS
 62
    7
 10
3809.2446343092915
 20
2752.3403363649932
 11
3809.2446343092915
 21
2709.8403363649932
  0
LINE
  8
_0-0_1
  6
CONTINUOUS
 62
    7
 10
3817.2446343092915
 20
2752.3403363649932
 11
3817.2446343092915
 21
2709.8403363649932
  0
LINE
  8
_0-0_1
  6
CONTINUOUS
 62
    7
 10
3827.2446343092915
 20
2752.3403363649932
 11
3827.2446343092915
 21
2709.8403363649932
  0
LINE
  8
_0-0_1
  6
CONTINUOUS
 62
    7
 10
3835.2446343092915
 20
2752.3403363649932
 11
3835.2446343092915
 21
2709.8403363649932
  0
LINE
  8
_0-0_1
  6
CONTINUOUS
 62
    7
 10
3845.2446343092915
 20
2752.3403363649932
 11
3845.2446343092915
 21
2709.8403363649932
  0
LINE
  8
_0-0_1
  6
CONTINUOUS
 62
    7
 10
3727.2446343092915
 20
2752.3403363649932
 11
3737.2446343092915
 21
2752.3403363649932
  0
LINE
  8
_0-0_1
  6
CONTINUOUS
 62
    7
 10
3745.2446343092915
 20
2752.3403363649932
 11
3755.2446343092915
 21
2752.3403363649932
  0
LINE
  8
_0-0_1
  6
CONTINUOUS
 62
    7
 10
3763.2446343092915
 20
2752.3403363649932
 11
3773.2446343092915
 21
2752.3403363649932
  0
LINE
  8
_0-0_1
  6
CONTINUOUS
 62
    7
 10
3781.2446343092915
 20
2752.3403363649932
 11
3791.2446343092915
 21
2752.3403363649932
  0
LINE
  8
_0-0_1
  6
CONTINUOUS
 62
    7
 10
3799.2446343092915
 20
2752.3403363649932
 11
3809.2446343092915
 21
2752.3403363649932
  0
LINE
  8
_0-0_1
  6
CONTINUOUS
 62
    7
 10
3817.2446343092915
 20
2752.3403363649932
 11
3827.2446343092915
 21
2752.3403363649932
  0
LINE
  8
_0-0_1
  6
CONTINUOUS
 62
    7
 10
3835.2446343092915
 20
2752.3403363649932
 11
3845.2446343092915
 21
2752.3403363649932
  0
LINE
  8
_0-0_1
  6
CONTINUOUS
 62
    7
 10
3349.2446343092925
 20
2869.8403363649932
 11
3359.2446343092925
 21
2869.8403363649932
  0
LINE
  8
_0-0_1
  6
CONTINUOUS
 62
    7
 10
3349.2446343092925
 20
2864.8403363649932
 11
3359.2446343092925
 21
2864.8403363649932
  0
LINE
  8
_0-0_1
  6
CONTINUOUS
 62
    7
 10
3367.2446343092925
 20
2869.8403363649932
 11
3377.2446343092925
 21
2869.8403363649932
  0
LINE
  8
_0-0_1
  6
CONTINUOUS
 62
    7
 10
3367.2446343092925
 20
2864.8403363649932
 11
3377.2446343092925
 21
2864.8403363649932
  0
LINE
  8
_0-0_1
  6
CONTINUOUS
 62
    7
 10
3385.244634309292
 20
2864.8403363649932
 11
3395.244634309292
 21
2864.8403363649932
  0
LINE
  8
_0-0_1
  6
CONTINUOUS
 62
    7
 10
3385.244634309292
 20
2869.8403363649932
 11
3395.244634309292
 21
2869.8403363649932
  0
LINE
  8
_0-0_1
  6
CONTINUOUS
 62
    7
 10
3403.244634309292
 20
2869.8403363649932
 11
3413.244634309292
 21
2869.8403363649932
  0
LINE
  8
_0-0_1
  6
CONTINUOUS
 62
    7
 10
3403.244634309292
 20
2864.8403363649932
 11
3413.244634309292
 21
2864.8403363649932
  0
LINE
  8
_0-0_1
  6
CONTINUOUS
 62
    7
 10
3421.244634309292
 20
2869.8403363649932
 11
3431.244634309292
 21
2869.8403363649932
  0
LINE
  8
_0-0_1
  6
CONTINUOUS
 62
    7
 10
3421.244634309292
 20
2864.8403363649932
 11
3431.244634309292
 21
2864.8403363649932
  0
LINE
  8
_0-0_1
  6
CONTINUOUS
 62
    7
 10
3439.2446343092925
 20
2869.8403363649932
 11
3449.2446343092925
 21
2869.8403363649932
  0
LINE
  8
_0-0_1
  6
CONTINUOUS
 62
    7
 10
3457.2446343092915
 20
2869.8403363649932
 11
3467.2446343092915
 21
2869.8403363649932
  0
LINE
  8
_0-0_1
  6
CONTINUOUS
 62
    7
 10
3475.244634309292
 20
2869.8403363649932
 11
3485.244634309292
 21
2869.8403363649932
  0
LINE
  8
_0-0_1
  6
CONTINUOUS
 62
    7
 10
3493.244634309292
 20
2977.3403363649932
 11
3493.244634309292
 21
2869.8403363649932
  0
LINE
  8
_0-0_1
  6
CONTINUOUS
 62
    7
 10
3493.244634309292
 20
2864.8403363649932
 11
3493.244634309292
 21
2757.3403363649932
  0
LINE
  8
_0-0_1
  6
CONTINUOUS
 62
    7
 10
3485.244634309292
 20
2977.3403363649932
 11
3485.244634309292
 21
2869.8403363649932
  0
LINE
  8
_0-0_1
  6
CONTINUOUS
 62
    7
 10
3485.244634309292
 20
2864.8403363649932
 11
3485.244634309292
 21
2757.3403363649932
  0
LINE
  8
_0-0_1
  6
CONTINUOUS
 62
    7
 10
3493.244634309292
 20
2869.8403363649932
 11
3503.244634309292
 21
2869.8403363649932
  0
LINE
  8
_0-0_1
  6
CONTINUOUS
 62
    7
 10
3493.244634309292
 20
2864.8403363649932
 11
3503.244634309292
 21
2864.8403363649932
  0
LINE
  8
_0-0_1
  6
CONTINUOUS
 62
    7
 10
3475.244634309292
 20
2864.8403363649932
 11
3485.244634309292
 21
2864.8403363649932
  0
LINE
  8
_0-0_1
  6
CONTINUOUS
 62
    7
 10
3439.2446343092925
 20
2864.8403363649932
 11
3449.2446343092925
 21
2864.8403363649932
  0
LINE
  8
_0-0_1
  6
CONTINUOUS
 62
    7
 10
3457.2446343092915
 20
2864.8403363649932
 11
3467.2446343092915
 21
2864.8403363649932
  0
LINE
  8
_0-0_1
  6
CONTINUOUS
 62
    7
 10
3511.244634309292
 20
2864.8403363649932
 11
3521.244634309292
 21
2864.8403363649932
  0
LINE
  8
_0-0_1
  6
CONTINUOUS
 62
    7
 10
3511.244634309292
 20
2869.8403363649932
 11
3521.244634309292
 21
2869.8403363649932
  0
LINE
  8
_0-0_1
  6
CONTINUOUS
 62
    7
 10
3529.2446343092915
 20
2869.8403363649932
 11
3539.2446343092915
 21
2869.8403363649932
  0
LINE
  8
_0-0_1
  6
CONTINUOUS
 62
    7
 10
3547.2446343092915
 20
2869.8403363649932
 11
3557.2446343092915
 21
2869.8403363649932
  0
LINE
  8
_0-0_1
  6
CONTINUOUS
 62
    7
 10
3565.244634309292
 20
2869.8403363649932
 11
3575.244634309292
 21
2869.8403363649932
  0
LINE
  8
_0-0_1
  6
CONTINUOUS
 62
    7
 10
3565.244634309292
 20
2864.8403363649932
 11
3575.244634309292
 21
2864.8403363649932
  0
LINE
  8
_0-0_1
  6
CONTINUOUS
 62
    7
 10
3529.2446343092915
 20
2864.8403363649932
 11
3539.2446343092915
 21
2864.8403363649932
  0
LINE
  8
_0-0_1
  6
CONTINUOUS
 62
    7
 10
3547.2446343092915
 20
2864.8403363649932
 11
3557.2446343092915
 21
2864.8403363649932
  0
LINE
  8
_0-0_1
  6
CONTINUOUS
 62
    7
 10
3583.244634309292
 20
2864.8403363649932
 11
3593.244634309292
 21
2864.8403363649932
  0
LINE
  8
_0-0_1
  6
CONTINUOUS
 62
    7
 10
3601.2446343092915
 20
2864.8403363649932
 11
3611.2446343092915
 21
2864.8403363649932
  0
LINE
  8
_0-0_1
  6
CONTINUOUS
 62
    7
 10
3619.2446343092915
 20
2864.8403363649932
 11
3629.2446343092915
 21
2864.8403363649932
  0
LINE
  8
_0-0_1
  6
CONTINUOUS
 62
    7
 10
3637.2446343092915
 20
2864.8403363649932
 11
3647.2446343092915
 21
2864.8403363649932
  0
LINE
  8
_0-0_1
  6
CONTINUOUS
 62
    7
 10
3655.244634309292
 20
2864.8403363649932
 11
3665.244634309292
 21
2864.8403363649932
  0
LINE
  8
_0-0_1
  6
CONTINUOUS
 62
    7
 10
3673.244634309292
 20
2864.8403363649932
 11
3683.244634309292
 21
2864.8403363649932
  0
LINE
  8
_0-0_1
  6
CONTINUOUS
 62
    7
 10
3691.2446343092915
 20
2864.8403363649932
 11
3701.2446343092915
 21
2864.8403363649932
  0
LINE
  8
_0-0_1
  6
CONTINUOUS
 62
    7
 10
3709.2446343092915
 20
2864.8403363649932
 11
3719.2446343092915
 21
2864.8403363649932
  0
LINE
  8
_0-0_1
  6
CONTINUOUS
 62
    7
 10
3709.2446343092915
 20
2869.8403363649932
 11
3719.2446343092915
 21
2869.8403363649932
  0
LINE
  8
_0-0_1
  6
CONTINUOUS
 62
    7
 10
3583.244634309292
 20
2869.8403363649932
 11
3593.244634309292
 21
2869.8403363649932
  0
LINE
  8
_0-0_1
  6
CONTINUOUS
 62
    7
 10
3601.2446343092915
 20
2869.8403363649932
 11
3611.2446343092915
 21
2869.8403363649932
  0
LINE
  8
_0-0_1
  6
CONTINUOUS
 62
    7
 10
3619.2446343092915
 20
2869.8403363649932
 11
3629.2446343092915
 21
2869.8403363649932
  0
LINE
  8
_0-0_1
  6
CONTINUOUS
 62
    7
 10
3637.2446343092915
 20
2869.8403363649932
 11
3647.2446343092915
 21
2869.8403363649932
  0
LINE
  8
_0-0_1
  6
CONTINUOUS
 62
    7
 10
3655.244634309292
 20
2869.8403363649932
 11
3665.244634309292
 21
2869.8403363649932
  0
LINE
  8
_0-0_1
  6
CONTINUOUS
 62
    7
 10
3673.244634309292
 20
2869.8403363649932
 11
3683.244634309292
 21
2869.8403363649932
  0
LINE
  8
_0-0_1
  6
CONTINUOUS
 62
    7
 10
3691.2446343092915
 20
2869.8403363649932
 11
3701.2446343092915
 21
2869.8403363649932
  0
LINE
  8
_0-0_1
  6
CONTINUOUS
 62
    7
 10
3727.2446343092915
 20
2864.8403363649932
 11
3737.2446343092915
 21
2864.8403363649932
  0
LINE
  8
_0-0_1
  6
CONTINUOUS
 62
    7
 10
3745.2446343092915
 20
2864.8403363649932
 11
3755.2446343092915
 21
2864.8403363649932
  0
LINE
  8
_0-0_1
  6
CONTINUOUS
 62
    7
 10
3763.2446343092915
 20
2864.8403363649932
 11
3773.2446343092915
 21
2864.8403363649932
  0
LINE
  8
_0-0_1
  6
CONTINUOUS
 62
    7
 10
3781.2446343092915
 20
2864.8403363649932
 11
3791.2446343092915
 21
2864.8403363649932
  0
LINE
  8
_0-0_1
  6
CONTINUOUS
 62
    7
 10
3799.2446343092915
 20
2864.8403363649932
 11
3809.2446343092915
 21
2864.8403363649932
  0
LINE
  8
_0-0_1
  6
CONTINUOUS
 62
    7
 10
3817.2446343092915
 20
2864.8403363649932
 11
3827.2446343092915
 21
2864.8403363649932
  0
LINE
  8
_0-0_1
  6
CONTINUOUS
 62
    7
 10
3817.2446343092915
 20
2869.8403363649932
 11
3827.2446343092915
 21
2869.8403363649932
  0
LINE
  8
_0-0_1
  6
CONTINUOUS
 62
    7
 10
3799.2446343092915
 20
2869.8403363649932
 11
3809.2446343092915
 21
2869.8403363649932
  0
LINE
  8
_0-0_1
  6
CONTINUOUS
 62
    7
 10
3781.2446343092915
 20
2869.8403363649932
 11
3791.2446343092915
 21
2869.8403363649932
  0
LINE
  8
_0-0_1
  6
CONTINUOUS
 62
    7
 10
3763.2446343092915
 20
2869.8403363649932
 11
3773.2446343092915
 21
2869.8403363649932
  0
LINE
  8
_0-0_1
  6
CONTINUOUS
 62
    7
 10
3727.2446343092915
 20
2869.8403363649932
 11
3737.2446343092915
 21
2869.8403363649932
  0
LINE
  8
_0-0_1
  6
CONTINUOUS
 62
    7
 10
3745.2446343092915
 20
2869.8403363649932
 11
3755.2446343092915
 21
2869.8403363649932
  0
LINE
  8
_0-0_1
  6
CONTINUOUS
 62
    7
 10
3835.2446343092915
 20
2869.8403363649932
 11
3845.2446343092915
 21
2869.8403363649932
  0
LINE
  8
_0-0_1
  6
CONTINUOUS
 62
    7
 10
3849.2446343092925
 20
2869.8403363649932
 11
3849.2448343092919
 21
2869.8403363649932
  0
LINE
  8
_0-0_1
  6
CONTINUOUS
 62
    7
 10
3835.2446343092915
 20
2864.8403363649932
 11
3845.2446343092915
 21
2864.8403363649932
  0
LINE
  8
_0-0_1
  6
CONTINUOUS
 62
    7
 10
3849.2446343092925
 20
2864.8403363649932
 11
3849.2448343092919
 21
2864.8403363649932
  0
CIRCLE
  8
_0-0_1
  6
CONTINUOUS
 62
    7
 10
3723.244634309292
 20
3003.5903863649937
 40
10
  0
CIRCLE
  8
_0-0_1
  6
CONTINUOUS
 62
    7
 10
3471.244634309292
 20
2731.0903363649932
 40
10
  0
LINE
  8
_0-0_1
  6
CONTINUOUS
 62
    7
 10
3439.2446343092925
 20
2747.3403363649932
 11
3503.244634309292
 21
2747.3403363649932
  0
LINE
  8
_0-0_1
  6
CONTINUOUS
 62
    7
 10
3439.2446343092925
 20
2714.8403363649932
 11
3503.244634309292
 21
2714.8403363649932
  0
LINE
  8
_0-0_1
  6
CONTINUOUS
 62
    7
 10
3691.2446343092915
 20
2987.3403363649932
 11
3755.2446343092915
 21
2987.3403363649932
  0
LINE
  8
_0-0_1
  6
CONTINUOUS
 62
    7
 10
3691.2446343092915
 20
3019.8404363649934
 11
3755.2446343092915
 21
3019.8404363649934
  0
LINE
  8
_0-0_1
  6
CONTINUOUS
 62
    7
 10
3099.244834309291
 20
3077.3404363649929
 11
3099.244834309291
 21
2657.3404363649934
  0
LINE
  8
_0-0_1
  6
CONTINUOUS
 62
    7
 10
3099.244834309291
 20
2857.3404363649929
 11
3344.7447343092917
 21
2857.3404363649929
  0
LINE
  8
_0-0_1
  6
CONTINUOUS
 62
    7
 10
3099.244834309291
 20
2877.3402363649934
 11
3344.7447343092917
 21
2877.3402363649934
  0
LINE
  8
_0-0_1
  6
CONTINUOUS
 62
    7
 10
3853.7445343092913
 20
2857.3404363649929
 11
4099.2446343092906
 21
2857.3404363649929
  0
LINE
  8
_0-0_1
  6
CONTINUOUS
 62
    7
 10
3853.7445343092913
 20
2877.3402363649934
 11
4099.2446343092906
 21
2877.3402363649934
  0
LINE
  8
_0-0_1
  6
CONTINUOUS
 62
    7
 10
3099.244834309291
 20
3077.3404363649929
 11
4099.2446343092906
 21
3077.3404363649929
  0
LINE
  8
_0-0_1
  6
CONTINUOUS
 62
    7
 10
3099.244834309291
 20
2657.3404363649934
 11
4099.2446343092906
 21
2657.3404363649934
  0
LINE
  8
_0-0_1
  6
CONTINUOUS
 62
    7
 10
4099.2446343092906
 20
2657.3404363649934
 11
4099.2446343092906
 21
3077.3404363649929
  0
ENDSEC
  0
EOF
