  0
SECTION
  2
HEADER
  9
$ACADVER
  1
AC1009
  9
$INSBASE
 10
0
 20
0
 30
0
  9
$EXTMIN
 10
0
 20
0
  9
$EXTMAX
 10
4200
 20
2970
  9
$LIMMIN
 10
0
 20
0
  9
$LIMMAX
 10
4200
 20
2970
  9
$LTSCALE
 40
10
  0
ENDSEC
  0
SECTION
  2
TABLES
  0
TABLE
  2
LTYPE
 70
     9
  0
LTYPE
  2
CONTINUOUS
 70
    64
  3
実線
 72
    65
 73
     0
 40
0.0
  0
LTYPE
  2
DASHED1
 70
    64
  3
--  --  --  --  --  --  --  --  
 72
    65
 73
     2
 40
2.5
 49
1.25
 49
-1.25
  0
LTYPE
  2
DASHED2
 70
    64
  3
----    ----    ----    ----    
 72
    65
 73
     2
 40
5.0
 49
2.5
 49
-2.5
  0
LTYPE
  2
DASHED3
 70
    64
  3
------  ------  ------  ------  
 72
    65
 73
     2
 40
5.0
 49
3.75
 49
-1.25
  0
LTYPE
  2
CENTER1
 70
    64
  3
----- - ----- - ----- - ----- - 
 72
    65
 73
     4
 40
10.0
 49
6.25
 49
-1.25
 49
1.25
 49
-1.25
  0
LTYPE
  2
CENTER2
 70
    64
  3
----------  --  ----------  --  
 72
    65
 73
     4
 40
20.0
 49
12.5
 49
-2.5
 49
2.5
 49
-2.5
  0
LTYPE
  2
PHANTOM1
 70
    64
  3
--- - - --- - - --- - - --- - - 
 72
    65
 73
     6
 40
10.0
 49
3.25
 49
-1.25
 49
1.25
 49
-1.25
 49
1.25
 49
-1.25
  0
LTYPE
  2
PHANTOM2
 70
    64
  3
--------  -  -  --------  -  -  
 72
    65
 73
     6
 40
20.0
 49
10.0
 49
-2.5
 49
1.25
 49
-2.5
 49
1.25
 49
-2.5
  0
LTYPE
  2
DOT
 70
    64
  3
-   -   -   -   -   -   -   -   
 72
    65
 73
     2
 40
2.5
 49
0.625
 49
-1.875
  0
LTYPE
  2
DUMMY
 70
    64
  3
ダミー
 72
    65
 73
     0
 40
0.0
  0
LTYPE
  2
RAND1
 70
    64
  3
ランダム線1
 72
    65
 73
     4
 40
10.0
 49
1.0
 49
-2.0
 49
3.0
 49
-4.0
  0
LTYPE
  2
RAND2
 70
    64
  3
ランダム線2
 72
    65
 73
     4
 40
14.0
 49
2.0
 49
-3.0
 49
4.0
 49
-5.0
  0
LTYPE
  2
RAND3
 70
    64
  3
ランダム線3
 72
    65
 73
     4
 40
18.0
 49
3.0
 49
-4.0
 49
5.0
 49
-6.0
  0
LTYPE
  2
RAND4
 70
    64
  3
ランダム線4
 72
    65
 73
     4
 40
22.0
 49
4.0
 49
-5.0
 49
6.0
 49
-7.0
  0
LTYPE
  2
RAND5
 70
    64
  3
ランダム線5
 72
    65
 73
     4
 40
26.0
 49
5.0
 49
-6.0
 49
7.0
 49
-8.0
  0
LTYPE
  2
LONG1
 70
    64
  3
----------  --  ----------  --  
 72
    65
 73
     4
 40
40.0
 49
32.5
 49
-2.5
 49
2.5
 49
-2.5
  0
LTYPE
  2
LONG2
 70
    64
  3
--------  -  -  --------  -  -  
 72
    65
 73
     6
 40
40.0
 49
30.0
 49
-2.5
 49
1.25
 49
-2.5
 49
1.25
 49
-2.5
  0
LTYPE
  2
LONG3
 70
    64
  3
+++++++++++++++..+++++++++++++++
 72
    65
 73
     2
 40
40.0
 49
37.5
 49
-2.5
  0
LTYPE
  2
LONG4
 70
    64
  3
+++++++++++++++..+++++++++++++++
 72
    65
 73
     2
 40
80.0
 49
75.0
 49
-5.0
  0
LTYPE
  2
LONG5
 70
    64
  3
----------  --  ----------  --  
 72
    65
 73
     4
 40
60.0
 49
37.5
 49
-7.5
 49
7.5
 49
-7.5
  0
LTYPE
  2
dashed
 70
   64
  3
-------   -------------   ------
 72
   65
 73
    2
 40
7.5
 49
6
 49
-1.5
  0
LTYPE
  2
dashed_spaced
 70
   64
  3
----        --------        ----
 72
   65
 73
    2
 40
12
 49
6
 49
-6
  0
LTYPE
  2
long_dashed_dotted
 70
   64
  3
------------- --- --------------
 72
   65
 73
    4
 40
15.25
 49
12
 49
-1.5
 49
0.25
 49
-1.5
  0
LTYPE
  2
long_dashed_double-dotted
 70
   64
  3
----------- --- --- ------------
 72
   65
 73
    6
 40
17
 49
12
 49
-1.5
 49
0.25
 49
-1.5
 49
0.25
 49
-1.5
  0
LTYPE
  2
long_dashed_triplicate-dotted
 70
   64
  3
--------- --- --- --- ----------
 72
   65
 73
    8
 40
18.75
 49
12
 49
-1.5
 49
0.25
 49
-1.5
 49
0.25
 49
-1.5
 49
0.25
 49
-1.5
  0
LTYPE
  2
dotted
 70
   64
  3
   -       -       -       -    
 72
   65
 73
    2
 40
1.75
 49
0.25
 49
-1.5
  0
LTYPE
  2
chain
 70
   64
  3
-------------- -- --------------
 72
   65
 73
    4
 40
18.5
 49
12
 49
-1.5
 49
3.5
 49
-1.5
  0
LTYPE
  2
chain_double_dash
 70
   64
  3
------------ -- -- -------------
 72
   65
 73
    6
 40
23.5
 49
12
 49
-1.5
 49
3.5
 49
-1.5
 49
3.5
 49
-1.5
  0
LTYPE
  2
dashed_dotted
 70
   64
  3
-----------     -     ----------
 72
   65
 73
    4
 40
9.25
 49
6
 49
-1.5
 49
0.25
 49
-1.5
  0
LTYPE
  2
double-dashed_dotted
 70
   64
  3
------   -----------   -   -----
 72
   65
 73
    6
 40
16.75
 49
6
 49
-1.5
 49
6
 49
-1.5
 49
0.25
 49
-1.5
  0
LTYPE
  2
dashed_double-dotted
 70
   64
  3
---------    -    -    ---------
 72
   65
 73
    6
 40
11
 49
6
 49
-1.5
 49
0.25
 49
-1.5
 49
0.25
 49
-1.5
  0
LTYPE
  2
double-dashed_double-dotted
 70
   64
  3
-----   ---------   -   -   ----
 72
   65
 73
    8
 40
18.5
 49
6
 49
-1.5
 49
6
 49
-1.5
 49
0.25
 49
-1.5
 49
0.25
 49
-1.5
  0
LTYPE
  2
dashed_triplicate-dotted
 70
   64
  3
-------    -    -    -    ------
 72
   65
 73
    8
 40
12.75
 49
6
 49
-1.5
 49
0.25
 49
-1.5
 49
0.25
 49
-1.5
 49
0.25
 49
-1.5
  0
LTYPE
  2
double-dashed_triplicate-dotted
 70
   64
  3
-----  ---------  -  -  -  -----
 72
   65
 73
   10
 40
20.25
 49
6
 49
-1.5
 49
6
 49
-1.5
 49
0.25
 49
-1.5
 49
0.25
 49
-1.5
 49
0.25
 49
-1.5
  0
LTYPE
  2
undefined
 70
   64
  3
--------------------------------
 72
   65
 73
    0
 40
0
  0
ENDTAB
  0
TABLE
  2
STYLE
  5
3
100
AcDbSymbolTable
 70
     1
  0
STYLE
  5
10
100
AcDbSymbolTableRecord
100
AcDbTextStyleTableRecord
  2
STANDARD
 70
     0
 40
0.0
 41
1.0
 50
0.0
 71
     0
 42
0.2
  3
txt
  4
bigfont.shx
  0
STYLE
  5
26
100
AcDbSymbolTableRecord
100
AcDbTextStyleTableRecord
  2
TATEGAKI
 70
    68
 40
0.0
 41
1.0
 50
0.0
 71
     0
 42
1.0
  3
txt
  4
bigfont.shx
  0
ENDTAB
  0
TABLE
  2
LAYER
 70
    2
  0
LAYER
  2
_0-0_通り芯
 70
   64
 62
    7
  6
CONTINUOUS
  0
LAYER
  2
ADD_LINE
 70
   64
 62
    7
  6
CONTINUOUS
  0
ENDTAB
  0
ENDSEC
  0
SECTION
  2
BLOCKS
  0
ENDSEC
  0
SECTION
  2
ENTITIES
  0
LINE
  8
_0-0_通り芯
  6
CONTINUOUS
 62
    7
 10
750.00012000000027
 20
541.89191000000005
 11
750.00012000000027
 21
2441.8917999999999
  0
LINE
  8
_0-0_通り芯
  6
CONTINUOUS
 62
    7
 10
750.00012000000027
 20
2441.8917999999999
 11
3450
 21
2441.8917999999999
  0
LINE
  8
_0-0_通り芯
  6
CONTINUOUS
 62
    7
 10
3450
 20
2441.8917999999999
 11
3450
 21
541.89191000000005
  0
LINE
  8
_0-0_通り芯
  6
CONTINUOUS
 62
    7
 10
3450
 20
541.89191000000005
 11
750.00012000000027
 21
541.89191000000005
  0
LINE
  8
_0-0_通り芯
  6
CONTINUOUS
 62
    7
 10
3450
 20
641.89193
 11
750
 21
641.89193
  0
LINE
  8
_0-0_通り芯
  6
CONTINUOUS
 62
    7
 10
900.00012000000015
 20
541.89191000000005
 11
900.00012000000015
 21
641.89193
  0
LINE
  8
_0-0_通り芯
  6
CONTINUOUS
 62
    7
 10
1640
 20
541.89191000000005
 11
1640
 21
641.89193
  0
LINE
  8
_0-0_通り芯
  6
CONTINUOUS
 62
    7
 10
1790
 20
541.89191000000005
 11
1790
 21
641.89193
  0
LINE
  8
_0-0_通り芯
  6
CONTINUOUS
 62
    7
 10
2070
 20
541.89191000000005
 11
2070
 21
641.89193
  0
LINE
  8
_0-0_通り芯
  6
CONTINUOUS
 62
    7
 10
2220.0001000000002
 20
541.89191000000005
 11
2220.0001000000002
 21
641.89193
  0
LINE
  8
_0-0_通り芯
  6
CONTINUOUS
 62
    7
 10
2370.0001000000002
 20
541.89191000000005
 11
2370.0001000000002
 21
641.89193
  0
LINE
  8
_0-0_通り芯
  6
CONTINUOUS
 62
    7
 10
2570
 20
541.89191000000005
 11
2570
 21
641.89193
  0
LINE
  8
_0-0_通り芯
  6
CONTINUOUS
 62
    7
 10
2739.9998000000001
 20
541.89191000000005
 11
2739.9998000000001
 21
641.89193
  0
TEXT
  8
_0-0_通り芯
 62
    7
 10
1653.7943585077344
 20
564.24509294163522
 40
40
 41
1
 50
0
  1
分　類
  0
TEXT
  8
_0-0_通り芯
 62
    7
 10
2082.4608410243077
 20
562.66329780319779
 40
40
 41
1
 50
0
  1
図　番
  0
TEXT
  8
_0-0_通り芯
 62
    7
 10
2384.5837124658779
 20
561.08150266476036
 40
40
 41
1
 50
0
  1
参考重量
  0
TEXT
  8
_0-0_通り芯
 62
    7
 10
2770.5417262446376
 20
564.24509294163522
 40
50
 41
1
 50
0
  1
岩城ブロック工業株式会社
  0
LINE
  8
_0-0_通り芯
  6
CONTINUOUS
 62
    7
 10
1350.7494999999999
 20
1666.8918000000003
 11
3350.7494999999999
 21
1666.8918000000003
  0
LINE
  8
_0-0_通り芯
  6
CONTINUOUS
 62
    7
 10
1380.7494999999999
 20
1381.8918000000003
 11
1390.7494999999999
 21
1366.8918000000003
  0
LINE
  8
_0-0_通り芯
  6
CONTINUOUS
 62
    7
 10
3320.7494999999999
 20
1381.8918000000003
 11
3310.7494999999999
 21
1366.8918000000003
  0
LINE
  8
_0-0_通り芯
  6
CONTINUOUS
 62
    7
 10
1350.7494999999999
 20
1381.8918000000003
 11
1380.7494999999999
 21
1381.8918000000003
  0
LINE
  8
_0-0_通り芯
  6
CONTINUOUS
 62
    7
 10
3320.7494999999999
 20
1381.8918000000003
 11
3350.7494999999999
 21
1381.8918000000003
  0
LINE
  8
_0-0_通り芯
  6
CONTINUOUS
 62
    7
 10
1350.7494999999999
 20
1666.8918000000003
 11
1350.7494999999999
 21
1381.8918000000003
  0
LINE
  8
_0-0_通り芯
  6
CONTINUOUS
 62
    7
 10
1390.7494999999999
 20
1366.8918000000003
 11
3310.7494999999999
 21
1366.8918000000003
  0
LINE
  8
_0-0_通り芯
  6
CONTINUOUS
 62
    7
 10
3350.7494999999999
 20
1666.8918000000003
 11
3350.7494999999999
 21
1381.8918000000003
  0
ARC
  8
_0-0_通り芯
  6
CONTINUOUS
 62
    7
 10
1067.368568043501
 20
1637.8957509658139
 40
30
 50
90
 51
174.87392078490385
  0
ARC
  8
_0-0_通り芯
  6
CONTINUOUS
 62
    7
 10
1187.6568031920829
 20
1637.8957509658139
 40
30
 50
5.1260792150961079
 51
89.999999999999929
  0
LINE
  8
_0-0_通り芯
  6
CONTINUOUS
 62
    7
 10
1067.368568043501
 20
1667.8957509658139
 11
1127.5126856177919
 21
1667.8957509658139
  0
LINE
  8
_0-0_通り芯
  6
CONTINUOUS
 62
    7
 10
1187.6568031920829
 20
1667.8957509658139
 11
1127.5126856177919
 21
1667.8957509658139
  0
LINE
  8
_0-0_通り芯
  6
CONTINUOUS
 62
    7
 10
963.1039697382289
 20
1374.0579702757873
 11
962.53749966674195
 21
1368.393269560919
  0
LINE
  8
_0-0_通り芯
  6
CONTINUOUS
 62
    7
 10
1287.5376234283524
 20
1417.8957509658139
 11
1292.5376234283524
 21
1367.8957509658139
  0
LINE
  8
_0-0_通り芯
  6
CONTINUOUS
 62
    7
 10
967.48774780723147
 20
1417.8957509658139
 11
962.48774780723147
 21
1367.8957509658139
  0
LINE
  8
_0-0_通り芯
  6
CONTINUOUS
 62
    7
 10
962.48774780723147
 20
1367.8957509658139
 11
1292.5376234283524
 21
1367.8957509658139
  0
LINE
  8
_0-0_通り芯
  6
CONTINUOUS
 62
    7
 10
1037.4885530321362
 20
1640.5761805807458
 11
1012.4926078185356
 21
1417.8957509658139
  0
LINE
  8
_0-0_通り芯
  6
CONTINUOUS
 62
    7
 10
1217.5368182034479
 20
1640.5761805807458
 11
1242.5327634170483
 21
1417.8957509658139
  0
LINE
  8
_0-0_通り芯
  6
CONTINUOUS
 62
    7
 10
1037.4885530321362
 20
1768.3097637046671
 11
1217.5368182034479
 21
1768.3097637046671
  0
POINT
  8
_0-0_通り芯
 62
    7
 10
1037.4885530321362
 20
1768.3097637046671
  0
POINT
  8
_0-0_通り芯
 62
    7
 10
1217.5368182034479
 20
1768.3097637046671
  0
LINE
  8
_0-0_通り芯
  6
CONTINUOUS
 62
    7
 10
1037.4885530321362
 20
1768.3097637046671
 11
1037.4885530321362
 21
1702.0995726218646
  0
LINE
  8
_0-0_通り芯
  6
CONTINUOUS
 62
    7
 10
1217.5368182034479
 20
1768.3097637046671
 11
1217.5368182034479
 21
1702.0995726218646
  0
TEXT
  8
_0-0_通り芯
 62
    7
 10
1102.5126856177919
 20
1768.3097637046671
 40
30
 41
1
 50
0
  1
180
  0
LINE
  8
_0-0_通り芯
  6
CONTINUOUS
 62
    7
 10
962.48774780723147
 20
1457.8221450903425
 11
967.48774780723147
 21
1457.8221450903425
  0
POINT
  8
_0-0_通り芯
 62
    7
 10
962.48774780723147
 20
1457.8221450903425
  0
POINT
  8
_0-0_通り芯
 62
    7
 10
967.48774780723147
 20
1457.8221450903425
  0
LINE
  8
_0-0_通り芯
  6
CONTINUOUS
 62
    7
 10
962.48774780723147
 20
1457.8221450903425
 11
962.48774780723147
 21
1434.6224830599253
  0
LINE
  8
_0-0_通り芯
  6
CONTINUOUS
 62
    7
 10
967.48774780723147
 20
1457.8221450903425
 11
967.48774780723147
 21
1434.6224830599253
  0
LINE
  8
_0-0_通り芯
  6
CONTINUOUS
 62
    7
 10
967.48774780723147
 20
1457.8221450903425
 11
1012.4926078185356
 21
1457.8221450903425
  0
POINT
  8
_0-0_通り芯
 62
    7
 10
1012.4926078185356
 20
1457.8221450903425
  0
LINE
  8
_0-0_通り芯
  6
CONTINUOUS
 62
    7
 10
1012.4926078185356
 20
1457.8221450903425
 11
1012.4926078185356
 21
1434.6224830599253
  0
TEXT
  8
_0-0_通り芯
 62
    7
 10
973.74017781288353
 20
1457.8221450903425
 40
30
 41
1
 50
0
  1
45
  0
LINE
  8
_0-0_通り芯
  6
CONTINUOUS
 62
    7
 10
962.53749966674195
 20
1522.1484807201359
 11
1012.4926078185356
 21
1522.1484807201359
  0
POINT
  8
_0-0_通り芯
 62
    7
 10
962.53749966674195
 20
1522.1484807201359
  0
POINT
  8
_0-0_通り芯
 62
    7
 10
1012.4926078185356
 20
1522.1484807201359
  0
LINE
  8
_0-0_通り芯
  6
CONTINUOUS
 62
    7
 10
962.53749966674195
 20
1522.1484807201359
 11
962.53749966674195
 21
1457.8221450903425
  0
LINE
  8
_0-0_通り芯
  6
CONTINUOUS
 62
    7
 10
1012.4926078185356
 20
1522.1484807201359
 11
1012.4926078185356
 21
1457.8221450903425
  0
LINE
  8
_0-0_通り芯
  6
CONTINUOUS
 62
    7
 10
962.48774780723147
 20
1457.8221450903425
 11
913.77812172854192
 21
1457.8221450903425
  0
LINE
  8
_0-0_通り芯
  6
CONTINUOUS
 62
    7
 10
962.48774780723147
 20
1457.8221450903425
 11
953.82749376938705
 21
1462.8221450903425
  0
LINE
  8
_0-0_通り芯
  6
CONTINUOUS
 62
    7
 10
962.48774780723147
 20
1457.8221450903425
 11
953.82749376938705
 21
1452.8221450903427
  0
TEXT
  8
_0-0_通り芯
 62
    7
 10
916.41444695927112
 20
1457.8221450903425
 40
30
 41
1
 50
0
  1
5
  0
LINE
  8
_0-0_通り芯
  6
CONTINUOUS
 62
    7
 10
865.79700252926978
 20
1367.8957509658139
 11
865.79700252926978
 21
1417.8957509658139
  0
POINT
  8
_0-0_通り芯
 62
    7
 10
865.79700252926978
 20
1367.8957509658139
  0
POINT
  8
_0-0_通り芯
 62
    7
 10
865.79700252926978
 20
1417.8957509658139
  0
LINE
  8
_0-0_通り芯
  6
CONTINUOUS
 62
    7
 10
865.79700252926978
 20
1367.8957509658139
 11
889.52392960583302
 21
1367.8957509658139
  0
LINE
  8
_0-0_通り芯
  6
CONTINUOUS
 62
    7
 10
865.79700252926978
 20
1417.8957509658139
 11
889.52392960583302
 21
1417.8957509658139
  0
TEXT
  8
_0-0_通り芯
 62
    7
 10
865.79700252926978
 20
1376.6457509658139
 40
30
 41
1
 50
90
  1
50
  0
LINE
  8
_0-0_通り芯
  6
CONTINUOUS
 62
    7
 10
865.79700252926978
 20
1417.8957509658139
 11
865.79700252926978
 21
1667.8957509658139
  0
POINT
  8
_0-0_通り芯
 62
    7
 10
865.79700252926978
 20
1667.8957509658139
  0
LINE
  8
_0-0_通り芯
  6
CONTINUOUS
 62
    7
 10
865.79700252926978
 20
1667.8957509658139
 11
889.52392960583302
 21
1667.8957509658139
  0
TEXT
  8
_0-0_通り芯
 62
    7
 10
865.79700252926978
 20
1517.8957509658139
 40
30
 41
1
 50
90
  1
250
  0
LINE
  8
_0-0_通り芯
  6
CONTINUOUS
 62
    7
 10
803.05246203791398
 20
1367.8957509658139
 11
803.05246203791398
 21
1667.8957509658139
  0
POINT
  8
_0-0_通り芯
 62
    7
 10
803.05246203791398
 20
1367.8957509658139
  0
POINT
  8
_0-0_通り芯
 62
    7
 10
803.05246203791398
 20
1667.8957509658139
  0
LINE
  8
_0-0_通り芯
  6
CONTINUOUS
 62
    7
 10
803.05246203791398
 20
1367.8957509658139
 11
865.79700252926978
 21
1367.8957509658139
  0
LINE
  8
_0-0_通り芯
  6
CONTINUOUS
 62
    7
 10
803.05246203791398
 20
1667.8957509658139
 11
865.79700252926978
 21
1667.8957509658139
  0
TEXT
  8
_0-0_通り芯
 62
    7
 10
803.05246203791398
 20
1492.8957509658139
 40
30
 41
1
 50
90
  1
300
  0
LINE
  8
_0-0_通り芯
  6
CONTINUOUS
 62
    7
 10
962.53749966674195
 20
1304.388016661901
 11
1012.4926078185356
 21
1304.388016661901
  0
POINT
  8
_0-0_通り芯
 62
    7
 10
962.53749966674195
 20
1304.388016661901
  0
POINT
  8
_0-0_通り芯
 62
    7
 10
1012.4926078185356
 20
1304.388016661901
  0
LINE
  8
_0-0_通り芯
  6
CONTINUOUS
 62
    7
 10
962.53749966674195
 20
1304.388016661901
 11
962.53749966674195
 21
1342.351099984402
  0
LINE
  8
_0-0_通り芯
  6
CONTINUOUS
 62
    7
 10
1012.4926078185356
 20
1304.388016661901
 11
1012.4926078185356
 21
1342.351099984402
  0
TEXT
  8
_0-0_通り芯
 62
    7
 10
971.26505374263866
 20
1304.388016661901
 40
30
 41
1
 50
0
  1
50
  0
LINE
  8
_0-0_通り芯
  6
CONTINUOUS
 62
    7
 10
1012.4926078185356
 20
1304.388016661901
 11
1242.5327634170483
 21
1304.388016661901
  0
POINT
  8
_0-0_通り芯
 62
    7
 10
1242.5327634170483
 20
1304.388016661901
  0
LINE
  8
_0-0_通り芯
  6
CONTINUOUS
 62
    7
 10
1242.5327634170483
 20
1304.388016661901
 11
1242.5327634170483
 21
1342.351099984402
  0
TEXT
  8
_0-0_通り芯
 62
    7
 10
1102.5126856177919
 20
1304.388016661901
 40
30
 41
1
 50
0
  1
230
  0
LINE
  8
_0-0_通り芯
  6
CONTINUOUS
 62
    7
 10
1242.5327634170483
 20
1304.388016661901
 11
1292.5376234283524
 21
1304.388016661901
  0
POINT
  8
_0-0_通り芯
 62
    7
 10
1292.5376234283524
 20
1304.388016661901
  0
LINE
  8
_0-0_通り芯
  6
CONTINUOUS
 62
    7
 10
1292.5376234283524
 20
1304.388016661901
 11
1292.5376234283524
 21
1342.351099984402
  0
TEXT
  8
_0-0_通り芯
 62
    7
 10
1251.2851934227003
 20
1304.388016661901
 40
30
 41
1
 50
0
  1
50
  0
LINE
  8
_0-0_通り芯
  6
CONTINUOUS
 62
    7
 10
962.48774780723147
 20
1230.5709102014825
 11
1292.5376234283524
 21
1230.5709102014825
  0
POINT
  8
_0-0_通り芯
 62
    7
 10
962.48774780723147
 20
1230.5709102014825
  0
POINT
  8
_0-0_通り芯
 62
    7
 10
1292.5376234283524
 20
1230.5709102014825
  0
LINE
  8
_0-0_通り芯
  6
CONTINUOUS
 62
    7
 10
962.48774780723147
 20
1230.5709102014825
 11
962.48774780723147
 21
1303.3334865696092
  0
LINE
  8
_0-0_通り芯
  6
CONTINUOUS
 62
    7
 10
1292.5376234283524
 20
1230.5709102014825
 11
1292.5376234283524
 21
1303.3334865696092
  0
TEXT
  8
_0-0_通り芯
 62
    7
 10
1102.5126856177919
 20
1230.5709102014825
 40
30
 41
1
 50
0
  1
330
  0
LINE
  8
_0-0_通り芯
  6
CONTINUOUS
 62
    7
 10
989.98774780723147
 20
1427.8957509658139
 11
994.98774780723147
 21
1417.8957509658139
  0
LINE
  8
_0-0_通り芯
  6
CONTINUOUS
 62
    7
 10
994.98774780723147
 20
1417.8957509658139
 11
1012.4926078185356
 21
1417.8957509658139
  0
LINE
  8
_0-0_通り芯
  6
CONTINUOUS
 62
    7
 10
967.48774780723147
 20
1417.8957509658139
 11
976.2784570486815
 21
1417.8957509658139
  0
LINE
  8
_0-0_通り芯
  6
CONTINUOUS
 62
    7
 10
976.2784570486815
 20
1417.8957509658139
 11
980.98774780723147
 21
1417.8957509658139
  0
LINE
  8
_0-0_通り芯
  6
CONTINUOUS
 62
    7
 10
984.98774780723147
 20
1427.8957509658139
 11
980.98774780723147
 21
1417.8957509658139
  0
LINE
  8
_0-0_通り芯
  6
CONTINUOUS
 62
    7
 10
984.98774780723147
 20
1427.8957509658139
 11
989.98774780723147
 21
1427.8957509658139
  0
LINE
  8
_0-0_通り芯
  6
CONTINUOUS
 62
    7
 10
1265.0376234283524
 20
1427.8957509658139
 11
1260.0376234283524
 21
1417.8957509658139
  0
LINE
  8
_0-0_通り芯
  6
CONTINUOUS
 62
    7
 10
1260.0376234283524
 20
1417.8957509658139
 11
1242.5327634170483
 21
1417.8957509658139
  0
LINE
  8
_0-0_通り芯
  6
CONTINUOUS
 62
    7
 10
1287.5376234283524
 20
1417.8957509658139
 11
1275.0376234283524
 21
1417.8957509658139
  0
LINE
  8
_0-0_通り芯
  6
CONTINUOUS
 62
    7
 10
1270.0376234283524
 20
1427.8957509658139
 11
1275.0376234283524
 21
1417.8957509658139
  0
LINE
  8
_0-0_通り芯
  6
CONTINUOUS
 62
    7
 10
1265.0376234283524
 20
1427.8957509658139
 11
1270.0376234283524
 21
1427.8957509658139
  0
LINE
  8
_0-0_通り芯
  6
CONTINUOUS
 62
    7
 10
962.48774780723147
 20
1382.8957509658139
 11
1292.5376234283524
 21
1382.8957509658139
  0
LINE
  8
_0-0_通り芯
  6
CONTINUOUS
 62
    7
 10
1350.7494999999999
 20
1765.6050955414014
 11
3350.7494999999999
 21
1765.6050955414014
  0
POINT
  8
_0-0_通り芯
 62
    7
 10
1350.7494999999999
 20
1765.6050955414014
  0
POINT
  8
_0-0_通り芯
 62
    7
 10
3350.7494999999999
 20
1765.6050955414014
  0
LINE
  8
_0-0_通り芯
  6
CONTINUOUS
 62
    7
 10
1350.7494999999999
 20
1765.6050955414014
 11
1350.7494999999999
 21
1705.7006369426749
  0
LINE
  8
_0-0_通り芯
  6
CONTINUOUS
 62
    7
 10
3350.7494999999999
 20
1765.6050955414014
 11
3350.7494999999999
 21
1705.7006369426749
  0
TEXT
  8
_0-0_通り芯
 62
    7
 10
2316.9994999999999
 20
1765.6050955414014
 40
30
 41
1
 50
0
  1
2000
  0
TEXT
  8
_0-0_通り芯
 62
    7
 10
763.24369556739896
 20
564.24509294163522
 40
40
 41
1
 50
0
  1
名　称
  0
TEXT
  8
_0-0_通り芯
 62
    7
 10
971.26505374263866
 20
1522.1484807201359
 40
30
 41
1
 50
0
  1
50
  0
TEXT
  8
_0-0_通り芯
 62
    7
 10
2604.4532367086958
 20
562.66329780319779
 40
40
 41
1
 50
0
  1
312㎏
  0
TEXT
  8
_0-0_通り芯
 62
    7
 10
922.30185725083675
 20
565.18437533743645
 40
40
 41
1
 50
0
  1
歩車道境界ブロック　Cr×2M
  0
TEXT
  8
_0-0_通り芯
 62
    7
 10
1831.7561419472247
 20
563.90506521079772
 40
40
 41
1
 50
0
  1
雑草防止型
  0
ENDSEC
  0
EOF
