  0
SECTION
  2
HEADER
  9
$ACADVER
  1
AC1009
  9
$INSBASE
 10
0
 20
0
 30
0
  9
$EXTMIN
 10
0
 20
0
  9
$EXTMAX
 10
4200
 20
2970
  9
$LIMMIN
 10
0
 20
0
  9
$LIMMAX
 10
4200
 20
2970
  9
$LTSCALE
 40
10
  0
ENDSEC
  0
SECTION
  2
TABLES
  0
TABLE
  2
LTYPE
 70
     9
  0
LTYPE
  2
CONTINUOUS
 70
    64
  3
実線
 72
    65
 73
     0
 40
0.0
  0
LTYPE
  2
DASHED1
 70
    64
  3
--  --  --  --  --  --  --  --  
 72
    65
 73
     2
 40
2.5
 49
1.25
 49
-1.25
  0
LTYPE
  2
DASHED2
 70
    64
  3
----    ----    ----    ----    
 72
    65
 73
     2
 40
5.0
 49
2.5
 49
-2.5
  0
LTYPE
  2
DASHED3
 70
    64
  3
------  ------  ------  ------  
 72
    65
 73
     2
 40
5.0
 49
3.75
 49
-1.25
  0
LTYPE
  2
CENTER1
 70
    64
  3
----- - ----- - ----- - ----- - 
 72
    65
 73
     4
 40
10.0
 49
6.25
 49
-1.25
 49
1.25
 49
-1.25
  0
LTYPE
  2
CENTER2
 70
    64
  3
----------  --  ----------  --  
 72
    65
 73
     4
 40
20.0
 49
12.5
 49
-2.5
 49
2.5
 49
-2.5
  0
LTYPE
  2
PHANTOM1
 70
    64
  3
--- - - --- - - --- - - --- - - 
 72
    65
 73
     6
 40
10.0
 49
3.25
 49
-1.25
 49
1.25
 49
-1.25
 49
1.25
 49
-1.25
  0
LTYPE
  2
PHANTOM2
 70
    64
  3
--------  -  -  --------  -  -  
 72
    65
 73
     6
 40
20.0
 49
10.0
 49
-2.5
 49
1.25
 49
-2.5
 49
1.25
 49
-2.5
  0
LTYPE
  2
DOT
 70
    64
  3
-   -   -   -   -   -   -   -   
 72
    65
 73
     2
 40
2.5
 49
0.625
 49
-1.875
  0
LTYPE
  2
DUMMY
 70
    64
  3
ダミー
 72
    65
 73
     0
 40
0.0
  0
LTYPE
  2
RAND1
 70
    64
  3
ランダム線1
 72
    65
 73
     4
 40
10.0
 49
1.0
 49
-2.0
 49
3.0
 49
-4.0
  0
LTYPE
  2
RAND2
 70
    64
  3
ランダム線2
 72
    65
 73
     4
 40
14.0
 49
2.0
 49
-3.0
 49
4.0
 49
-5.0
  0
LTYPE
  2
RAND3
 70
    64
  3
ランダム線3
 72
    65
 73
     4
 40
18.0
 49
3.0
 49
-4.0
 49
5.0
 49
-6.0
  0
LTYPE
  2
RAND4
 70
    64
  3
ランダム線4
 72
    65
 73
     4
 40
22.0
 49
4.0
 49
-5.0
 49
6.0
 49
-7.0
  0
LTYPE
  2
RAND5
 70
    64
  3
ランダム線5
 72
    65
 73
     4
 40
26.0
 49
5.0
 49
-6.0
 49
7.0
 49
-8.0
  0
LTYPE
  2
LONG1
 70
    64
  3
----------  --  ----------  --  
 72
    65
 73
     4
 40
40.0
 49
32.5
 49
-2.5
 49
2.5
 49
-2.5
  0
LTYPE
  2
LONG2
 70
    64
  3
--------  -  -  --------  -  -  
 72
    65
 73
     6
 40
40.0
 49
30.0
 49
-2.5
 49
1.25
 49
-2.5
 49
1.25
 49
-2.5
  0
LTYPE
  2
LONG3
 70
    64
  3
+++++++++++++++..+++++++++++++++
 72
    65
 73
     2
 40
40.0
 49
37.5
 49
-2.5
  0
LTYPE
  2
LONG4
 70
    64
  3
+++++++++++++++..+++++++++++++++
 72
    65
 73
     2
 40
80.0
 49
75.0
 49
-5.0
  0
LTYPE
  2
LONG5
 70
    64
  3
----------  --  ----------  --  
 72
    65
 73
     4
 40
60.0
 49
37.5
 49
-7.5
 49
7.5
 49
-7.5
  0
LTYPE
  2
dashed
 70
   64
  3
-------   -------------   ------
 72
   65
 73
    2
 40
7.5
 49
6
 49
-1.5
  0
LTYPE
  2
dashed_spaced
 70
   64
  3
----        --------        ----
 72
   65
 73
    2
 40
12
 49
6
 49
-6
  0
LTYPE
  2
long_dashed_dotted
 70
   64
  3
------------- --- --------------
 72
   65
 73
    4
 40
15.25
 49
12
 49
-1.5
 49
0.25
 49
-1.5
  0
LTYPE
  2
long_dashed_double-dotted
 70
   64
  3
----------- --- --- ------------
 72
   65
 73
    6
 40
17
 49
12
 49
-1.5
 49
0.25
 49
-1.5
 49
0.25
 49
-1.5
  0
LTYPE
  2
long_dashed_triplicate-dotted
 70
   64
  3
--------- --- --- --- ----------
 72
   65
 73
    8
 40
18.75
 49
12
 49
-1.5
 49
0.25
 49
-1.5
 49
0.25
 49
-1.5
 49
0.25
 49
-1.5
  0
LTYPE
  2
dotted
 70
   64
  3
   -       -       -       -    
 72
   65
 73
    2
 40
1.75
 49
0.25
 49
-1.5
  0
LTYPE
  2
chain
 70
   64
  3
-------------- -- --------------
 72
   65
 73
    4
 40
18.5
 49
12
 49
-1.5
 49
3.5
 49
-1.5
  0
LTYPE
  2
chain_double_dash
 70
   64
  3
------------ -- -- -------------
 72
   65
 73
    6
 40
23.5
 49
12
 49
-1.5
 49
3.5
 49
-1.5
 49
3.5
 49
-1.5
  0
LTYPE
  2
dashed_dotted
 70
   64
  3
-----------     -     ----------
 72
   65
 73
    4
 40
9.25
 49
6
 49
-1.5
 49
0.25
 49
-1.5
  0
LTYPE
  2
double-dashed_dotted
 70
   64
  3
------   -----------   -   -----
 72
   65
 73
    6
 40
16.75
 49
6
 49
-1.5
 49
6
 49
-1.5
 49
0.25
 49
-1.5
  0
LTYPE
  2
dashed_double-dotted
 70
   64
  3
---------    -    -    ---------
 72
   65
 73
    6
 40
11
 49
6
 49
-1.5
 49
0.25
 49
-1.5
 49
0.25
 49
-1.5
  0
LTYPE
  2
double-dashed_double-dotted
 70
   64
  3
-----   ---------   -   -   ----
 72
   65
 73
    8
 40
18.5
 49
6
 49
-1.5
 49
6
 49
-1.5
 49
0.25
 49
-1.5
 49
0.25
 49
-1.5
  0
LTYPE
  2
dashed_triplicate-dotted
 70
   64
  3
-------    -    -    -    ------
 72
   65
 73
    8
 40
12.75
 49
6
 49
-1.5
 49
0.25
 49
-1.5
 49
0.25
 49
-1.5
 49
0.25
 49
-1.5
  0
LTYPE
  2
double-dashed_triplicate-dotted
 70
   64
  3
-----  ---------  -  -  -  -----
 72
   65
 73
   10
 40
20.25
 49
6
 49
-1.5
 49
6
 49
-1.5
 49
0.25
 49
-1.5
 49
0.25
 49
-1.5
 49
0.25
 49
-1.5
  0
LTYPE
  2
undefined
 70
   64
  3
--------------------------------
 72
   65
 73
    0
 40
0
  0
ENDTAB
  0
TABLE
  2
STYLE
  5
3
100
AcDbSymbolTable
 70
     1
  0
STYLE
  5
10
100
AcDbSymbolTableRecord
100
AcDbTextStyleTableRecord
  2
STANDARD
 70
     0
 40
0.0
 41
1.0
 50
0.0
 71
     0
 42
0.2
  3
txt
  4
bigfont.shx
  0
STYLE
  5
26
100
AcDbSymbolTableRecord
100
AcDbTextStyleTableRecord
  2
TATEGAKI
 70
    68
 40
0.0
 41
1.0
 50
0.0
 71
     0
 42
1.0
  3
txt
  4
bigfont.shx
  0
ENDTAB
  0
TABLE
  2
LAYER
 70
    2
  0
LAYER
  2
_0-0_通り芯
 70
   64
 62
    7
  6
CONTINUOUS
  0
LAYER
  2
ADD_LINE
 70
   64
 62
    7
  6
CONTINUOUS
  0
ENDTAB
  0
ENDSEC
  0
SECTION
  2
BLOCKS
  0
ENDSEC
  0
SECTION
  2
ENTITIES
  0
TEXT
  8
_0-0_通り芯
 62
    7
 10
2326.9994999999999
 20
1741.5519999999997
 40
30
 41
0.8000000000000001
 50
0
  1
2000
  0
TEXT
  8
_0-0_通り芯
 62
    7
 10
1103.3851
 20
1739.2238
 40
30
 41
0.8000000000000001
 50
0
  1
180
  0
TEXT
  8
_0-0_通り芯
 62
    7
 10
852.15087798361697
 20
1524.4050999999999
 40
30
 41
0.8000000000000001
 50
90
  1
250
  0
TEXT
  8
_0-0_通り芯
 62
    7
 10
973.95373983352192
 20
1541.1451698713204
 40
30
 41
0.8000000000000001
 50
0
  1
50
  0
TEXT
  8
_0-0_通り芯
 62
    7
 10
1105.9215999999999
 20
1364.6059
 40
30
 41
0.8000000000000001
 50
0
  1
230
  0
TEXT
  8
_0-0_通り芯
 62
    7
 10
971.42026929206349
 20
1364.6059
 40
30
 41
0.8000000000000001
 50
0
  1
45
  0
TEXT
  8
_0-0_通り芯
 62
    7
 10
976.45373983352192
 20
1502.0755381795379
 40
30
 41
0.8000000000000001
 50
0
  1
45
  0
TEXT
  8
_0-0_通り芯
 62
    7
 10
934.02167844798441
 20
1501.0481272188131
 40
30
 41
0.8000000000000001
 50
0
  1
5
  0
TEXT
  8
_0-0_通り芯
 62
    7
 10
888.2107651275669
 20
1543.8918000000003
 40
30
 41
0.8000000000000001
 50
90
  1
200
  0
TEXT
  8
_0-0_通り芯
 62
    7
 10
888.2107651275669
 20
1427.3918000000003
 40
30
 41
0.8000000000000001
 50
90
  1
50
  0
TEXT
  8
_0-0_通り芯
 62
    7
 10
1100.4202692920633
 20
1321.7086679590143
 40
30
 41
0.8000000000000001
 50
0
  1
320
  0
TEXT
  8
_0-0_通り芯
 62
    7
 10
1246.4215999999999
 20
1364.6059
 40
30
 41
0.8000000000000001
 50
0
  1
45
  0
TEXT
  8
_0-0_通り芯
 62
    7
 10
763.24369556739896
 20
564.24509294163522
 40
40
 41
1
 50
0
  1
名　称
  0
TEXT
  8
_0-0_通り芯
 62
    7
 10
1653.7943585077344
 20
564.24509294163522
 40
40
 41
1
 50
0
  1
分　類
  0
TEXT
  8
_0-0_通り芯
 62
    7
 10
2082.4608410243077
 20
562.66329780319779
 40
40
 41
1
 50
0
  1
図　番
  0
TEXT
  8
_0-0_通り芯
 62
    7
 10
2384.5837124658779
 20
561.08150266476036
 40
40
 41
1
 50
0
  1
参考重量
  0
TEXT
  8
_0-0_通り芯
 62
    7
 10
2770.5417262446376
 20
564.24509294163522
 40
50
 41
1
 50
0
  1
岩城ブロック工業株式会社
  0
LINE
  8
_0-0_通り芯
  6
CONTINUOUS
 62
    7
 10
750.00012000000027
 20
541.89191000000005
 11
750.00012000000027
 21
2441.8917999999999
  0
LINE
  8
_0-0_通り芯
  6
CONTINUOUS
 62
    7
 10
750.00012000000027
 20
2441.8917999999999
 11
3450
 21
2441.8917999999999
  0
LINE
  8
_0-0_通り芯
  6
CONTINUOUS
 62
    7
 10
3450
 20
2441.8917999999999
 11
3450
 21
541.89191000000005
  0
LINE
  8
_0-0_通り芯
  6
CONTINUOUS
 62
    7
 10
3450
 20
541.89191000000005
 11
750.00012000000027
 21
541.89191000000005
  0
LINE
  8
_0-0_通り芯
  6
CONTINUOUS
 62
    7
 10
3450
 20
641.89193
 11
750
 21
641.89193
  0
LINE
  8
_0-0_通り芯
  6
CONTINUOUS
 62
    7
 10
900.00012000000015
 20
541.89191000000005
 11
900.00012000000015
 21
641.89193
  0
LINE
  8
_0-0_通り芯
  6
CONTINUOUS
 62
    7
 10
1640
 20
541.89191000000005
 11
1640
 21
641.89193
  0
LINE
  8
_0-0_通り芯
  6
CONTINUOUS
 62
    7
 10
1790
 20
541.89191000000005
 11
1790
 21
641.89193
  0
LINE
  8
_0-0_通り芯
  6
CONTINUOUS
 62
    7
 10
2070
 20
541.89191000000005
 11
2070
 21
641.89193
  0
LINE
  8
_0-0_通り芯
  6
CONTINUOUS
 62
    7
 10
2220.0001000000002
 20
541.89191000000005
 11
2220.0001000000002
 21
641.89193
  0
LINE
  8
_0-0_通り芯
  6
CONTINUOUS
 62
    7
 10
2370.0001000000002
 20
541.89191000000005
 11
2370.0001000000002
 21
641.89193
  0
LINE
  8
_0-0_通り芯
  6
CONTINUOUS
 62
    7
 10
2570
 20
541.89191000000005
 11
2570
 21
641.89193
  0
LINE
  8
_0-0_通り芯
  6
CONTINUOUS
 62
    7
 10
2739.9998000000001
 20
541.89191000000005
 11
2739.9998000000001
 21
641.89193
  0
ARC
  8
_0-0_通り芯
  6
CONTINUOUS
 62
    7
 10
1060.8575000000001
 20
1636.8918000000003
 40
30
 50
90
 51
174.5187
  0
LINE
  8
_0-0_通り芯
  6
CONTINUOUS
 62
    7
 10
1350.7494999999999
 20
1666.8918000000003
 11
3350.7494999999999
 21
1666.8918000000003
  0
ARC
  8
_0-0_通り芯
  6
CONTINUOUS
 62
    7
 10
1185.9857999999999
 20
1636.8918000000003
 40
30
 50
5.4812964999999991
 51
90
  0
LINE
  8
_0-0_通り芯
  6
CONTINUOUS
 62
    7
 10
1033.4215999999999
 20
1739.2724000000001
 11
1033.4215999999999
 21
1679.4432000000002
  0
POINT
  8
_0-0_通り芯
 62
    7
 10
1033.4215999999999
 20
1739.2724000000001
  0
POINT
  8
_0-0_通り芯
 62
    7
 10
1213.4215999999999
 20
1739.2724000000001
  0
LINE
  8
_0-0_通り芯
  6
CONTINUOUS
 62
    7
 10
1033.4215999999999
 20
1739.2724000000001
 11
1213.4215999999999
 21
1739.2724000000001
  0
LINE
  8
_0-0_通り芯
  6
CONTINUOUS
 62
    7
 10
1213.4215999999999
 20
1739.2724000000001
 11
1213.4215999999999
 21
1679.4432000000002
  0
POINT
  8
_0-0_通り芯
 62
    7
 10
1008.4216000000001
 20
1364.6059
  0
LINE
  8
_0-0_通り芯
  6
CONTINUOUS
 62
    7
 10
1008.4216000000001
 20
1364.6059
 11
1238.4215999999999
 21
1364.6059
  0
POINT
  8
_0-0_通り芯
 62
    7
 10
1238.4215999999999
 20
1364.6059
  0
LINE
  8
_0-0_通り芯
  6
CONTINUOUS
 62
    7
 10
1350.7494999999999
 20
1741.5519999999997
 11
1350.7494999999999
 21
1678.1186
  0
POINT
  8
_0-0_通り芯
 62
    7
 10
1350.7494999999999
 20
1741.5519999999997
  0
LINE
  8
_0-0_通り芯
  6
CONTINUOUS
 62
    7
 10
1350.7494999999999
 20
1741.5519999999997
 11
3350.7494999999999
 21
1741.5519999999997
  0
POINT
  8
_0-0_通り芯
 62
    7
 10
3350.7494999999999
 20
1741.5519999999997
  0
LINE
  8
_0-0_通り芯
  6
CONTINUOUS
 62
    7
 10
3350.7494999999999
 20
1741.5519999999997
 11
3350.7494999999999
 21
1678.1186
  0
LINE
  8
_0-0_通り芯
  6
CONTINUOUS
 62
    7
 10
852.15087798361697
 20
1666.8918000000003
 11
893.22469798361681
 21
1666.8918000000003
  0
POINT
  8
_0-0_通り芯
 62
    7
 10
852.15087798361697
 20
1666.8918000000003
  0
LINE
  8
_0-0_通り芯
  6
CONTINUOUS
 62
    7
 10
852.15087798361697
 20
1416.9184
 11
852.15087798361697
 21
1666.8918000000003
  0
POINT
  8
_0-0_通り芯
 62
    7
 10
852.15087798361697
 20
1416.9184
  0
LINE
  8
_0-0_通り芯
  6
CONTINUOUS
 62
    7
 10
852.15087798361697
 20
1416.9184
 11
893.22469798361681
 21
1416.9184
  0
LINE
  8
_0-0_通り芯
  6
CONTINUOUS
 62
    7
 10
986.90651821180336
 20
1476.8918000000003
 11
981.90651821180336
 21
1466.8918000000003
  0
LINE
  8
_0-0_通り芯
  6
CONTINUOUS
 62
    7
 10
991.90651821180336
 20
1476.8918000000003
 11
996.90651821180336
 21
1466.8918000000003
  0
LINE
  8
_0-0_通り芯
  6
CONTINUOUS
 62
    7
 10
986.90651821180336
 20
1476.8918000000003
 11
991.90651821180336
 21
1476.8918000000003
  0
LINE
  8
_0-0_通り芯
  6
CONTINUOUS
 62
    7
 10
996.90651821180336
 20
1466.8918000000003
 11
1013.4858796670442
 21
1466.8918000000003
  0
LINE
  8
_0-0_通り芯
  6
CONTINUOUS
 62
    7
 10
968.4215999999999
 20
1466.8918000000003
 11
981.90651821180336
 21
1466.8918000000003
  0
LINE
  8
_0-0_通り芯
  6
CONTINUOUS
 62
    7
 10
1013.4858796670442
 20
1502.0755381795379
 11
968.4215999999999
 21
1502.0755381795379
  0
POINT
  8
_0-0_通り芯
 62
    7
 10
1013.4858796670442
 20
1502.0755381795379
  0
POINT
  8
_0-0_通り芯
 62
    7
 10
968.4215999999999
 20
1502.0755381795379
  0
LINE
  8
_0-0_通り芯
  6
CONTINUOUS
 62
    7
 10
1013.4858796670442
 20
1502.0755381795379
 11
1013.4858796670442
 21
1479.1503823934504
  0
LINE
  8
_0-0_通り芯
  6
CONTINUOUS
 62
    7
 10
968.4215999999999
 20
1502.0755381795379
 11
963.4215999999999
 21
1502.0755381795379
  0
POINT
  8
_0-0_通り芯
 62
    7
 10
963.4215999999999
 20
1502.0755381795379
  0
LINE
  8
_0-0_通り芯
  6
CONTINUOUS
 62
    7
 10
1013.4858796670442
 20
1541.1451698713204
 11
963.4215999999999
 21
1541.1451698713204
  0
POINT
  8
_0-0_通り芯
 62
    7
 10
1013.4858796670442
 20
1541.1451698713204
  0
POINT
  8
_0-0_通り芯
 62
    7
 10
963.4215999999999
 20
1541.1451698713204
  0
LINE
  8
_0-0_通り芯
  6
CONTINUOUS
 62
    7
 10
1013.4858796670442
 20
1466.8917999999996
 11
1030.9946771852312
 21
1639.757426202721
  0
LINE
  8
_0-0_通り芯
  6
CONTINUOUS
 62
    7
 10
968.4215999999999
 20
1466.8918000000003
 11
963.41893858412686
 21
1416.8918000000003
  0
LINE
  8
_0-0_通り芯
  6
CONTINUOUS
 62
    7
 10
1060.8575000000001
 20
1666.8918000000003
 11
1185.9857999999999
 21
1666.8918000000003
  0
LINE
  8
_0-0_通り芯
  6
CONTINUOUS
 62
    7
 10
1008.4216000000001
 20
1364.6059
 11
963.41893858412686
 21
1364.6059
  0
POINT
  8
_0-0_通り芯
 62
    7
 10
1008.4216000000001
 20
1364.6059
  0
POINT
  8
_0-0_通り芯
 62
    7
 10
963.41893858412686
 20
1364.6059
  0
LINE
  8
_0-0_通り芯
  6
CONTINUOUS
 62
    7
 10
1008.4216000000001
 20
1364.6059
 11
1008.4216000000001
 21
1408.4644000000001
  0
LINE
  8
_0-0_通り芯
  6
CONTINUOUS
 62
    7
 10
963.4215999999999
 20
1502.0755381795379
 11
924.30421198607769
 21
1502.0755381795379
  0
LINE
  8
_0-0_通り芯
  6
CONTINUOUS
 62
    7
 10
963.4215999999999
 20
1502.0755381795379
 11
950.68019238268153
 21
1510.0714889334406
  0
LINE
  8
_0-0_通り芯
  6
CONTINUOUS
 62
    7
 10
888.2107651275669
 20
1666.8918000000003
 11
888.2107651275669
 21
1466.8918000000003
  0
POINT
  8
_0-0_通り芯
 62
    7
 10
888.2107651275669
 20
1666.8918000000003
  0
POINT
  8
_0-0_通り芯
 62
    7
 10
888.2107651275669
 20
1466.8918000000003
  0
LINE
  8
_0-0_通り芯
  6
CONTINUOUS
 62
    7
 10
888.2107651275669
 20
1466.8918000000003
 11
888.2107651275669
 21
1416.8918000000003
  0
POINT
  8
_0-0_通り芯
 62
    7
 10
888.2107651275669
 20
1416.8918000000003
  0
LINE
  8
_0-0_通り芯
  6
CONTINUOUS
 62
    7
 10
888.2107651275669
 20
1666.8918000000003
 11
1024.2552955942615
 21
1666.8918000000003
  0
LINE
  8
_0-0_通り芯
  6
CONTINUOUS
 62
    7
 10
888.2107651275669
 20
1466.8918000000003
 11
957.62123985547214
 21
1466.8918000000003
  0
LINE
  8
_0-0_通り芯
  6
CONTINUOUS
 62
    7
 10
888.2107651275669
 20
1416.8918000000003
 11
957.62123985547214
 21
1416.8918000000003
  0
LINE
  8
_0-0_通り芯
  6
CONTINUOUS
 62
    7
 10
1008.4216000000001
 20
1364.6059
 11
1008.4216000000001
 21
1408.4644000000001
  0
LINE
  8
_0-0_通り芯
  6
CONTINUOUS
 62
    7
 10
963.4215999999999
 20
1541.1451698713204
 11
963.4215999999999
 21
1479.1503823934504
  0
LINE
  8
_0-0_通り芯
  6
CONTINUOUS
 62
    7
 10
968.4215999999999
 20
1502.0755381795379
 11
968.4215999999999
 21
1469.8134135912555
  0
LINE
  8
_0-0_通り芯
  6
CONTINUOUS
 62
    7
 10
963.4215999999999
 20
1502.0755381795379
 11
963.4215999999999
 21
1416.8918000000003
  0
LINE
  8
_0-0_通り芯
  6
CONTINUOUS
 62
    7
 10
1013.4858796670442
 20
1466.8918000000003
 11
1013.4858796670442
 21
1509.849137412175
  0
LINE
  8
_0-0_通り芯
  6
CONTINUOUS
 62
    7
 10
1013.4858796670442
 20
1541.1451698713204
 11
1013.4858796670442
 21
1479.1503823934504
  0
LINE
  8
_0-0_通り芯
  6
CONTINUOUS
 62
    7
 10
1390.7494999999999
 20
1431.8918000000003
 11
1400.7494999999999
 21
1416.8918000000003
  0
LINE
  8
_0-0_通り芯
  6
CONTINUOUS
 62
    7
 10
1350.7494999999999
 20
1431.8918000000003
 11
1350.7494999999999
 21
1666.8918000000003
  0
LINE
  8
_0-0_通り芯
  6
CONTINUOUS
 62
    7
 10
3320.7494999999999
 20
1431.8918000000003
 11
3310.7494999999999
 21
1416.8918000000003
  0
LINE
  8
_0-0_通り芯
  6
CONTINUOUS
 62
    7
 10
1400.7494999999999
 20
1416.8918000000003
 11
3310.7494999999999
 21
1416.8918000000003
  0
LINE
  8
_0-0_通り芯
  6
CONTINUOUS
 62
    7
 10
3350.7494999999999
 20
1431.8918000000003
 11
3350.7494999999999
 21
1666.8918000000003
  0
LINE
  8
_0-0_通り芯
  6
CONTINUOUS
 62
    7
 10
1350.7494999999999
 20
1431.8918000000003
 11
1390.7494999999999
 21
1431.8918000000003
  0
LINE
  8
_0-0_通り芯
  6
CONTINUOUS
 62
    7
 10
3320.7494999999999
 20
1431.8918000000003
 11
3350.7494999999999
 21
1431.8918000000003
  0
LINE
  8
_0-0_通り芯
  6
CONTINUOUS
 62
    7
 10
963.41893858412686
 20
1416.8918000000003
 11
1283.4215999999997
 21
1416.8918000000003
  0
LINE
  8
_0-0_通り芯
  6
CONTINUOUS
 62
    7
 10
1259.9340203723234
 20
1476.8918000000003
 11
1264.9340203723234
 21
1466.8918000000003
  0
LINE
  8
_0-0_通り芯
  6
CONTINUOUS
 62
    7
 10
1254.9340203723234
 20
1476.8918000000003
 11
1249.9340203723234
 21
1466.8918000000003
  0
LINE
  8
_0-0_通り芯
  6
CONTINUOUS
 62
    7
 10
1259.9340203723234
 20
1476.8918000000003
 11
1254.9340203723234
 21
1476.8918000000003
  0
LINE
  8
_0-0_通り芯
  6
CONTINUOUS
 62
    7
 10
1249.9340203723234
 20
1466.8918000000003
 11
1233.3546589170824
 21
1466.8918000000003
  0
LINE
  8
_0-0_通り芯
  6
CONTINUOUS
 62
    7
 10
1278.4189385841269
 20
1466.8918000000003
 11
1264.9340203723234
 21
1466.8918000000003
  0
LINE
  8
_0-0_通り芯
  6
CONTINUOUS
 62
    7
 10
1278.4189385841269
 20
1466.8918000000003
 11
1283.4215999999997
 21
1416.8918000000003
  0
LINE
  8
_0-0_通り芯
  6
CONTINUOUS
 62
    7
 10
1215.8486229898199
 20
1639.7574243785052
 11
1233.3573155126542
 21
1466.8920690736672
  0
LINE
  8
_0-0_通り芯
  6
CONTINUOUS
 62
    7
 10
964.91973700888866
 20
1431.8918000000003
 11
1281.9208015752379
 21
1431.8918000000003
  0
LINE
  8
_0-0_通り芯
  6
CONTINUOUS
 62
    7
 10
1238.4215999999999
 20
1364.6059
 11
1283.4215999999997
 21
1364.6059
  0
POINT
  8
_0-0_通り芯
 62
    7
 10
1238.4215999999999
 20
1364.6059
  0
POINT
  8
_0-0_通り芯
 62
    7
 10
1283.4215999999997
 20
1364.6059
  0
LINE
  8
_0-0_通り芯
  6
CONTINUOUS
 62
    7
 10
1238.4215999999999
 20
1364.6059
 11
1238.4215999999999
 21
1408.4644000000001
  0
LINE
  8
_0-0_通り芯
  6
CONTINUOUS
 62
    7
 10
963.41893858412686
 20
1321.7086679590143
 11
1283.4215999999997
 21
1321.7086679590143
  0
POINT
  8
_0-0_通り芯
 62
    7
 10
1283.4215999999997
 20
1321.7086679590143
  0
LINE
  8
_0-0_通り芯
  6
CONTINUOUS
 62
    7
 10
963.41893858412686
 20
1364.6059
 11
963.41893858412686
 21
1408.4644000000001
  0
POINT
  8
_0-0_通り芯
 62
    7
 10
963.41893858412686
 20
1321.7086679590143
  0
LINE
  8
_0-0_通り芯
  6
CONTINUOUS
 62
    7
 10
963.41893858412686
 20
1321.7086679590143
 11
963.41893858412686
 21
1408.4644000000001
  0
LINE
  8
_0-0_通り芯
  6
CONTINUOUS
 62
    7
 10
1238.4215999999999
 20
1364.6059
 11
1238.4215999999999
 21
1408.4644000000001
  0
LINE
  8
_0-0_通り芯
  6
CONTINUOUS
 62
    7
 10
1283.4215999999997
 20
1364.6059
 11
1283.4215999999997
 21
1408.4644000000001
  0
LINE
  8
_0-0_通り芯
  6
CONTINUOUS
 62
    7
 10
1283.4215999999997
 20
1321.7086679590143
 11
1283.4215999999997
 21
1408.4644000000001
  0
TEXT
  8
_0-0_通り芯
 62
    7
 10
2604.4532367086958
 20
562.66329780319779
 40
35
 41
1
 50
0
  1
262kg
  0
TEXT
  8
_0-0_通り芯
 62
    7
 10
957.80449759521639
 20
565.8268880800731
 40
35
 41
1
 50
0
  1
歩車道境界ブロック　Bｒ×2M
  0
TEXT
  8
_0-0_通り芯
 62
    7
 10
1845.2380952380952
 20
565.95238095238096
 40
35
 41
1
 50
0
  1
雑草防止型
  0
ENDSEC
  0
EOF
